  0
SECTION
  2
HEADER
  9
$ACADVER
  1
AC1009
  9
$INSBASE
 10
3092.0236695893809156
 20
133.9996667218524919
 30
0.0
  9
$EXTMIN
 10
3089.1997487654648467
 20
129.9557345118116984
 30
0.0
  9
$EXTMAX
 10
3092.0351820935588876
 20
134.9031673756952046
 30
0.0
  9
$LIMMIN
 10
0.0
 20
0.0
  9
$LIMMAX
 10
11.6929133858000007
 20
8.2677165353999982
  9
$ORTHOMODE
 70
     1
  9
$REGENMODE
 70
     1
  9
$FILLMODE
 70
     1
  9
$QTEXTMODE
 70
     0
  9
$MIRRTEXT
 70
     0
  9
$DRAGMODE
 70
     2
  9
$LTSCALE
 40
0.6431102362
  9
$OSMODE
 70
  4095
  9
$ATTMODE
 70
     1
  9
$TEXTSIZE
 40
0.2
  9
$TRACEWID
 40
0.05
  9
$TEXTSTYLE
  7
STANDARD
  9
$CLAYER
  8
0
  9
$CELTYPE
  6
BYLAYER
  9
$CECOLOR
 62
   256
  9
$DIMSCALE
 40
1.0
  9
$DIMASZ
 40
0.1875
  9
$DIMEXO
 40
0.0625
  9
$DIMDLI
 40
0.4443307087
  9
$DIMRND
 40
0.0
  9
$DIMDLE
 40
0.0
  9
$DIMEXE
 40
0.125
  9
$DIMTP
 40
0.01
  9
$DIMTM
 40
0.01
  9
$DIMTXT
 40
2.0
  9
$DIMCEN
 40
0.1052362205
  9
$DIMTSZ
 40
0.0
  9
$DIMTOL
 70
     1
  9
$DIMLIM
 70
     0
  9
$DIMTIH
 70
     1
  9
$DIMTOH
 70
     1
  9
$DIMSE1
 70
     0
  9
$DIMSE2
 70
     0
  9
$DIMTAD
 70
     0
  9
$DIMZIN
 70
     0
  9
$DIMBLK
  1

  9
$DIMASO
 70
     1
  9
$DIMSHO
 70
     1
  9
$DIMPOST
  1
\X
  9
$DIMAPOST
  1

  9
$DIMALT
 70
     1
  9
$DIMALTD
 70
     2
  9
$DIMALTF
 40
25.3999999999999986
  9
$DIMLFAC
 40
1.0
  9
$DIMTOFL
 70
     0
  9
$DIMTVP
 40
0.0
  9
$DIMTIX
 70
     0
  9
$DIMSOXD
 70
     0
  9
$DIMSAH
 70
     0
  9
$DIMBLK1
  1

  9
$DIMBLK2
  1

  9
$DIMSTYLE
  2
STANDARD
  9
$DIMCLRD
 70
     0
  9
$DIMCLRE
 70
     0
  9
$DIMCLRT
 70
     0
  9
$DIMTFAC
 40
1.0
  9
$DIMGAP
 40
0.09
  9
$LUNITS
 70
     2
  9
$LUPREC
 70
     4
  9
$SKETCHINC
 40
0.1
  9
$FILLETRAD
 40
0.0
  9
$AUNITS
 70
     0
  9
$AUPREC
 70
     0
  9
$MENU
  1
.
  9
$ELEVATION
 40
0.0
  9
$PELEVATION
 40
0.0
  9
$THICKNESS
 40
0.0
  9
$LIMCHECK
 70
     0
  9
$BLIPMODE
 70
     0
  9
$CHAMFERA
 40
0.0
  9
$CHAMFERB
 40
0.0
  9
$SKPOLY
 70
     0
  9
$TDCREATE
 40
2458060.468368056230247
  9
$TDUPDATE
 40
2459715.3668749998323619
  9
$TDINDWG
 40
0.4345672454
  9
$TDUSRTIMER
 40
0.4345672454
  9
$USRTIMER
 70
     1
  9
$ANGBASE
 50
0.0
  9
$ANGDIR
 70
     0
  9
$PDMODE
 70
     0
  9
$PDSIZE
 40
0.3125
  9
$PLINEWID
 40
0.0
  9
$COORDS
 70
     1
  9
$SPLFRAME
 70
     0
  9
$SPLINETYPE
 70
     6
  9
$SPLINESEGS
 70
     8
  9
$ATTDIA
 70
     1
  9
$ATTREQ
 70
     1
  9
$HANDLING
 70
     1
  9
$HANDSEED
  5
28D9E
  9
$SURFTAB1
 70
     6
  9
$SURFTAB2
 70
     6
  9
$SURFTYPE
 70
     6
  9
$SURFU
 70
     6
  9
$SURFV
 70
     6
  9
$UCSNAME
  2

  9
$UCSORG
 10
0.0
 20
0.0
 30
0.0
  9
$UCSXDIR
 10
1.0
 20
0.0
 30
0.0
  9
$UCSYDIR
 10
0.0
 20
1.0
 30
0.0
  9
$PUCSNAME
  2

  9
$PUCSORG
 10
0.0
 20
0.0
 30
0.0
  9
$PUCSXDIR
 10
1.0
 20
0.0
 30
0.0
  9
$PUCSYDIR
 10
0.0
 20
1.0
 30
0.0
  9
$USERI1
 70
     0
  9
$USERI2
 70
     0
  9
$USERI3
 70
     0
  9
$USERI4
 70
     0
  9
$USERI5
 70
     0
  9
$USERR1
 40
0.0
  9
$USERR2
 40
0.0
  9
$USERR3
 40
0.0
  9
$USERR4
 40
0.0
  9
$USERR5
 40
0.0
  9
$WORLDVIEW
 70
     1
  9
$SHADEDGE
 70
     3
  9
$SHADEDIF
 70
    70
  9
$TILEMODE
 70
     1
  9
$MAXACTVP
 70
    64
  9
$PLIMCHECK
 70
     0
  9
$PEXTMIN
 10
1.0000000000000000E+20
 20
1.0000000000000000E+20
 30
1.0000000000000000E+20
  9
$PEXTMAX
 10
-1.0000000000000000E+20
 20
-1.0000000000000000E+20
 30
-1.0000000000000000E+20
  9
$PLIMMIN
 10
0.0
 20
0.0
  9
$PLIMMAX
 10
12.0
 20
9.0
  9
$UNITMODE
 70
     0
  9
$VISRETAIN
 70
     1
  9
$PLINEGEN
 70
     0
  9
$PSLTSCALE
 70
     1
  0
ENDSEC
  0
SECTION
  2
TABLES
  0
TABLE
  2
VPORT
 70
     1
  0
VPORT
  2
*ACTIVE
 70
     0
 10
0.0
 20
0.0
 11
1.0
 21
1.0
 12
-712.9266019533002918
 22
6.4341887470035308
 13
0.0
 23
0.0
 14
1.0
 24
1.0
 15
0.0
 25
0.0
 16
0.0
 26
0.0
 36
17.1152628219792007
 17
3803.5440673828129547
 27
125.9952621967499056
 37
0.0
 40
4.9828560108803428
 41
2.2831541218637992
 42
50.0
 43
0.0
 44
0.0
 50
0.0
 51
0.0
 71
     0
 72
   100
 73
     1
 74
     1
 75
     0
 76
     0
 77
     0
 78
     0
  0
ENDTAB
  0
TABLE
  2
LTYPE
 70
     2
  0
LTYPE
  2
CONTINUOUS
 70
     0
  3
Solid line
 72
    65
 73
     0
 40
0.0
  0
LTYPE
  2
PHANTOM2
 70
     0
  3
___ _ _ ___ _ _ ___ _ _ ___ _ _
 72
    65
 73
     6
 40
1.25
 49
0.625
 49
-0.125
 49
0.125
 49
-0.125
 49
0.125
 49
-0.125
  0
ENDTAB
  0
TABLE
  2
LAYER
 70
     2
  0
LAYER
  2
0
 70
     0
 62
   255
  6
CONTINUOUS
  0
LAYER
  2
DEFPOINTS
 70
     0
 62
     7
  6
CONTINUOUS
  0
ENDTAB
  0
TABLE
  2
STYLE
 70
     1
  0
STYLE
  2
STANDARD
 70
     0
 40
0.0
 41
0.8
 50
0.0
 71
     0
 42
0.2
  3
txt
  4

  0
ENDTAB
  0
TABLE
  2
VIEW
 70
     0
  0
ENDTAB
  0
TABLE
  2
UCS
 70
     0
  0
ENDTAB
  0
TABLE
  2
APPID
 70
    10
  0
APPID
  2
ACAD
 70
     0
  0
APPID
  2
ACAD_MLEADERVER
 70
     0
  0
APPID
  2
ACAD_EXEMPT_FROM_CAD_STANDARDS
 70
     0
  0
APPID
  2
ACAD_NAV_VCDISPLAY
 70
     0
  0
APPID
  2
ACAECLAYERSTANDARD
 70
     0
  0
APPID
  2
ACCMTRANSPARENCY
 70
     0
  0
APPID
  2
ACAD_DSTYLE_DIMJAG
 70
     0
  0
APPID
  2
ACAD_DSTYLE_DIMTALN
 70
     0
  0
APPID
  2
ACDBATTR
 70
     0
  0
APPID
  2
DCO15
 70
     0
  0
ENDTAB
  0
TABLE
  2
DIMSTYLE
 70
     1
  0
DIMSTYLE
  2
STANDARD
 70
     0
  3

  4

  5

  6

  7

 40
1.0
 41
0.1875
 42
0.0625
 43
0.38
 44
0.125
 45
0.0
 46
0.0
 47
0.01
 48
0.01
140
0.15625
141
0.09
142
0.0
143
25.3999999999999986
144
1.0
145
0.0
146
1.0
147
0.09
 71
     1
 72
     0
 73
     1
 74
     1
 75
     0
 76
     0
 77
     0
 78
     4
170
     0
171
     2
172
     0
173
     0
174
     0
175
     0
176
     0
177
     0
178
     0
  0
ENDTAB
  0
ENDSEC
  0
SECTION
  2
BLOCKS
  0
BLOCK
  8
0
  2
$MODEL_SPACE
 70
     0
 10
0.0
 20
0.0
 30
0.0
  3
$MODEL_SPACE
  1

  0
ENDBLK
  5
21
  8
0
  0
BLOCK
 67
     1
  8
0
  2
$PAPER_SPACE
 70
     0
 10
0.0
 20
0.0
 30
0.0
  3
$PAPER_SPACE
  1

  0
ENDBLK
  5
1D
 67
     1
  8
0
  0
ENDSEC
  0
SECTION
  2
ENTITIES
  0
ATTDEF
  5
28994
  8
DEFPOINTS
 10
3092.0245154268909573
 20
134.0038794937817954
 30
0.0
 40
0.001
  1
P24669-00
  3

  2
MODELNUMBER
 70
     0
1001
ACDBATTR
1070
     0
1070
     1
  0
ATTDEF
  5
28995
  8
DEFPOINTS
 10
3092.0245154268909573
 20
134.0022128271151871
 30
0.0
 40
0.001
  1
PER SE
  3

  2
TRADENAME
 70
     0
1001
ACDBATTR
1070
     0
1070
     1
  0
ATTDEF
  5
28996
  8
DEFPOINTS
 10
3092.0245154268909573
 20
134.0005461604484935
 30
0.0
 40
0.001
  1
TOWEL RING
  3

  2
PRODUCT
 70
     0
1001
ACDBATTR
1070
     0
1070
     1
  0
LINE
  5
28A9B
  8
0
 10
3089.1997487654798533
 20
130.0147877112025014
 30
0.0
 11
3089.1997487654798533
 21
134.2932000115025062
 31
0.0
  0
LINE
  5
28A9C
  8
0
 10
3089.9527237038810199
 20
130.0314122284848111
 30
0.0
 11
3089.9527237038810199
 21
134.3054562538175105
 31
0.0
  0
LINE
  5
28A9D
  8
0
 10
3092.0236695893809156
 20
134.8502928326024914
 30
0.0
 11
3092.0236695893809156
 21
133.1490406111024924
 31
0.0
  0
LINE
  5
28A9E
  8
0
 10
3091.9656695893809228
 20
134.8931643583024993
 30
0.0
 11
3091.9656695893809228
 21
133.106169085302497
 31
0.0
  0
LINE
  5
28A9F
  8
0
 10
3091.6505817720999403
 20
134.8245472053484946
 30
0.0
 11
3091.6505817720999403
 21
133.1719516692907064
 31
0.0
  0
LINE
  5
28AA0
  8
0
 10
3091.4671752795811699
 20
134.4321914023767022
 30
0.0
 11
3091.4671752795811699
 21
133.5671436025025116
 31
0.0
  0
ARC
  5
28AA1
  8
0
 10
3089.2588006081118692
 20
130.0147863544592042
 30
0.0
 40
0.059051842647561
 50
179.9986836030778079
 51
270.0031780633070753
  0
LINE
  5
28AA2
  8
0
 10
3089.2588038835810949
 20
129.9557345119025058
 30
0.0
 11
3089.8952144936611148
 21
129.9723773477739996
 31
0.0
  0
ARC
  5
28AA3
  8
0
 10
3089.8936678114678216
 20
130.0314129828038006
 30
0.0
 40
0.0590558924171091
 50
271.5007561873795794
 51
359.9992681800197829
  0
ARC
  5
28AA4
  8
0
 10
3089.2588038835961015
 20
134.2932000114990956
 30
0.0
 40
0.0590551181150865
 50
88.5000000866732535
 51
179.9999999967234885
  0
LINE
  5
28AA5
  8
0
 10
3089.2603497662807968
 20
134.3522348929024872
 30
0.0
 11
3089.8952144935979049
 21
134.3356103759068958
 31
0.0
  0
ARC
  5
28AA6
  8
0
 10
3089.8936686115889643
 20
134.2765755203184881
 30
0.0
 40
0.0590550922913152
 50
359.9999746620661085
 51
88.5000000866732535
  0
ARC
  5
28AA7
  8
0
 10
3089.9724084836389011
 20
134.3054055370357105
 30
0.0
 40
0.0196848450932966
 50
94.2171408973709532
 51
179.8523808163704132
  0
ARC
  5
28AA8
  8
0
 10
3071.9270719916589769
 20
371.057510159771482
 30
0.0
 40
237.4191351503586986
 50
274.358690458418323
 51
274.7177230706329283
  0
ARC
  5
28AA9
  8
0
 10
3091.4550331370128333
 20
134.4306440291682065
 30
0.0
 40
0.0121497328362949
 50
2.0253750126449899
 51
94.7177230706328857
  0
ARC
  5
28AAA
  8
0
 10
3091.4772437996539338
 20
134.4321302353247916
 30
0.0
 40
0.0100686965059006
 50
95.6808868195384719
 51
179.6608115883171024
  0
ARC
  5
28AAB
  8
0
 10
3091.3087457661190456
 20
136.1259800882731099
 30
0.0
 40
1.692141311583037
 50
275.6808868195383866
 51
277.4402414880090078
  0
ARC
  5
28AAC
  8
0
 10
3091.5027330866660122
 20
134.6405296747300895
 30
0.0
 40
0.1940778911538
 50
277.4402414880090078
 51
296.2524458767906026
  0
ARC
  5
28AAD
  8
0
 10
3091.5169441828202253
 20
134.6117155233650919
 30
0.0
 40
0.1619498570903115
 50
296.2524458767906026
 51
319.9693601970018904
  0
ARC
  5
28AAE
  8
0
 10
2836.9473689351711982
 20
348.45304245504542
 30
0.0
 40
332.6281612916820905
 50
319.9693601970018904
 51
319.9719398993063919
  0
ARC
  5
28AAF
  8
0
 10
3091.7172485661208157
 20
134.8225061536496128
 30
0.0
 40
0.0666980308339963
 50
143.7780932700183882
 51
178.2463963895154109
  0
ARC
  5
28AB0
  8
0
 10
3091.7062583256761172
 20
134.8269772726308133
 30
0.0
 40
0.0552652511400071
 50
110.6128685944182024
 51
140.7833637162837022
  0
ARC
  5
28AB1
  8
0
 10
3091.7276561005342046
 20
134.750057635132606
 30
0.0
 40
0.1349779912634345
 50
102.9732482223227947
 51
107.6181390406919007
  0
ARC
  5
28AB2
  8
0
 10
3091.965727397820956
 20
133.2257228923998014
 30
0.0
 40
1.677474635888361
 50
90.343536298719215
 51
99.2061137667628401
  0
ARC
  5
28AB3
  8
0
 10
3091.955664436492043
 20
134.893162223906387
 30
0.0
 40
0.010005153115765
 50
0.0122228905274446
 51
89.9704913308150793
  0
ARC
  5
28AB4
  8
0
 10
3092.0059086592118547
 20
134.8906027933076928
 30
0.0
 40
0.040310669635207
 50
183.4154493166792008
 51
269.6601948628335208
  0
LINE
  5
28AB5
  8
0
 10
3092.0056695893808865
 20
134.8502928326024914
 30
0.0
 11
3092.0236695893809156
 21
134.8502928326024914
 31
0.0
  0
ARC
  5
28AB6
  8
0
 10
3091.7072389755899167
 20
133.1735808559546967
 30
0.0
 40
0.0566806224078716
 50
181.6470951448110043
 51
259.9594881016105887
  0
ARC
  5
28AB7
  8
0
 10
3091.9654794333168866
 20
134.7689038956756065
 30
0.0
 40
1.6727636832042621
 50
260.7764401094736968
 51
269.6619349155486134
  0
ARC
  5
28AB8
  8
0
 10
3091.955524920526841
 20
133.1063146906103896
 30
0.0
 40
0.0101457137280368
 50
270.4782228076027764
 51
359.1776964891585067
  0
ARC
  5
28AB9
  8
0
 10
3091.7771354360779696
 20
132.1992703053830951
 30
0.0
 40
0.9270666530859392
 50
80.5776800843951833
 51
90.9493913097322633
  0
ARC
  5
28ABA
  8
0
 10
3091.8825134353201065
 20
133.6218498704976128
 30
0.0
 40
0.5101343389149789
 50
256.3093032192281839
 51
275.2177681749047906
  0
ARC
  5
28ABB
  8
0
 10
3090.7577354657878459
 20
124.1452206241904008
 30
0.0
 40
9.0401095244886331
 50
82.7081186481823636
 51
83.4461909886364452
  0
ARC
  5
28ABC
  8
0
 10
3092.0056695893808865
 20
133.1090406111025004
 30
0.0
 40
0.0399999999999966
 50
90.0
 51
178.1898048460980988
  0
LINE
  5
28ABD
  8
0
 10
3092.0056695893808865
 20
133.1490406111024924
 30
0.0
 11
3092.0236695893809156
 21
133.1490406111024924
 31
0.0
  0
ARC
  5
28ABE
  8
0
 10
3091.4771768653140498
 20
133.5671422405114868
 30
0.0
 40
0.0100015858256855
 50
179.9921976037009017
 51
264.6661084463498241
  0
ARC
  5
28ABF
  8
0
 10
3091.3297373623281601
 20
131.9879494111839904
 30
0.0
 40
1.5760590685126581
 50
83.1087515549825468
 51
84.6661084463498526
  0
ARC
  5
28AC0
  8
0
 10
3091.4908755442470465
 20
133.3212310814726038
 30
0.0
 40
0.2330752540160148
 50
65.8251009961542053
 51
83.1087515549825468
  0
ARC
  5
28AC1
  8
0
 10
3091.5281603954599632
 20
133.4042909394177912
 30
0.0
 40
0.1420307586753173
 50
45.6961885790328921
 51
65.8251009961542053
  0
ARC
  5
28AC2
  8
0
 10
3091.4467031808640058
 20
133.320829738328996
 30
0.0
 40
0.2586542978810673
 50
37.9797663870745197
 51
45.6961885790317481
  0
ARC
  5
28AC3
  8
0
 10
3091.4553518202669693
 20
133.5681621350553883
 30
0.0
 40
0.0118502369128959
 50
267.0034273503904956
 51
356.1475079493101816
  0
ARC
  5
28AC4
  8
0
 10
3066.5123972411538489
 20
-234.427604144864091
 30
0.0
 40
368.828272331911478
 50
86.1223632947049822
 51
86.1781186753362789
  0
ARC
  5
28AC5
  8
0
 10
3093.8503839399459139
 20
178.5081092259167974
 30
0.0
 40
45.0119974557993388
 50
265.4741637052289889
 51
266.4925557539618239
  0
ARC
  5
28AC6
  8
0
 10
3090.612440963123845
 20
139.0374052293178124
 30
0.0
 40
5.4100531301752097
 50
263.6592189548268834
 51
266.6738243846439786
  0
ARC
  5
28AC7
  8
0
 10
3090.1948195781351387
 20
135.0737975398257902
 30
0.0
 40
1.4247501293894631
 50
260.2167371027518925
 51
262.7470672610044744
  0
ENDSEC
  0
EOF
