  0
SECTION
  2
HEADER
  9
$ACADVER
  1
AC1009
  9
$INSBASE
 10
4834.4351502692761642
 20
215.9086383499702038
 30
0.0
  9
$EXTMIN
 10
4828.5570797851023599
 20
215.8963310914126907
 30
-0.0000000000112498
  9
$EXTMAX
 10
4835.9173428594376674
 20
222.4140971843602017
 30
0.0000000000002956
  9
$LIMMIN
 10
0.0
 20
0.0
  9
$LIMMAX
 10
11.6929133858000007
 20
8.2677165353999982
  9
$ORTHOMODE
 70
     0
  9
$REGENMODE
 70
     1
  9
$FILLMODE
 70
     1
  9
$QTEXTMODE
 70
     0
  9
$MIRRTEXT
 70
     0
  9
$DRAGMODE
 70
     2
  9
$LTSCALE
 40
0.6431102362
  9
$OSMODE
 70
  4095
  9
$ATTMODE
 70
     1
  9
$TEXTSIZE
 40
0.2
  9
$TRACEWID
 40
0.05
  9
$TEXTSTYLE
  7
STANDARD
  9
$CLAYER
  8
0
  9
$CELTYPE
  6
BYLAYER
  9
$CECOLOR
 62
   256
  9
$DIMSCALE
 40
1.0
  9
$DIMASZ
 40
0.1875
  9
$DIMEXO
 40
0.0625
  9
$DIMDLI
 40
0.4443307087
  9
$DIMRND
 40
0.0
  9
$DIMDLE
 40
0.0
  9
$DIMEXE
 40
0.125
  9
$DIMTP
 40
0.01
  9
$DIMTM
 40
0.01
  9
$DIMTXT
 40
2.0
  9
$DIMCEN
 40
0.1052362205
  9
$DIMTSZ
 40
0.0
  9
$DIMTOL
 70
     1
  9
$DIMLIM
 70
     0
  9
$DIMTIH
 70
     1
  9
$DIMTOH
 70
     1
  9
$DIMSE1
 70
     0
  9
$DIMSE2
 70
     0
  9
$DIMTAD
 70
     0
  9
$DIMZIN
 70
     0
  9
$DIMBLK
  1

  9
$DIMASO
 70
     1
  9
$DIMSHO
 70
     1
  9
$DIMPOST
  1
\X
  9
$DIMAPOST
  1

  9
$DIMALT
 70
     1
  9
$DIMALTD
 70
     2
  9
$DIMALTF
 40
25.3999999999999986
  9
$DIMLFAC
 40
1.0
  9
$DIMTOFL
 70
     0
  9
$DIMTVP
 40
0.0
  9
$DIMTIX
 70
     0
  9
$DIMSOXD
 70
     0
  9
$DIMSAH
 70
     0
  9
$DIMBLK1
  1

  9
$DIMBLK2
  1

  9
$DIMSTYLE
  2
STANDARD
  9
$DIMCLRD
 70
     0
  9
$DIMCLRE
 70
     0
  9
$DIMCLRT
 70
     0
  9
$DIMTFAC
 40
1.0
  9
$DIMGAP
 40
0.09
  9
$LUNITS
 70
     2
  9
$LUPREC
 70
     4
  9
$SKETCHINC
 40
0.1
  9
$FILLETRAD
 40
0.0
  9
$AUNITS
 70
     0
  9
$AUPREC
 70
     0
  9
$MENU
  1
.
  9
$ELEVATION
 40
0.0
  9
$PELEVATION
 40
0.0
  9
$THICKNESS
 40
0.0
  9
$LIMCHECK
 70
     0
  9
$BLIPMODE
 70
     0
  9
$CHAMFERA
 40
0.0
  9
$CHAMFERB
 40
0.0
  9
$SKPOLY
 70
     0
  9
$TDCREATE
 40
2458060.468368056230247
  9
$TDUPDATE
 40
2459688.6194212958216667
  9
$TDINDWG
 40
0.4287107639
  9
$TDUSRTIMER
 40
0.4287107639
  9
$USRTIMER
 70
     1
  9
$ANGBASE
 50
0.0
  9
$ANGDIR
 70
     0
  9
$PDMODE
 70
     0
  9
$PDSIZE
 40
0.3125
  9
$PLINEWID
 40
0.0
  9
$COORDS
 70
     1
  9
$SPLFRAME
 70
     0
  9
$SPLINETYPE
 70
     6
  9
$SPLINESEGS
 70
     8
  9
$ATTDIA
 70
     1
  9
$ATTREQ
 70
     1
  9
$HANDLING
 70
     1
  9
$HANDSEED
  5
C554
  9
$SURFTAB1
 70
     6
  9
$SURFTAB2
 70
     6
  9
$SURFTYPE
 70
     6
  9
$SURFU
 70
     6
  9
$SURFV
 70
     6
  9
$UCSNAME
  2

  9
$UCSORG
 10
0.0
 20
0.0
 30
0.0
  9
$UCSXDIR
 10
1.0
 20
0.0
 30
0.0
  9
$UCSYDIR
 10
0.0
 20
1.0
 30
0.0
  9
$PUCSNAME
  2

  9
$PUCSORG
 10
0.0
 20
0.0
 30
0.0
  9
$PUCSXDIR
 10
1.0
 20
0.0
 30
0.0
  9
$PUCSYDIR
 10
0.0
 20
1.0
 30
0.0
  9
$USERI1
 70
     0
  9
$USERI2
 70
     0
  9
$USERI3
 70
     0
  9
$USERI4
 70
     0
  9
$USERI5
 70
     0
  9
$USERR1
 40
0.0
  9
$USERR2
 40
0.0
  9
$USERR3
 40
0.0
  9
$USERR4
 40
0.0
  9
$USERR5
 40
0.0
  9
$WORLDVIEW
 70
     1
  9
$SHADEDGE
 70
     3
  9
$SHADEDIF
 70
    70
  9
$TILEMODE
 70
     1
  9
$MAXACTVP
 70
    64
  9
$PLIMCHECK
 70
     0
  9
$PEXTMIN
 10
1.0000000000000000E+20
 20
1.0000000000000000E+20
 30
1.0000000000000000E+20
  9
$PEXTMAX
 10
-1.0000000000000000E+20
 20
-1.0000000000000000E+20
 30
-1.0000000000000000E+20
  9
$PLIMMIN
 10
0.0
 20
0.0
  9
$PLIMMAX
 10
12.0
 20
9.0
  9
$UNITMODE
 70
     0
  9
$VISRETAIN
 70
     1
  9
$PLINEGEN
 70
     0
  9
$PSLTSCALE
 70
     1
  0
ENDSEC
  0
SECTION
  2
TABLES
  0
TABLE
  2
VPORT
 70
     1
  0
VPORT
  2
*ACTIVE
 70
     0
 10
0.0
 20
0.0
 11
1.0
 21
1.0
 12
1028.6931439394570589
 22
93.1599519411365264
 13
0.0
 23
0.0
 14
1.0
 24
1.0
 15
0.0
 25
0.0
 16
0.0
 26
0.0
 36
17.1152628219792007
 17
3803.5440673828129547
 27
125.9952621967499056
 37
0.0
 40
6.5588732797175737
 41
2.005224660397074
 42
50.0
 43
0.0
 44
0.0
 50
0.0
 51
0.0
 71
     0
 72
   100
 73
     1
 74
     1
 75
     0
 76
     0
 77
     0
 78
     0
  0
ENDTAB
  0
TABLE
  2
LTYPE
 70
     2
  0
LTYPE
  2
CONTINUOUS
 70
     0
  3
Solid line
 72
    65
 73
     0
 40
0.0
  0
LTYPE
  2
PHANTOM2
 70
     0
  3
___ _ _ ___ _ _ ___ _ _ ___ _ _
 72
    65
 73
     6
 40
1.25
 49
0.625
 49
-0.125
 49
0.125
 49
-0.125
 49
0.125
 49
-0.125
  0
ENDTAB
  0
TABLE
  2
LAYER
 70
     2
  0
LAYER
  2
0
 70
     0
 62
   255
  6
CONTINUOUS
  0
LAYER
  2
DEFPOINTS
 70
     0
 62
     7
  6
CONTINUOUS
  0
ENDTAB
  0
TABLE
  2
STYLE
 70
     1
  0
STYLE
  2
STANDARD
 70
     0
 40
0.0
 41
0.8
 50
0.0
 71
     0
 42
0.2
  3
txt
  4

  0
ENDTAB
  0
TABLE
  2
VIEW
 70
     0
  0
ENDTAB
  0
TABLE
  2
UCS
 70
     0
  0
ENDTAB
  0
TABLE
  2
APPID
 70
     9
  0
APPID
  2
ACAD
 70
     0
  0
APPID
  2
ACAD_MLEADERVER
 70
     0
  0
APPID
  2
ACAD_EXEMPT_FROM_CAD_STANDARDS
 70
     0
  0
APPID
  2
ACAD_NAV_VCDISPLAY
 70
     0
  0
APPID
  2
ACAECLAYERSTANDARD
 70
     0
  0
APPID
  2
ACCMTRANSPARENCY
 70
     0
  0
APPID
  2
ACAD_DSTYLE_DIMJAG
 70
     0
  0
APPID
  2
ACAD_DSTYLE_DIMTALN
 70
     0
  0
APPID
  2
ACDBATTR
 70
     0
  0
ENDTAB
  0
TABLE
  2
DIMSTYLE
 70
     1
  0
DIMSTYLE
  2
STANDARD
 70
     0
  3

  4

  5

  6

  7

 40
1.0
 41
0.1875
 42
0.0625
 43
0.38
 44
0.125
 45
0.0
 46
0.0
 47
0.01
 48
0.01
140
0.15625
141
0.09
142
0.0
143
25.3999999999999986
144
1.0
145
0.0
146
1.0
147
0.09
 71
     1
 72
     0
 73
     1
 74
     1
 75
     0
 76
     0
 77
     0
 78
     4
170
     0
171
     2
172
     0
173
     0
174
     0
175
     0
176
     0
177
     0
178
     0
  0
ENDTAB
  0
ENDSEC
  0
SECTION
  2
BLOCKS
  0
BLOCK
  8
0
  2
$MODEL_SPACE
 70
     0
 10
0.0
 20
0.0
 30
0.0
  3
$MODEL_SPACE
  1

  0
ENDBLK
  5
21
  8
0
  0
BLOCK
 67
     1
  8
0
  2
$PAPER_SPACE
 70
     0
 10
0.0
 20
0.0
 30
0.0
  3
$PAPER_SPACE
  1

  0
ENDBLK
  5
1D
 67
     1
  8
0
  0
ENDSEC
  0
SECTION
  2
ENTITIES
  0
ATTDEF
  5
3930
  8
DEFPOINTS
 10
4834.4308762839664269
 20
215.9133670547269048
 30
0.0
 40
0.001
  1
P24492-NM
  3

  2
MODELNUMBER
 70
     0
1001
ACDBATTR
1070
     0
1070
     1
  0
ATTDEF
  5
3931
  8
DEFPOINTS
 10
4834.4308762839664269
 20
215.9117003880602113
 30
0.0
 40
0.001
  1
ONE
  3

  2
TRADENAME
 70
     0
1001
ACDBATTR
1070
     0
1070
     1
  0
ATTDEF
  5
3932
  8
DEFPOINTS
 10
4834.4308762839664269
 20
215.9100337213934893
 30
0.0
 40
0.001
  1
BATHROOM SINK FAUCET
  3

  2
PRODUCT
 70
     0
1001
ACDBATTR
1070
     0
1070
     1
  0
LINE
  5
C3E7
  8
0
 10
4834.715150269276819
 20
216.3086383499702094
 30
0.0
 11
4834.715150269276819
 21
217.3976383499702933
 31
0.0
  0
LINE
  5
C3E8
  8
0
 10
4834.1551502692773283
 20
216.3086383499702094
 30
0.0
 11
4834.1551502692773283
 21
217.3976383499702933
 31
0.0
  0
LINE
  5
C3E9
  8
0
 10
4833.3201502689762492
 20
216.3086383499702094
 30
0.0
 11
4835.5501502692768554
 21
216.3086383499702094
 31
0.0
  0
LINE
  5
C3EA
  8
0
 10
4835.5601502692770737
 20
216.2986383499703038
 30
0.0
 11
4835.5601502692770737
 21
215.9086383499702038
 31
0.0
  0
LINE
  5
C3EB
  8
0
 10
4835.5601502692770737
 20
215.9086383499702038
 30
0.0
 11
4833.3101502692770737
 21
215.9086383499702038
 31
0.0
  0
LINE
  5
C3EC
  8
0
 10
4833.3101502692770737
 20
215.9086383499702038
 30
0.0
 11
4833.3101502692770737
 21
216.2986383499703038
 31
0.0
  0
ARC
  5
C3ED
  8
0
 10
4833.3201502692763825
 20
216.2986383499703038
 30
0.0
 40
0.009999999999998
 50
90.000001718855188
 51
180.000000000032486
  0
ARC
  5
C3EE
  8
0
 10
4835.5501502692768554
 20
216.2986383499703038
 30
0.0
 40
0.0100000000000066
 50
0.0000000000407111
 51
90.0
  0
LINE
  5
C3EF
  8
0
 10
4833.5551502693269867
 20
222.3986383499702981
 30
0.0
 11
4830.0226525009256875
 21
222.3986383499702981
 31
0.0
  0
LINE
  5
C3F0
  8
0
 10
4828.7044615150298341
 20
221.1477222076408964
 30
0.0
 11
4828.6852766335268825
 21
220.7816528614729066
 31
0.0
  0
LINE
  5
C3F1
  8
0
 10
4829.5832555056267665
 20
221.1016665660729075
 30
0.0
 11
4829.5640706241292719
 21
220.7355972200126075
 31
0.0
  0
LINE
  5
C3F2
  8
0
 10
4829.5535608100262834
 20
220.7261342925729082
 30
0.0
 11
4828.6947397285257466
 21
220.7711431981728083
 31
0.0
  0
ARC
  5
C3F3
  8
0
 10
4828.6952629289698962
 20
220.7811295019635054
 30
0.0
 40
0.010000000092783
 50
177.000000332367506
 51
267.0009129319220733
  0
ARC
  5
C3F4
  8
0
 10
4829.5540843288263204
 20
220.736120579572912
 30
0.0
 40
0.0100000000000062
 50
266.9990868480364838
 51
356.9999997707569719
  0
ARC
  5
C3F5
  8
0
 10
4830.022652500930235
 20
221.0786387453628095
 30
0.0
 40
0.4400000000100531
 50
90.0000000005210836
 51
176.9999999975815967
  0
ARC
  5
C3F6
  8
0
 10
4830.0226517970668283
 20
221.0786390698241917
 30
0.0
 40
1.319999280146211
 50
89.9999694483062029
 51
177.0000124637194006
  0
ARC
  5
C3F7
  8
0
 10
4833.5551512576821551
 20
221.078639338325786
 30
0.0
 40
1.3199990116448921
 50
359.9999570995158251
 51
90.0000429005102944
  0
LINE
  5
C3F8
  8
0
 10
4830.0226525009256875
 20
221.5186387453728116
 30
0.0
 11
4833.5551502693269867
 21
221.5186383499703027
 31
0.0
  0
ARC
  5
C3F9
  8
0
 10
4833.5551502693269867
 20
221.0786383499703049
 30
0.0
 40
0.4400000000000044
 50
0.0
 51
90.0
  0
LINE
  5
C3FA
  8
0
 10
4833.9951502693265866
 20
221.0786383499703049
 30
0.0
 11
4833.9951502693265866
 21
216.3086383499702094
 31
0.0
  0
LINE
  5
C3FB
  8
0
 10
4834.8751502693266957
 20
221.0786383499703049
 30
0.0
 11
4834.8751502693266957
 21
216.3086383499702094
 31
0.0
  0
LINE
  5
C3FD
  8
0
 10
4834.19455026932701
 20
218.3966383499702033
 30
0.0
 11
4834.6757502693262722
 21
218.3966383499702033
 31
0.0
  0
LINE
  5
C3FE
  8
0
 10
4834.1701502692767463
 20
217.4126383499703081
 30
0.0
 11
4834.7001502692755821
 21
217.4126383499703081
 31
0.0
  0
ARC
  5
C3FF
  8
0
 10
4834.1701502692767463
 20
217.3976383499702933
 30
0.0
 40
0.015
 50
90.0
 51
180.0
  0
ARC
  5
C400
  8
0
 10
4834.7001502692755821
 20
217.3976383499702933
 30
0.0
 40
0.015
 50
0.0
 51
90.0
  0
LINE
  5
C401
  8
0
 10
4834.155150269326441
 20
218.3572383499702028
 30
0.0
 11
4834.155150269326441
 21
217.4520383499703087
 31
0.0
  0
LINE
  5
C402
  8
0
 10
4834.7151502693268412
 20
218.3572383499702028
 30
0.0
 11
4834.7151502693268412
 21
217.4520383499703087
 31
0.0
  0
LINE
  5
C403
  8
0
 10
4834.2381502693269795
 20
218.3572383499702028
 30
0.0
 11
4834.2381502693269795
 21
217.4520383499703087
 31
0.0
  0
LINE
  5
C404
  8
0
 10
4834.6321502693263028
 20
218.3572383499702028
 30
0.0
 11
4834.6321502693263028
 21
217.4520383499703087
 31
0.0
  0
ARC
  5
C405
  8
0
 10
4834.277550269326639
 20
218.357238349970288
 30
0.0
 40
0.0394
 50
90.0
 51
180.0000000000048885
  0
ARC
  5
C406
  8
0
 10
4834.5927502693257338
 20
218.3572383499702028
 30
0.0
 40
0.0394
 50
359.9999999999968168
 51
90.0
  0
ARC
  5
C407
  8
0
 10
4834.6757502693262722
 20
218.357238349970288
 30
0.0
 40
0.0394
 50
359.9999999999919282
 51
90.0
  0
ARC
  5
C408
  8
0
 10
4834.19455026932701
 20
218.3572383499702028
 30
0.0
 40
0.0394
 50
90.0
 51
180.0000000000032117
  0
ARC
  5
C409
  8
0
 10
4834.6757502693262722
 20
217.4520383499703087
 30
0.0
 40
0.0394
 50
270.0
 51
0.0000000000032569
  0
ARC
  5
C40A
  8
0
 10
4834.5927502693257338
 20
217.4520383499703087
 30
0.0
 40
0.0394
 50
270.0
 51
0.0000000000032569
  0
ARC
  5
C40B
  8
0
 10
4834.277550269326639
 20
217.4520383499703087
 30
0.0
 40
0.0394
 50
179.9999999999967031
 51
270.0
  0
ARC
  5
C40C
  8
0
 10
4834.19455026932701
 20
217.4520383499703087
 30
0.0
 40
0.0394
 50
179.9999999999967031
 51
270.0
  0
ENDSEC
  0
EOF
