  0
SECTION
  2
HEADER
  9
$ACADVER
  1
AC1009
  9
$INSBASE
 10
3223.5139219027159925
 20
194.3453924215916118
 30
0.0
  9
$EXTMIN
 10
3217.2639219002489881
 20
188.5955185253571074
 30
0.0
  9
$EXTMAX
 10
3229.7639219051829969
 20
195.4703924215916118
 30
0.0
  9
$LIMMIN
 10
0.0
 20
0.0
  9
$LIMMAX
 10
11.6929133858000007
 20
8.2677165353999982
  9
$ORTHOMODE
 70
     0
  9
$REGENMODE
 70
     1
  9
$FILLMODE
 70
     1
  9
$QTEXTMODE
 70
     0
  9
$MIRRTEXT
 70
     0
  9
$DRAGMODE
 70
     2
  9
$LTSCALE
 40
0.6431102362
  9
$OSMODE
 70
  4095
  9
$ATTMODE
 70
     1
  9
$TEXTSIZE
 40
0.2
  9
$TRACEWID
 40
0.05
  9
$TEXTSTYLE
  7
STANDARD
  9
$CLAYER
  8
0
  9
$CELTYPE
  6
BYLAYER
  9
$CECOLOR
 62
   256
  9
$DIMSCALE
 40
1.0
  9
$DIMASZ
 40
0.1875
  9
$DIMEXO
 40
0.0625
  9
$DIMDLI
 40
0.4443307087
  9
$DIMRND
 40
0.0
  9
$DIMDLE
 40
0.0
  9
$DIMEXE
 40
0.125
  9
$DIMTP
 40
0.01
  9
$DIMTM
 40
0.01
  9
$DIMTXT
 40
2.0
  9
$DIMCEN
 40
0.1052362205
  9
$DIMTSZ
 40
0.0
  9
$DIMTOL
 70
     1
  9
$DIMLIM
 70
     0
  9
$DIMTIH
 70
     1
  9
$DIMTOH
 70
     1
  9
$DIMSE1
 70
     0
  9
$DIMSE2
 70
     0
  9
$DIMTAD
 70
     0
  9
$DIMZIN
 70
     0
  9
$DIMBLK
  1

  9
$DIMASO
 70
     1
  9
$DIMSHO
 70
     1
  9
$DIMPOST
  1
\X
  9
$DIMAPOST
  1

  9
$DIMALT
 70
     1
  9
$DIMALTD
 70
     2
  9
$DIMALTF
 40
25.3999999999999986
  9
$DIMLFAC
 40
1.0
  9
$DIMTOFL
 70
     0
  9
$DIMTVP
 40
0.0
  9
$DIMTIX
 70
     0
  9
$DIMSOXD
 70
     0
  9
$DIMSAH
 70
     0
  9
$DIMBLK1
  1

  9
$DIMBLK2
  1

  9
$DIMSTYLE
  2
STANDARD
  9
$DIMCLRD
 70
     0
  9
$DIMCLRE
 70
     0
  9
$DIMCLRT
 70
     0
  9
$DIMTFAC
 40
1.0
  9
$DIMGAP
 40
0.09
  9
$LUNITS
 70
     2
  9
$LUPREC
 70
     4
  9
$SKETCHINC
 40
0.1
  9
$FILLETRAD
 40
0.0
  9
$AUNITS
 70
     0
  9
$AUPREC
 70
     0
  9
$MENU
  1
.
  9
$ELEVATION
 40
0.0
  9
$PELEVATION
 40
0.0
  9
$THICKNESS
 40
0.0
  9
$LIMCHECK
 70
     0
  9
$BLIPMODE
 70
     0
  9
$CHAMFERA
 40
0.0
  9
$CHAMFERB
 40
0.0
  9
$SKPOLY
 70
     0
  9
$TDCREATE
 40
2458060.468368056230247
  9
$TDUPDATE
 40
2459545.3910185191780329
  9
$TDINDWG
 40
0.394659838
  9
$TDUSRTIMER
 40
0.394659838
  9
$USRTIMER
 70
     1
  9
$ANGBASE
 50
0.0
  9
$ANGDIR
 70
     0
  9
$PDMODE
 70
     0
  9
$PDSIZE
 40
0.3125
  9
$PLINEWID
 40
0.0
  9
$COORDS
 70
     1
  9
$SPLFRAME
 70
     0
  9
$SPLINETYPE
 70
     6
  9
$SPLINESEGS
 70
     8
  9
$ATTDIA
 70
     1
  9
$ATTREQ
 70
     1
  9
$HANDLING
 70
     1
  9
$HANDSEED
  5
8B50
  9
$SURFTAB1
 70
     6
  9
$SURFTAB2
 70
     6
  9
$SURFTYPE
 70
     6
  9
$SURFU
 70
     6
  9
$SURFV
 70
     6
  9
$UCSNAME
  2

  9
$UCSORG
 10
0.0
 20
0.0
 30
0.0
  9
$UCSXDIR
 10
1.0
 20
0.0
 30
0.0
  9
$UCSYDIR
 10
0.0
 20
1.0
 30
0.0
  9
$PUCSNAME
  2

  9
$PUCSORG
 10
0.0
 20
0.0
 30
0.0
  9
$PUCSXDIR
 10
1.0
 20
0.0
 30
0.0
  9
$PUCSYDIR
 10
0.0
 20
1.0
 30
0.0
  9
$USERI1
 70
     0
  9
$USERI2
 70
     0
  9
$USERI3
 70
     0
  9
$USERI4
 70
     0
  9
$USERI5
 70
     0
  9
$USERR1
 40
0.0
  9
$USERR2
 40
0.0
  9
$USERR3
 40
0.0
  9
$USERR4
 40
0.0
  9
$USERR5
 40
0.0
  9
$WORLDVIEW
 70
     1
  9
$SHADEDGE
 70
     3
  9
$SHADEDIF
 70
    70
  9
$TILEMODE
 70
     1
  9
$MAXACTVP
 70
    64
  9
$PLIMCHECK
 70
     0
  9
$PEXTMIN
 10
1.0000000000000000E+20
 20
1.0000000000000000E+20
 30
1.0000000000000000E+20
  9
$PEXTMAX
 10
-1.0000000000000000E+20
 20
-1.0000000000000000E+20
 30
-1.0000000000000000E+20
  9
$PLIMMIN
 10
0.0
 20
0.0
  9
$PLIMMAX
 10
12.0
 20
9.0
  9
$UNITMODE
 70
     0
  9
$VISRETAIN
 70
     1
  9
$PLINEGEN
 70
     0
  9
$PSLTSCALE
 70
     1
  0
ENDSEC
  0
SECTION
  2
TABLES
  0
TABLE
  2
VPORT
 70
     1
  0
VPORT
  2
*ACTIVE
 70
     0
 10
0.0
 20
0.0
 11
1.0
 21
1.0
 12
142.6627967419817935
 22
-7.2187645008531609
 13
0.0
 23
0.0
 14
1.0
 24
1.0
 15
0.0
 25
0.0
 16
0.0
 26
0.0
 36
95.5902297660485658
 17
3089.811279296875
 27
197.161570589386713
 37
0.0
 40
42.6330528511164388
 41
2.000833333333333
 42
50.0
 43
0.0
 44
0.0
 50
0.0
 51
0.0
 71
     0
 72
   100
 73
     1
 74
     1
 75
     0
 76
     0
 77
     0
 78
     0
  0
ENDTAB
  0
TABLE
  2
LTYPE
 70
     2
  0
LTYPE
  2
CONTINUOUS
 70
     0
  3
Solid line
 72
    65
 73
     0
 40
0.0
  0
LTYPE
  2
PHANTOM2
 70
     0
  3
___ _ _ ___ _ _ ___ _ _ ___ _ _
 72
    65
 73
     6
 40
1.25
 49
0.625
 49
-0.125
 49
0.125
 49
-0.125
 49
0.125
 49
-0.125
  0
ENDTAB
  0
TABLE
  2
LAYER
 70
     2
  0
LAYER
  2
0
 70
     0
 62
   255
  6
CONTINUOUS
  0
LAYER
  2
DEFPOINTS
 70
     0
 62
     7
  6
CONTINUOUS
  0
ENDTAB
  0
TABLE
  2
STYLE
 70
     1
  0
STYLE
  2
STANDARD
 70
     0
 40
0.0
 41
0.8
 50
0.0
 71
     0
 42
0.2
  3
txt
  4

  0
ENDTAB
  0
TABLE
  2
VIEW
 70
     0
  0
ENDTAB
  0
TABLE
  2
UCS
 70
     0
  0
ENDTAB
  0
TABLE
  2
APPID
 70
     9
  0
APPID
  2
ACAD
 70
     0
  0
APPID
  2
ACAD_MLEADERVER
 70
     0
  0
APPID
  2
ACAD_EXEMPT_FROM_CAD_STANDARDS
 70
     0
  0
APPID
  2
ACAD_NAV_VCDISPLAY
 70
     0
  0
APPID
  2
ACAECLAYERSTANDARD
 70
     0
  0
APPID
  2
ACCMTRANSPARENCY
 70
     0
  0
APPID
  2
ACAD_DSTYLE_DIMJAG
 70
     0
  0
APPID
  2
ACAD_DSTYLE_DIMTALN
 70
     0
  0
APPID
  2
ACDBATTR
 70
     0
  0
ENDTAB
  0
TABLE
  2
DIMSTYLE
 70
     1
  0
DIMSTYLE
  2
STANDARD
 70
     0
  3

  4

  5

  6

  7

 40
1.0
 41
0.1875
 42
0.0625
 43
0.38
 44
0.125
 45
0.0
 46
0.0
 47
0.01
 48
0.01
140
0.15625
141
0.09
142
0.0
143
25.3999999999999986
144
1.0
145
0.0
146
1.0
147
0.09
 71
     1
 72
     0
 73
     1
 74
     1
 75
     0
 76
     0
 77
     0
 78
     4
170
     0
171
     2
172
     0
173
     0
174
     0
175
     0
176
     0
177
     0
178
     0
  0
ENDTAB
  0
ENDSEC
  0
SECTION
  2
BLOCKS
  0
BLOCK
  8
0
  2
$MODEL_SPACE
 70
     0
 10
0.0
 20
0.0
 30
0.0
  3
$MODEL_SPACE
  1

  0
ENDBLK
  5
21
  8
0
  0
BLOCK
 67
     1
  8
0
  2
$PAPER_SPACE
 70
     0
 10
0.0
 20
0.0
 30
0.0
  3
$PAPER_SPACE
  1

  0
ENDBLK
  5
1D
 67
     1
  8
0
  0
BLOCK
  8
0
  2
_FILLED
 70
     0
 10
0.0
 20
0.0
 30
0.0
  3
_FILLED
  1

  0
SOLID
  5
7E7B
  8
0
  6
BYBLOCK
 62
     0
 10
0.0
 20
0.0
 30
0.0
 11
-1.0
 21
0.1666666667
 31
0.0
 12
-1.0
 22
-0.1666666667
 32
0.0
 13
-1.0
 23
-0.1666666667
 33
0.0
  0
ENDBLK
  5
7E7C
  8
0
  6
BYBLOCK
 62
     0
  0
ENDSEC
  0
SECTION
  2
ENTITIES
  0
ATTDEF
  5
3930
  8
DEFPOINTS
 10
3223.5158066727030928
 20
194.3501739104468129
 30
0.0
 40
0.001
  1
P24491-LV
  3

  2
MODELNUMBER
 70
     0
1001
ACDBATTR
1070
     0
1070
     1
  0
ATTDEF
  5
3931
  8
DEFPOINTS
 10
3223.5158066727030928
 20
194.3485072437802046
 30
0.0
 40
0.001
  1
ONE 
  3

  2
TRADENAME
 70
     0
1001
ACDBATTR
1070
     0
1070
     1
  0
ATTDEF
  5
3932
  8
DEFPOINTS
 10
3223.5158066727030928
 20
194.346840577113511
 30
0.0
 40
0.001
  1
BATHROOM SINK FAUCET
  3

  2
PRODUCT
 70
     0
1001
ACDBATTR
1070
     0
1070
     1
  0
ARC
  5
8A25
  8
0
 10
3219.5139219027159925
 20
194.3453924215916118
 30
0.0
 40
0.2910000000000001
 50
203.2263315151315908
 51
156.7721964908496091
  0
ARC
  5
8A26
  8
0
 10
3219.2391226920381087
 20
194.2012132497970924
 30
0.0
 40
0.0303257323369638
 50
27.9383165685403689
 51
89.6683956095335759
  0
ARC
  5
8A27
  8
0
 10
3219.2391217192930526
 20
194.4895743008142972
 30
0.0
 40
0.0303284860229023
 50
270.3334135094193016
 51
332.05535346261928
  0
ARC
  5
8A28
  8
0
 10
3219.513920800904998
 20
194.3453917551564132
 30
0.0
 40
0.2799993334253279
 50
207.6572076766562134
 51
152.3428408196504904
  0
ARC
  5
8A29
  8
0
 10
3219.5195054915479886
 20
194.3454979109824023
 30
0.0
 40
2.2555835912990352
 50
177.8433419896495877
 51
182.1620134135897047
  0
ARC
  5
8A2A
  8
0
 10
3217.2955117604301449
 20
194.4292322283502017
 30
0.0
 40
0.0300141074686672
 50
90.010739844448409
 51
177.8088021670226055
  0
ARC
  5
8A2B
  8
0
 10
3217.295506021941037
 20
194.2615383912153106
 30
0.0
 40
0.0299998832239617
 50
182.1644782827173117
 51
270.0002148129199213
  0
LINE
  5
8A2C
  8
0
 10
3217.2955061344159731
 20
194.4592463352915956
 30
0.0
 11
3219.2392982047158512
 21
194.4592463282916128
 31
0.0
  0
LINE
  5
8A2D
  8
0
 10
3219.2392982039159506
 20
194.2315384742373965
 30
0.0
 11
3217.2955061344159731
 21
194.231538507991587
 31
0.0
  0
ARC
  5
8A2E
  8
0
 10
3219.5139219027159925
 20
194.3453924215916118
 30
0.0
 40
1.125
 50
185.8084763391748027
 51
174.1915236557063906
  0
ARC
  5
8A2F
  8
0
 10
3223.5139219027159925
 20
194.3453924215916118
 30
0.0
 40
0.439999999999999
 50
0.0563829105842008
 51
179.9436170894157954
  0
ARC
  5
8A30
  8
0
 10
3223.5134434136971322
 20
189.0349222669713924
 30
0.0
 40
0.439403741614318
 50
216.7022772537912942
 51
270.0623933626009148
  0
ARC
  5
8A31
  8
0
 10
3223.5129891768979178
 20
189.0349761743339059
 30
0.0
 40
0.4390718872924478
 50
189.089175043892908
 51
216.7433431406836917
  0
ARC
  5
8A32
  8
0
 10
3223.5133247432959251
 20
189.0349736465153114
 30
0.0
 40
0.4394028443905816
 50
180.0075453285755032
 51
189.0819373572566064
  0
LINE
  5
8A33
  8
0
 10
3223.0739219027159379
 20
189.0349157811915859
 30
0.0
 11
3223.0739221157609791
 21
194.3458254111916119
 31
0.0
  0
ARC
  5
8A34
  8
0
 10
3223.5144003917889677
 20
189.0349222669059941
 30
0.0
 40
0.4394037415310647
 50
269.937608770714121
 51
323.2977227487504024
  0
ARC
  5
8A35
  8
0
 10
3223.5148546285340672
 20
189.0349761743339059
 30
0.0
 40
0.4390718872924478
 50
323.2566568593163083
 51
350.9108249561069783
  0
ARC
  5
8A36
  8
0
 10
3223.5145190621351503
 20
189.0349736465153114
 30
0.0
 40
0.4394028443905816
 50
350.9180626427432799
 51
359.9924546714244116
  0
LINE
  5
8A37
  8
0
 10
3223.953921902716047
 20
189.0349157811915859
 30
0.0
 11
3223.9539216896700964
 21
194.3458254111916119
 31
0.0
  0
ARC
  5
8A38
  8
0
 10
3223.5139219027159925
 20
194.3453924215916118
 30
0.0
 40
1.125
 50
293.0236536600610862
 51
246.9763463399389138
  0
ARC
  5
8A39
  8
0
 10
3227.5139219027159925
 20
194.3453924215916118
 30
0.0
 40
0.2910000000000001
 50
23.2278035091503483
 51
336.7736684848683808
  0
ARC
  5
8A3A
  8
0
 10
3227.7887211133938763
 20
194.2012132497970924
 30
0.0
 40
0.0303257323369638
 50
90.3316043904664241
 51
152.0616834314596133
  0
ARC
  5
8A3B
  8
0
 10
3227.7887220861389324
 20
194.4895743008142972
 30
0.0
 40
0.0303284860229023
 50
207.9446465373806916
 51
269.6665864905806984
  0
ARC
  5
8A3C
  8
0
 10
3227.5139230045260774
 20
194.3453917551564132
 30
0.0
 40
0.2799993334253279
 50
27.6571591803494599
 51
332.3427923233437014
  0
ARC
  5
8A3D
  8
0
 10
3227.5083383138839963
 20
194.3454979109824023
 30
0.0
 40
2.2555835912990352
 50
357.8379865864102953
 51
2.15665801035041
  0
ARC
  5
8A3E
  8
0
 10
3229.73233204500184
 20
194.4292322283502017
 30
0.0
 40
0.0300141074686672
 50
2.1911978329773749
 51
89.9892601555516052
  0
ARC
  5
8A3F
  8
0
 10
3229.7323377834909479
 20
194.2615383912153106
 30
0.0
 40
0.0299998832239617
 50
269.9997851870800787
 51
357.8355217172826883
  0
LINE
  5
8A40
  8
0
 10
3229.7323376710151024
 20
194.4592463352915956
 30
0.0
 11
3227.7885456007161338
 21
194.4592463282916128
 31
0.0
  0
LINE
  5
8A41
  8
0
 10
3227.7885456015160344
 20
194.2315384742373965
 30
0.0
 11
3229.7323376710151024
 21
194.231538507991587
 31
0.0
  0
ARC
  5
8A42
  8
0
 10
3227.5139219027159925
 20
194.3453924215916118
 30
0.0
 40
1.125
 50
5.8084763442935756
 51
354.1915236608252258
  0
ENDSEC
  0
EOF
