  0
SECTION
  2
HEADER
  9
$ACADVER
  1
AC1009
  9
$INSBASE
 10
3211.9267533827601255
 20
195.2710088122817069
 30
0.0
  9
$EXTMIN
 10
3206.698469653059874
 20
195.2710088122817069
 30
0.0
  9
$EXTMAX
 10
3217.1550371124608318
 20
198.2850084169290881
 30
0.0
  9
$LIMMIN
 10
0.0
 20
0.0
  9
$LIMMAX
 10
11.6929133858000007
 20
8.2677165353999982
  9
$ORTHOMODE
 70
     0
  9
$REGENMODE
 70
     1
  9
$FILLMODE
 70
     1
  9
$QTEXTMODE
 70
     0
  9
$MIRRTEXT
 70
     0
  9
$DRAGMODE
 70
     2
  9
$LTSCALE
 40
0.6431102362
  9
$OSMODE
 70
  4095
  9
$ATTMODE
 70
     1
  9
$TEXTSIZE
 40
0.2
  9
$TRACEWID
 40
0.05
  9
$TEXTSTYLE
  7
STANDARD
  9
$CLAYER
  8
0
  9
$CELTYPE
  6
BYLAYER
  9
$CECOLOR
 62
   256
  9
$DIMSCALE
 40
1.0
  9
$DIMASZ
 40
0.1875
  9
$DIMEXO
 40
0.0625
  9
$DIMDLI
 40
0.4443307087
  9
$DIMRND
 40
0.0
  9
$DIMDLE
 40
0.0
  9
$DIMEXE
 40
0.125
  9
$DIMTP
 40
0.01
  9
$DIMTM
 40
0.01
  9
$DIMTXT
 40
2.0
  9
$DIMCEN
 40
0.1052362205
  9
$DIMTSZ
 40
0.0
  9
$DIMTOL
 70
     1
  9
$DIMLIM
 70
     0
  9
$DIMTIH
 70
     1
  9
$DIMTOH
 70
     1
  9
$DIMSE1
 70
     0
  9
$DIMSE2
 70
     0
  9
$DIMTAD
 70
     0
  9
$DIMZIN
 70
     0
  9
$DIMBLK
  1

  9
$DIMASO
 70
     1
  9
$DIMSHO
 70
     1
  9
$DIMPOST
  1
\X
  9
$DIMAPOST
  1

  9
$DIMALT
 70
     1
  9
$DIMALTD
 70
     2
  9
$DIMALTF
 40
25.3999999999999986
  9
$DIMLFAC
 40
1.0
  9
$DIMTOFL
 70
     0
  9
$DIMTVP
 40
0.0
  9
$DIMTIX
 70
     0
  9
$DIMSOXD
 70
     0
  9
$DIMSAH
 70
     0
  9
$DIMBLK1
  1

  9
$DIMBLK2
  1

  9
$DIMSTYLE
  2
STANDARD
  9
$DIMCLRD
 70
     0
  9
$DIMCLRE
 70
     0
  9
$DIMCLRT
 70
     0
  9
$DIMTFAC
 40
1.0
  9
$DIMGAP
 40
0.09
  9
$LUNITS
 70
     2
  9
$LUPREC
 70
     4
  9
$SKETCHINC
 40
0.1
  9
$FILLETRAD
 40
0.0
  9
$AUNITS
 70
     0
  9
$AUPREC
 70
     0
  9
$MENU
  1
.
  9
$ELEVATION
 40
0.0
  9
$PELEVATION
 40
0.0
  9
$THICKNESS
 40
0.0
  9
$LIMCHECK
 70
     0
  9
$BLIPMODE
 70
     0
  9
$CHAMFERA
 40
0.0
  9
$CHAMFERB
 40
0.0
  9
$SKPOLY
 70
     0
  9
$TDCREATE
 40
2458060.468368056230247
  9
$TDUPDATE
 40
2459545.3900694451294839
  9
$TDINDWG
 40
0.3935487269
  9
$TDUSRTIMER
 40
0.3935487269
  9
$USRTIMER
 70
     1
  9
$ANGBASE
 50
0.0
  9
$ANGDIR
 70
     0
  9
$PDMODE
 70
     0
  9
$PDSIZE
 40
0.3125
  9
$PLINEWID
 40
0.0
  9
$COORDS
 70
     1
  9
$SPLFRAME
 70
     0
  9
$SPLINETYPE
 70
     6
  9
$SPLINESEGS
 70
     8
  9
$ATTDIA
 70
     1
  9
$ATTREQ
 70
     1
  9
$HANDLING
 70
     1
  9
$HANDSEED
  5
8A68
  9
$SURFTAB1
 70
     6
  9
$SURFTAB2
 70
     6
  9
$SURFTYPE
 70
     6
  9
$SURFU
 70
     6
  9
$SURFV
 70
     6
  9
$UCSNAME
  2

  9
$UCSORG
 10
0.0
 20
0.0
 30
0.0
  9
$UCSXDIR
 10
1.0
 20
0.0
 30
0.0
  9
$UCSYDIR
 10
0.0
 20
1.0
 30
0.0
  9
$PUCSNAME
  2

  9
$PUCSORG
 10
0.0
 20
0.0
 30
0.0
  9
$PUCSXDIR
 10
1.0
 20
0.0
 30
0.0
  9
$PUCSYDIR
 10
0.0
 20
1.0
 30
0.0
  9
$USERI1
 70
     0
  9
$USERI2
 70
     0
  9
$USERI3
 70
     0
  9
$USERI4
 70
     0
  9
$USERI5
 70
     0
  9
$USERR1
 40
0.0
  9
$USERR2
 40
0.0
  9
$USERR3
 40
0.0
  9
$USERR4
 40
0.0
  9
$USERR5
 40
0.0
  9
$WORLDVIEW
 70
     1
  9
$SHADEDGE
 70
     3
  9
$SHADEDIF
 70
    70
  9
$TILEMODE
 70
     1
  9
$MAXACTVP
 70
    64
  9
$PLIMCHECK
 70
     0
  9
$PEXTMIN
 10
1.0000000000000000E+20
 20
1.0000000000000000E+20
 30
1.0000000000000000E+20
  9
$PEXTMAX
 10
-1.0000000000000000E+20
 20
-1.0000000000000000E+20
 30
-1.0000000000000000E+20
  9
$PLIMMIN
 10
0.0
 20
0.0
  9
$PLIMMAX
 10
12.0
 20
9.0
  9
$UNITMODE
 70
     0
  9
$VISRETAIN
 70
     1
  9
$PLINEGEN
 70
     0
  9
$PSLTSCALE
 70
     1
  0
ENDSEC
  0
SECTION
  2
TABLES
  0
TABLE
  2
VPORT
 70
     1
  0
VPORT
  2
*ACTIVE
 70
     0
 10
0.0
 20
0.0
 11
1.0
 21
1.0
 12
112.5612039538032008
 22
-0.5301933247158779
 13
0.0
 23
0.0
 14
1.0
 24
1.0
 15
0.0
 25
0.0
 16
0.0
 26
0.0
 36
95.5902297660485658
 17
3089.811279296875
 27
197.161570589386713
 37
0.0
 40
43.1756961872932976
 41
2.000833333333333
 42
50.0
 43
0.0
 44
0.0
 50
0.0
 51
0.0
 71
     0
 72
   100
 73
     1
 74
     1
 75
     0
 76
     0
 77
     0
 78
     0
  0
ENDTAB
  0
TABLE
  2
LTYPE
 70
     2
  0
LTYPE
  2
CONTINUOUS
 70
     0
  3
Solid line
 72
    65
 73
     0
 40
0.0
  0
LTYPE
  2
PHANTOM2
 70
     0
  3
___ _ _ ___ _ _ ___ _ _ ___ _ _
 72
    65
 73
     6
 40
1.25
 49
0.625
 49
-0.125
 49
0.125
 49
-0.125
 49
0.125
 49
-0.125
  0
ENDTAB
  0
TABLE
  2
LAYER
 70
     2
  0
LAYER
  2
0
 70
     0
 62
   255
  6
CONTINUOUS
  0
LAYER
  2
DEFPOINTS
 70
     0
 62
     7
  6
CONTINUOUS
  0
ENDTAB
  0
TABLE
  2
STYLE
 70
     1
  0
STYLE
  2
STANDARD
 70
     0
 40
0.0
 41
0.8
 50
0.0
 71
     0
 42
0.2
  3
txt
  4

  0
ENDTAB
  0
TABLE
  2
VIEW
 70
     0
  0
ENDTAB
  0
TABLE
  2
UCS
 70
     0
  0
ENDTAB
  0
TABLE
  2
APPID
 70
     9
  0
APPID
  2
ACAD
 70
     0
  0
APPID
  2
ACAD_MLEADERVER
 70
     0
  0
APPID
  2
ACAD_EXEMPT_FROM_CAD_STANDARDS
 70
     0
  0
APPID
  2
ACAD_NAV_VCDISPLAY
 70
     0
  0
APPID
  2
ACAECLAYERSTANDARD
 70
     0
  0
APPID
  2
ACCMTRANSPARENCY
 70
     0
  0
APPID
  2
ACAD_DSTYLE_DIMJAG
 70
     0
  0
APPID
  2
ACAD_DSTYLE_DIMTALN
 70
     0
  0
APPID
  2
ACDBATTR
 70
     0
  0
ENDTAB
  0
TABLE
  2
DIMSTYLE
 70
     1
  0
DIMSTYLE
  2
STANDARD
 70
     0
  3

  4

  5

  6

  7

 40
1.0
 41
0.1875
 42
0.0625
 43
0.38
 44
0.125
 45
0.0
 46
0.0
 47
0.01
 48
0.01
140
0.15625
141
0.09
142
0.0
143
25.3999999999999986
144
1.0
145
0.0
146
1.0
147
0.09
 71
     1
 72
     0
 73
     1
 74
     1
 75
     0
 76
     0
 77
     0
 78
     4
170
     0
171
     2
172
     0
173
     0
174
     0
175
     0
176
     0
177
     0
178
     0
  0
ENDTAB
  0
ENDSEC
  0
SECTION
  2
BLOCKS
  0
BLOCK
  8
0
  2
$MODEL_SPACE
 70
     0
 10
0.0
 20
0.0
 30
0.0
  3
$MODEL_SPACE
  1

  0
ENDBLK
  5
21
  8
0
  0
BLOCK
 67
     1
  8
0
  2
$PAPER_SPACE
 70
     0
 10
0.0
 20
0.0
 30
0.0
  3
$PAPER_SPACE
  1

  0
ENDBLK
  5
1D
 67
     1
  8
0
  0
BLOCK
  8
0
  2
_FILLED
 70
     0
 10
0.0
 20
0.0
 30
0.0
  3
_FILLED
  1

  0
SOLID
  5
7E7B
  8
0
  6
BYBLOCK
 62
     0
 10
0.0
 20
0.0
 30
0.0
 11
-1.0
 21
0.1666666667
 31
0.0
 12
-1.0
 22
-0.1666666667
 32
0.0
 13
-1.0
 23
-0.1666666667
 33
0.0
  0
ENDBLK
  5
7E7C
  8
0
  6
BYBLOCK
 62
     0
  0
ENDSEC
  0
SECTION
  2
ENTITIES
  0
ATTDEF
  5
3930
  8
DEFPOINTS
 10
3211.9286715435077895
 20
195.2748328223024998
 30
0.0
 40
0.001
  1
P24491-CR
  3

  2
MODELNUMBER
 70
     0
1001
ACDBATTR
1070
     0
1070
     1
  0
ATTDEF
  5
3931
  8
DEFPOINTS
 10
3211.9286715435077895
 20
195.2731661556358063
 30
0.0
 40
0.001
  1
ONE 
  3

  2
TRADENAME
 70
     0
1001
ACDBATTR
1070
     0
1070
     1
  0
ATTDEF
  5
3932
  8
DEFPOINTS
 10
3211.9286715435077895
 20
195.2714994889691127
 30
0.0
 40
0.001
  1
BATHROOM SINK FAUCET
  3

  2
PRODUCT
 70
     0
1001
ACDBATTR
1070
     0
1070
     1
  0
ARC
  5
8835
  8
0
 10
3206.7284696529131907
 20
197.5150383884378869
 30
0.0
 40
0.0299999998526851
 50
92.8654660687083151
 51
180.0000000150126027
  0
ARC
  5
8836
  8
0
 10
3206.7700480163571228
 20
196.8050088122735133
 30
0.0
 40
0.0299999999917517
 50
183.3513354591711959
 51
270.000000006253174
  0
LINE
  5
8837
  8
0
 10
3206.698469653059874
 20
197.5150383884300993
 30
0.0
 11
3206.7400993211558671
 21
196.8032550575817083
 31
0.0
  0
ARC
  5
8838
  8
0
 10
3207.9267533827101033
 20
173.5750088578174086
 30
0.0
 40
23.9999999544643501
 50
87.134533612917167
 51
92.8654663870828472
  0
LINE
  5
8839
  8
0
 10
3206.7700480163571228
 20
196.7750088122816976
 30
0.0
 11
3209.083458749159945
 21
196.7750088122816976
 31
0.0
  0
ARC
  5
883A
  8
0
 10
3207.733610797045003
 20
197.5426579594266911
 30
0.0
 40
0.0326907266070062
 50
105.5000366669409999
 51
178.1645476940988999
  0
ARC
  5
883B
  8
0
 10
3207.7062472588481796
 20
196.8035069817790088
 30
0.0
 40
0.0285550665144346
 50
176.9851840730551089
 51
266.318257434681982
  0
LINE
  5
883C
  8
0
 10
3207.6777317134601617
 20
196.8050088122816987
 30
0.0
 11
3207.7009368429598908
 21
197.5437050174816989
 31
0.0
  0
LINE
  5
883D
  8
0
 10
3207.7736268905350698
 20
197.5417020074721961
 30
0.0
 11
3207.815159509159912
 21
196.8033243193816872
 31
0.0
  0
ARC
  5
883E
  8
0
 10
3207.8058339488879938
 20
197.5425640342444069
 30
0.0
 40
0.0322185924259332
 50
94.3008372937661932
 51
181.5331641401369041
  0
ARC
  5
883F
  8
0
 10
3207.8451108078461402
 20
196.805007360834594
 30
0.0
 40
0.0299985486569174
 50
183.2162166844082947
 51
270.0047716587627065
  0
ARC
  5
8840
  8
0
 10
3207.6617533827597981
 20
196.7600088122817112
 30
0.0
 40
0.0149999999999999
 50
90.0
 51
180.0
  0
ARC
  5
8841
  8
0
 10
3206.8117533827598891
 20
195.6610088122816933
 30
0.0
 40
0.0099999999999998
 50
90.0
 51
180.0
  0
LINE
  5
8842
  8
0
 10
3206.8017533827601255
 20
195.6610088122816933
 30
0.0
 11
3206.8017533827601255
 21
195.2710088122817069
 31
0.0
  0
LINE
  5
8843
  8
0
 10
3206.8017533827601255
 20
195.2710088122817069
 30
0.0
 11
3209.051753382759216
 21
195.2710088122817069
 31
0.0
  0
LINE
  5
8844
  8
0
 10
3206.8117533824602106
 20
195.6710088122817126
 30
0.0
 11
3209.0417533827599073
 21
195.6710088122817126
 31
0.0
  0
LINE
  5
8845
  8
0
 10
3207.6467533827599254
 20
195.6710088122817126
 30
0.0
 11
3207.6467533827599254
 21
196.7600088122817112
 31
0.0
  0
ARC
  5
8846
  8
0
 10
3209.1250371126070604
 20
197.5150383884378869
 30
0.0
 40
0.0299999998526861
 50
359.9999999849874257
 51
87.1345339312916849
  0
ARC
  5
8847
  8
0
 10
3209.0834587491640377
 20
196.8050088122735133
 30
0.0
 40
0.0299999999917517
 50
269.9999999937467123
 51
356.6486645408288041
  0
LINE
  5
8848
  8
0
 10
3209.1550371124599224
 20
197.5150383884300993
 30
0.0
 11
3209.1134074443648387
 21
196.8032550575817083
 31
0.0
  0
ARC
  5
8849
  8
0
 10
3208.1198959684761576
 20
197.5426579594266911
 30
0.0
 40
0.0326907266070062
 50
1.835452305901051
 51
74.499963333058929
  0
ARC
  5
884A
  8
0
 10
3208.1472595066720714
 20
196.8035069817790088
 30
0.0
 40
0.0285550665144346
 50
273.681742565318018
 51
3.01481592694486
  0
LINE
  5
884B
  8
0
 10
3208.1757750520600894
 20
196.8050088122816987
 30
0.0
 11
3208.1525699225599055
 21
197.5437050174816989
 31
0.0
  0
LINE
  5
884C
  8
0
 10
3208.0798798749851812
 20
197.5417020074721961
 30
0.0
 11
3208.0383472563598843
 21
196.8033243193816872
 31
0.0
  0
ARC
  5
884D
  8
0
 10
3208.0476728166318026
 20
197.5425640342444069
 30
0.0
 40
0.0322185924259332
 50
358.4668358598630107
 51
85.699162706233821
  0
ARC
  5
884E
  8
0
 10
3208.0083959576741108
 20
196.805007360834594
 30
0.0
 40
0.0299985486569174
 50
269.9952283412374072
 51
356.7837833155916201
  0
ARC
  5
884F
  8
0
 10
3208.1917533827599982
 20
196.7600088122817112
 30
0.0
 40
0.0149999999999999
 50
0.0
 51
90.0
  0
ARC
  5
8850
  8
0
 10
3209.0417533827599073
 20
195.6610088122816933
 30
0.0
 40
0.0099999999999998
 50
0.0
 51
90.0
  0
LINE
  5
8851
  8
0
 10
3209.051753382759216
 20
195.6610088122816933
 30
0.0
 11
3209.051753382759216
 21
195.2710088122817069
 31
0.0
  0
LINE
  5
8852
  8
0
 10
3208.2067533827598709
 20
195.6710088122817126
 30
0.0
 11
3208.2067533827598709
 21
196.7600088122817112
 31
0.0
  0
ARC
  5
8853
  8
0
 10
3211.9264935406681616
 20
189.6138811477134141
 30
0.0
 40
7.0409488968322256
 50
89.9978807326120034
 51
90.4568626415052819
  0
ARC
  5
8854
  8
0
 10
3211.8751115682061936
 20
195.7765826924002965
 30
0.0
 40
0.8780364226073661
 50
90.3106290223082766
 51
90.7790720255710539
  0
ARC
  5
8855
  8
0
 10
3211.8925475562728025
 20
192.2629411674504922
 30
0.0
 40
4.3916950190381421
 50
90.3832355402047938
 51
91.0495284233531237
  0
ARC
  5
8856
  8
0
 10
3211.8867920922261874
 20
191.821886015209202
 30
0.0
 40
4.8325905552066608
 50
90.8855204070100484
 51
91.7382968111911907
  0
ARC
  5
8857
  8
0
 10
3211.8358958997118862
 20
193.1932204342163004
 30
0.0
 40
3.460355738952281
 50
91.5847359789696753
 51
92.4799831105260353
  0
ARC
  5
8858
  8
0
 10
3211.8045249010660882
 20
193.8743689531802943
 30
0.0
 40
2.778488377714504
 50
92.441461103134742
 51
93.3146933958501847
  0
ARC
  5
8859
  8
0
 10
3211.7559377757820585
 20
194.8009648065516899
 30
0.0
 40
1.8506403340939821
 50
93.4716599441338047
 51
94.6954526434833497
  0
ARC
  5
885A
  8
0
 10
3211.6367114908512121
 20
196.1914523680366074
 30
0.0
 40
0.4550870993243509
 50
94.0657277562502259
 51
99.6251324211572751
  0
ARC
  5
885B
  8
0
 10
3211.9267527928700474
 20
197.845008416929204
 30
0.0
 40
0.4400000000000066
 50
90.0
 51
134.892613312882105
  0
ARC
  5
885C
  8
0
 10
3211.9267522029790598
 20
197.8450088122816908
 30
0.0
 40
0.4399993035872586
 50
134.8925952302666929
 51
180.0000514819737134
  0
LINE
  5
885D
  8
0
 10
3211.4867528993931955
 20
197.845008416929204
 30
0.0
 11
3211.4867528993931955
 21
195.6650088122817124
 31
0.0
  0
ARC
  5
885E
  8
0
 10
3211.9207592007669518
 20
189.2538329552473897
 30
0.0
 40
7.4141920013294778
 50
89.9536732842278184
 51
91.6626140496566109
  0
ARC
  5
885F
  8
0
 10
3212.1175198383439238
 20
223.6004553319434081
 30
0.0
 40
26.9886389046699513
 50
269.2574592380381091
 51
269.4603935893139806
  0
ARC
  5
8860
  8
0
 10
3211.7717334711410331
 20
193.8894014152045031
 30
0.0
 40
2.7762889493694991
 50
91.3640591204672177
 51
94.7413778787478975
  0
ARC
  5
8861
  8
0
 10
3211.5728430296921942
 20
196.2720871064429957
 30
0.0
 40
0.3853190520868824
 50
94.553837109630166
 51
101.5778088895887947
  0
ARC
  5
8862
  8
0
 10
3211.8699187452280057
 20
201.7384248133220126
 30
0.0
 40
5.1253601273619367
 50
267.372362087184797
 51
268.857935179745084
  0
ARC
  5
8863
  8
0
 10
3211.6856391552410059
 20
197.9674553808389135
 30
0.0
 40
1.349953840736396
 50
262.9634806849347797
 51
267.8479927630311863
  0
ARC
  5
8864
  8
0
 10
3211.5215143203768093
 20
196.6862388060440026
 30
0.0
 40
0.0585830580867203
 50
237.7076847863268938
 51
268.780169065081509
  0
ARC
  5
8865
  8
0
 10
3211.4984762009330552
 20
196.6450364959270871
 30
0.0
 40
0.0117233040567029
 50
180.0375377004401969
 51
225.2096949935356065
  0
ARC
  5
8866
  8
0
 10
3211.5009493948377894
 20
196.6241461541411013
 30
0.0
 40
0.0259953754149042
 50
102.0779351493575007
 51
123.1009733713663934
  0
LINE
  5
8867
  8
0
 10
3210.8117533824602106
 20
195.6650088122817124
 30
0.0
 11
3213.0417533830600405
 21
195.6650088122817124
 31
0.0
  0
LINE
  5
8868
  8
0
 10
3213.0517533827601255
 20
195.6550088122816931
 30
0.0
 11
3213.0517533827601255
 21
195.2710088122817069
 31
0.0
  0
LINE
  5
8869
  8
0
 10
3213.0517533827601255
 20
195.2710088122817069
 30
0.0
 11
3210.8017533827601255
 21
195.2710088122817069
 31
0.0
  0
LINE
  5
886A
  8
0
 10
3210.8017533827601255
 20
195.2710088122817069
 30
0.0
 11
3210.8017533827601255
 21
195.6550088122816931
 31
0.0
  0
ARC
  5
886B
  8
0
 10
3210.8117533827598891
 20
195.6550088122816931
 30
0.0
 40
0.01
 50
90.0000017188812649
 51
180.0
  0
ARC
  5
886C
  8
0
 10
3213.0417533827599073
 20
195.6550088122816931
 30
0.0
 40
0.01
 50
0.0
 51
89.9999982811187351
  0
ARC
  5
886D
  8
0
 10
3211.9783940175339012
 20
195.7765826924002965
 30
0.0
 40
0.8780364226073661
 50
89.2209279744289603
 51
89.689370977691766
  0
ARC
  5
886E
  8
0
 10
3211.9267527928700474
 20
197.845008416929204
 30
0.0
 40
0.4400000000000066
 50
45.1073866871178808
 51
90.0
  0
ARC
  5
886F
  8
0
 10
3211.9267533827601255
 20
197.8450088122816908
 30
0.0
 40
0.4399993035872222
 50
359.9999485180246097
 51
45.1074047697344582
  0
LINE
  5
8870
  8
0
 10
3212.3667526863468993
 20
197.845008416929204
 30
0.0
 11
3212.3667526863468993
 21
195.6650088122817124
 31
0.0
  0
ARC
  5
8871
  8
0
 10
3217.1250371126070604
 20
197.5150383884378869
 30
0.0
 40
0.0299999998526851
 50
359.9999999849874257
 51
87.1345339312916849
  0
ARC
  5
8872
  8
0
 10
3217.0834587491640377
 20
196.8050088122735133
 30
0.0
 40
0.0299999999917517
 50
269.9999999937467123
 51
356.6486645408288041
  0
LINE
  5
8873
  8
0
 10
3217.1550371124608318
 20
197.5150383884300993
 30
0.0
 11
3217.1134074443639292
 21
196.8032550575817083
 31
0.0
  0
ARC
  5
8874
  8
0
 10
3215.9267533828101477
 20
173.5750088578174086
 30
0.0
 40
23.9999999544643501
 50
87.134533612917167
 51
92.8654663870828472
  0
LINE
  5
8875
  8
0
 10
3217.0834587491640377
 20
196.7750088122816976
 30
0.0
 11
3214.7700480163598513
 21
196.7750088122816976
 31
0.0
  0
ARC
  5
8876
  8
0
 10
3216.1198959684747933
 20
197.5426579594266911
 30
0.0
 40
0.0326907266070062
 50
1.835452305901051
 51
74.499963333058929
  0
ARC
  5
8877
  8
0
 10
3216.1472595066720714
 20
196.8035069817790088
 30
0.0
 40
0.0285550665144346
 50
273.681742565318018
 51
3.01481592694486
  0
LINE
  5
8878
  8
0
 10
3216.1757750520600894
 20
196.8050088122816987
 30
0.0
 11
3216.1525699225599055
 21
197.5437050174816989
 31
0.0
  0
LINE
  5
8879
  8
0
 10
3216.0798798750201968
 20
197.5417020080938926
 30
0.0
 11
3216.0383472563598843
 21
196.8033243193816872
 31
0.0
  0
ARC
  5
887A
  8
0
 10
3216.0476728166318026
 20
197.5425640342444069
 30
0.0
 40
0.0322185924259332
 50
358.4668358598630107
 51
85.699162706233821
  0
ARC
  5
887B
  8
0
 10
3216.0083959576741108
 20
196.805007360834594
 30
0.0
 40
0.0299985486569174
 50
269.9952283412374072
 51
356.7837833155916201
  0
ARC
  5
887C
  8
0
 10
3216.1917533827599982
 20
196.7600088122817112
 30
0.0
 40
0.0149999999999999
 50
0.0
 51
90.0
  0
ARC
  5
887D
  8
0
 10
3217.0417533827608167
 20
195.6610088122816933
 30
0.0
 40
0.0099999999999998
 50
0.0
 51
90.0
  0
LINE
  5
887E
  8
0
 10
3217.0517533827601255
 20
195.6610088122816933
 30
0.0
 11
3217.0517533827601255
 21
195.2710088122817069
 31
0.0
  0
LINE
  5
887F
  8
0
 10
3217.0517533827601255
 20
195.2710088122817069
 30
0.0
 11
3214.8017533827601255
 21
195.2710088122817069
 31
0.0
  0
LINE
  5
8880
  8
0
 10
3217.0417533830600405
 20
195.6710088122817126
 30
0.0
 11
3214.8117533827598891
 21
195.6710088122817126
 31
0.0
  0
LINE
  5
8881
  8
0
 10
3216.2067533827598709
 20
195.6710088122817126
 30
0.0
 11
3216.2067533827598709
 21
196.7600088122817112
 31
0.0
  0
ARC
  5
8882
  8
0
 10
3214.7284696529131907
 20
197.5150383884378869
 30
0.0
 40
0.0299999998526861
 50
92.8654660687083151
 51
180.0000000150126027
  0
ARC
  5
8883
  8
0
 10
3214.7700480163571228
 20
196.8050088122735133
 30
0.0
 40
0.0299999999917517
 50
183.3513354591711959
 51
270.000000006253174
  0
LINE
  5
8884
  8
0
 10
3214.698469653059874
 20
197.5150383884300993
 30
0.0
 11
3214.7400993211558671
 21
196.8032550575817083
 31
0.0
  0
ARC
  5
8885
  8
0
 10
3215.733610797045003
 20
197.5426579594266911
 30
0.0
 40
0.0326907266070062
 50
105.5000366669409999
 51
178.1645476940988999
  0
ARC
  5
8886
  8
0
 10
3215.7062472588490891
 20
196.8035069817790088
 30
0.0
 40
0.0285550665144346
 50
176.9851840730551089
 51
266.318257434681982
  0
LINE
  5
8887
  8
0
 10
3215.6777317134601617
 20
196.8050088122816987
 30
0.0
 11
3215.7009368429598908
 21
197.5437050174816989
 31
0.0
  0
LINE
  5
8888
  8
0
 10
3215.7736268905000543
 20
197.5417020080938926
 30
0.0
 11
3215.8151595091608215
 21
196.8033243193816872
 31
0.0
  0
ARC
  5
8889
  8
0
 10
3215.8058339488879938
 20
197.5425640342444069
 30
0.0
 40
0.0322185924259332
 50
94.3008372937661932
 51
181.5331641401369041
  0
ARC
  5
888A
  8
0
 10
3215.8451108078461402
 20
196.805007360834594
 30
0.0
 40
0.0299985486569174
 50
183.2162166844082947
 51
270.0047716587627065
  0
ARC
  5
888B
  8
0
 10
3215.6617533827597981
 20
196.7600088122817112
 30
0.0
 40
0.0149999999999999
 50
90.0
 51
180.0
  0
ARC
  5
888C
  8
0
 10
3214.8117533827598891
 20
195.6610088122816933
 30
0.0
 40
0.0099999999999998
 50
90.0
 51
180.0
  0
LINE
  5
888D
  8
0
 10
3214.8017533827601255
 20
195.6610088122816933
 30
0.0
 11
3214.8017533827601255
 21
195.2710088122817069
 31
0.0
  0
LINE
  5
888E
  8
0
 10
3215.6467533827599254
 20
195.6710088122817126
 30
0.0
 11
3215.6467533827599254
 21
196.7600088122817112
 31
0.0
  0
ARC
  5
888F
  8
0
 10
3211.9267533828101477
 20
203.4834228556055109
 30
0.0
 40
6.8718656801237534
 50
269.475289451691026
 51
270.524710548308974
  0
ARC
  5
8890
  8
0
 10
3211.8810968632042204
 20
196.6154992643882906
 30
0.0
 40
0.0179230382440653
 50
180.135478728980587
 51
187.9726759005210965
  0
ARC
  5
8891
  8
0
 10
3211.8689417504579069
 20
196.6138867337608076
 30
0.0
 40
0.0056624526611881
 50
188.8730590496400907
 51
195.5742900922921024
  0
ARC
  5
8892
  8
0
 10
3211.8649411356041128
 20
196.6127435794172129
 30
0.0
 40
0.001502048927304
 50
194.5418062202066949
 51
211.4652785927474099
  0
ARC
  5
8893
  8
0
 10
3211.8638245808260763
 20
196.611977224985111
 30
0.0
 40
0.0001319091249134
 50
242.3881148349204864
 51
268.9746577936459175
  0
ARC
  5
8894
  8
0
 10
3211.8639173383248817
 20
196.6121244771503882
 30
0.0
 40
0.0003056998125408
 50
212.6529108354581012
 51
239.7736227555693915
  0
LINE
  5
8895
  8
0
 10
3211.8631738750650584
 20
196.6154568845097117
 30
0.0
 11
3211.8631735381600265
 21
196.6478032953833974
 31
0.0
  0
LINE
  5
8896
  8
0
 10
3211.8631735381600265
 20
196.6545379548504116
 30
0.0
 11
3211.8631735381600265
 21
196.6533217813816918
 31
0.0
  0
ARC
  5
8897
  8
0
 10
3211.8640066841471707
 20
196.649507195108697
 30
0.0
 40
0.0003531446968683
 50
201.2171125493428008
 51
244.9559022230855021
  0
ARC
  5
8898
  8
0
 10
3211.8665004828171732
 20
196.6507105575356036
 30
0.0
 40
0.0031211160983432
 50
187.782218740773402
 51
205.2458594391985116
  0
ARC
  5
8899
  8
0
 10
3211.8850208720441515
 20
196.653312414009207
 30
0.0
 40
0.0218473358748138
 50
179.9754333455767039
 51
184.3381743005136002
  0
ARC
  5
889A
  8
0
 10
3211.8764674427297905
 20
196.6526218072316112
 30
0.0
 40
0.0132662381575704
 50
184.1584196773310964
 51
190.1325406152560049
  0
LINE
  5
889B
  8
0
 10
3211.8638571924598182
 20
196.6491872522817062
 30
0.0
 11
3211.8696682521917865
 21
196.6474626012092131
 31
0.0
  0
LINE
  5
889C
  8
0
 10
3211.8696682521917865
 20
196.6474626012092131
 30
0.0
 11
3211.869704582310078
 21
196.6474573731873932
 31
0.0
  0
ARC
  5
889D
  8
0
 10
3211.9267533827601255
 20
219.7480976022914945
 30
0.0
 40
23.1007106721877591
 50
269.8585039715371749
 51
270.1414960284628251
  0
ARC
  5
889E
  8
0
 10
3212.1140558596280243
 20
217.8436838894697871
 30
0.0
 40
21.1973653102925113
 50
269.3218575241867825
 51
269.3369029723414201
  0
ARC
  5
889F
  8
0
 10
3211.9209168728011718
 20
201.3689014203353054
 30
0.0
 40
4.7214512385621283
 50
268.9442177853488261
 51
269.2992553170813039
  0
ARC
  5
88A0
  8
0
 10
3211.8901935627468447
 20
199.9658396155404034
 30
0.0
 40
3.3180650964125822
 50
267.4134255336825277
 51
269.0282346359123835
  0
LINE
  5
88A1
  8
0
 10
3211.7404539497601945
 20
196.6522603922458075
 30
0.0
 11
3211.7404539497601945
 21
196.6205258531850859
 31
0.0
  0
LINE
  5
88A2
  8
0
 10
3211.6268276342598256
 20
196.6234594349816973
 30
0.0
 11
3211.6268276342598256
 21
196.647095955070597
 31
0.0
  0
ARC
  5
88A3
  8
0
 10
3211.6303294103231565
 20
196.6446309999556945
 30
0.0
 40
0.0032509870134602
 50
215.0130173635542121
 51
265.1162972504420736
  0
ARC
  5
88A4
  8
0
 10
3211.6313916586809682
 20
196.6454033318881898
 30
0.0
 40
0.0045641849485828
 50
179.5194562417804036
 51
215.3027285998761897
  0
ARC
  5
88A5
  8
0
 10
3211.8130032148851569
 20
194.4378684737826859
 30
0.0
 40
2.208003860172143
 50
91.9378160985888115
 51
94.0394213487540895
  0
LINE
  5
88A6
  8
0
 10
3211.6300526423601696
 20
196.6413918154817111
 30
0.0
 11
3211.6574652107588008
 21
196.6403872536816948
 31
0.0
  0
ARC
  5
88A7
  8
0
 10
3211.7348978114828242
 20
196.6482589589475083
 30
0.0
 40
0.0055573539565021
 50
334.089146791600399
 51
1.198453115315425
  0
ARC
  5
88A8
  8
0
 10
3211.7382353918937952
 20
196.6461587863325065
 30
0.0
 40
0.0015527006438614
 50
273.8613271938920093
 51
316.363701086172
  0
ARC
  5
88A9
  8
0
 10
3211.7372676491918355
 20
196.6471653591914048
 30
0.0
 40
0.0029483280809593
 50
315.1845271316656181
 51
333.0807490725549087
  0
ARC
  5
88AA
  8
0
 10
3211.7229575414498868
 20
196.6500842624913048
 30
0.0
 40
0.0062147496606137
 50
179.4176820001947021
 51
202.7458656806371948
  0
ARC
  5
88AB
  8
0
 10
3211.7192924083660728
 20
196.6479572364110027
 30
0.0
 40
0.0019322648453496
 50
214.4344781251971028
 51
261.3346578848090758
  0
ARC
  5
88AC
  8
0
 10
3211.7208156984129346
 20
196.6492133347655908
 30
0.0
 40
0.0039028204940605
 50
203.111957995996903
 51
216.999033731882804
  0
LINE
  5
88AD
  8
0
 10
3211.7167431127600139
 20
196.6501474241817107
 30
0.0
 11
3211.7167431127600139
 21
196.6515241301721062
 31
0.0
  0
LINE
  5
88AE
  8
0
 10
3211.7190012877581466
 20
196.6460470279818935
 30
0.0
 11
3211.7383399536602155
 21
196.6446096103817069
 31
0.0
  0
ARC
  5
88AF
  8
0
 10
3211.7378886816518389
 20
196.6184598394723082
 30
0.0
 40
0.0020574300152497
 50
278.5840735436647151
 51
339.5005202937372815
  0
ARC
  5
88B0
  8
0
 10
3211.734336912730214
 20
196.6204603490496936
 30
0.0
 40
0.0061173877439527
 50
333.5894022264778869
 51
0.6135269470185583
  0
LINE
  5
88B1
  8
0
 10
3211.721852187586137
 20
196.6152038801922117
 30
0.0
 11
3211.7381957746729313
 21
196.6164254569752075
 31
0.0
  0
ARC
  5
88B2
  8
0
 10
3211.6314293517571059
 20
196.6234526762486894
 30
0.0
 40
0.0046017224602842
 50
179.9158473767816133
 51
203.0421895726333901
  0
ARC
  5
88B3
  8
0
 10
3211.6301124727210663
 20
196.6227491865435013
 30
0.0
 40
0.0031173488037423
 50
200.61672954423031
 51
263.668184750977673
  0
ARC
  5
88B4
  8
0
 10
3211.5094742572177893
 20
194.8192305700544864
 30
0.0
 40
1.8044345222282101
 50
85.2070816837586165
 51
86.1774850933240941
  0
ARC
  5
88B5
  8
0
 10
3211.6568797826380433
 20
196.6244257640011881
 30
0.0
 40
0.0038203178933328
 50
278.8147758450039078
 51
4.1219141730417759
  0
LINE
  5
88B6
  8
0
 10
3211.6574652106987742
 20
196.6206505682795012
 30
0.0
 11
3211.6297686720999991
 21
196.6196508539763101
 31
0.0
  0
LINE
  5
88B7
  8
0
 10
3211.6606902187600099
 20
196.6247003643817095
 30
0.0
 11
3211.6606902187600099
 21
196.6406126254595108
 31
0.0
  0
ARC
  5
88B8
  8
0
 10
3211.5655714369149791
 20
196.6344416149665904
 30
0.0
 40
0.0049597944548334
 50
179.9999999999787974
 51
208.8728724475286924
  0
ARC
  5
88B9
  8
0
 10
3211.5705038651040013
 20
196.6386752158445859
 30
0.0
 40
0.0114006895093303
 50
215.5500917816443121
 51
262.1176297886452176
  0
ARC
  5
88BA
  8
0
 10
3211.5701229674059505
 20
196.6377588418974938
 30
0.0
 40
0.0039488478909743
 50
179.7215126357725978
 51
268.9609856320219023
  0
LINE
  5
88BB
  8
0
 10
3211.5606116424601169
 20
196.6344416149665904
 30
0.0
 11
3211.5606203674451535
 21
196.6401331107817896
 31
0.0
  0
LINE
  5
88BC
  8
0
 10
3211.5661741661601809
 20
196.6377780352817126
 30
0.0
 11
3211.5661741661601809
 21
196.6410695160764135
 31
0.0
  0
ARC
  5
88BD
  8
0
 10
3211.5731721213737728
 20
196.5717431728496933
 30
0.0
 40
0.0695322237313927
 50
100.399879638551198
 51
107.5650541045136066
  0
ARC
  5
88BE
  8
0
 10
3211.56281453370093
 20
196.6611235617056934
 30
0.0
 40
0.0310194120987314
 50
244.5834513516284119
 51
259.2300881095870864
  0
ARC
  5
88BF
  8
0
 10
3211.5569240920808625
 20
196.6230302464958015
 30
0.0
 40
0.015732951658044
 50
107.5191082905860043
 51
119.7322402126507939
  0
ARC
  5
88C0
  8
0
 10
3211.5506926133311936
 20
196.6338055905657995
 30
0.0
 40
0.0032863537569755
 50
118.5620080806130971
 51
149.6555301165130061
  0
ARC
  5
88C1
  8
0
 10
3211.5489068530341683
 20
196.6349965475419026
 30
0.0
 40
0.0011504483675679
 50
155.9252082139996958
 51
221.4388789693726949
  0
ARC
  5
88C2
  8
0
 10
3211.551344709660043
 20
196.6369902689662865
 30
0.0
 40
0.0042991452668161
 50
219.855313368598388
 51
244.6069359050507899
  0
ARC
  5
88C3
  8
0
 10
3211.5852234430280987
 20
196.7544054750165117
 30
0.0
 40
0.1269284304993182
 50
257.1608523690417201
 51
260.4165712858329016
  0
LINE
  5
88C4
  8
0
 10
3211.6030075269291046
 20
196.6275313061813961
 30
0.0
 11
3211.570051362059985
 21
196.627227178681693
 31
0.0
  0
LINE
  5
88C5
  8
0
 10
3211.570051362059985
 20
196.627227178681693
 30
0.0
 11
3211.568940377259878
 21
196.6273822433817031
 31
0.0
  0
ARC
  5
88C6
  8
0
 10
3211.6029359216208832
 20
196.6314795047946973
 30
0.0
 40
0.0039488478841945
 50
271.0390140987846053
 51
0.2784874046165005
  0
LINE
  5
88C7
  8
0
 10
3211.6068847228598315
 20
196.6314986981817015
 30
0.0
 11
3211.6068847228598315
 21
196.6455929082540877
 31
0.0
  0
LINE
  5
88C8
  8
0
 10
3211.570051362059985
 20
196.6338106432816915
 30
0.0
 11
3211.6030075268249675
 21
196.6335065157830115
 31
0.0
  0
ARC
  5
88C9
  8
0
 10
3211.603004742156827
 20
196.6373783457254945
 30
0.0
 40
0.0038800549456496
 50
286.6814218198925914
 51
0.3544448259446533
  0
LINE
  5
88CA
  8
0
 10
3211.6030075269600275
 20
196.6335065157817041
 30
0.0
 11
3211.60411851166009
 21
196.6336615804816859
 31
0.0
  0
ARC
  5
88CB
  8
0
 10
3211.9270132410579208
 20
189.6138838615640054
 30
0.0
 40
7.0409461829386091
 50
89.5431373142778142
 51
90.0021097996146011
  0
ARC
  5
88CC
  8
0
 10
3211.9609592092469939
 20
192.2629411674504922
 30
0.0
 40
4.3916950190381421
 50
88.9504715766468763
 51
89.6167644597952204
  0
ARC
  5
88CD
  8
0
 10
3211.9667146732949732
 20
191.821886015209202
 30
0.0
 40
4.8325905552066608
 50
88.2617031888088093
 51
89.1144795929899374
  0
ARC
  5
88CE
  8
0
 10
3212.0176108658079102
 20
193.1932204342163004
 30
0.0
 40
3.460355738952281
 50
87.5200168894739932
 51
88.4152640210303247
  0
ARC
  5
88CF
  8
0
 10
3212.0489818644541629
 20
193.8743689531802943
 30
0.0
 40
2.778488377714504
 50
86.685306604149801
 51
87.5585388968652438
  0
ARC
  5
88D0
  8
0
 10
3212.0975689897381926
 20
194.8009648065516899
 30
0.0
 40
1.8506403340939821
 50
85.3045473565166361
 51
86.5283400558662095
  0
ARC
  5
88D1
  8
0
 10
3212.2167952746690389
 20
196.1914523680366074
 30
0.0
 40
0.4550870993243509
 50
80.3748675788427533
 51
85.9342722437497883
  0
ARC
  5
88D2
  8
0
 10
3211.9327476572211708
 20
189.2538372431241953
 30
0.0
 40
7.4141877125749556
 50
88.3373857032108987
 51
90.046318339965481
  0
ARC
  5
88D3
  8
0
 10
3211.735986927176782
 20
223.6004553319434081
 30
0.0
 40
26.9886389046699513
 50
270.5396064106860194
 51
270.7425407619618909
  0
ARC
  5
88D4
  8
0
 10
3212.081773294379218
 20
193.8894014152045031
 30
0.0
 40
2.7762889493694991
 50
85.2586221212521167
 51
88.6359408795327965
  0
ARC
  5
88D5
  8
0
 10
3212.2806637358280568
 20
196.2720871064429957
 30
0.0
 40
0.3853190520868824
 50
78.4221911104111626
 51
85.446162890369834
  0
ARC
  5
88D6
  8
0
 10
3211.9835880202917906
 20
201.7384248133220126
 30
0.0
 40
5.1253601273619367
 50
271.142064820254916
 51
272.6276379128153167
  0
ARC
  5
88D7
  8
0
 10
3212.1678676102787904
 20
197.9674553808389135
 30
0.0
 40
1.349953840736396
 50
272.1520072369688137
 51
277.0365193150651066
  0
ARC
  5
88D8
  8
0
 10
3212.331992445142987
 20
196.6862388060440026
 30
0.0
 40
0.0585830580867203
 50
271.219830934918491
 51
302.2923152136730778
  0
ARC
  5
88D9
  8
0
 10
3212.3550305645871958
 20
196.6450364959270871
 30
0.0
 40
0.0117233040567029
 50
314.7903050064645072
 51
359.9624622995597747
  0
ARC
  5
88DA
  8
0
 10
3212.3525573706820069
 20
196.6241461541411013
 30
0.0
 40
0.0259953754149042
 50
56.8990266286335569
 51
77.9220648506424425
  0
ARC
  5
88DB
  8
0
 10
3211.9724099023160306
 20
196.6154992643882906
 30
0.0
 40
0.0179230382440653
 50
352.0273240994789035
 51
359.8645212710193277
  0
ARC
  5
88DC
  8
0
 10
3211.9845650150618894
 20
196.6138867337608076
 30
0.0
 40
0.0056624526611881
 50
344.425709907707926
 51
351.1269409503598808
  0
ARC
  5
88DD
  8
0
 10
3211.9885656299161383
 20
196.6127435794172129
 30
0.0
 40
0.001502048927304
 50
328.5347214072526185
 51
345.4581937797933051
  0
ARC
  5
88DE
  8
0
 10
3211.9896821846941748
 20
196.611977224985111
 30
0.0
 40
0.0001319091249134
 50
271.0253422063540825
 51
297.6118851650795136
  0
ARC
  5
88DF
  8
0
 10
3211.9895894271949146
 20
196.6121244771503882
 30
0.0
 40
0.0003056998125408
 50
300.22637724443058
 51
327.3470891645417851
  0
LINE
  5
88E0
  8
0
 10
3211.9903328904561022
 20
196.6154568845097117
 30
0.0
 11
3211.9903332273602246
 21
196.6478032953833974
 31
0.0
  0
LINE
  5
88E1
  8
0
 10
3211.9903332273602246
 20
196.6545379548504116
 30
0.0
 11
3211.9903332273602246
 21
196.6533217813816918
 31
0.0
  0
ARC
  5
88E2
  8
0
 10
3211.9895000813739898
 20
196.649507195108697
 30
0.0
 40
0.0003531446968683
 50
295.0440977769144979
 51
338.7828874506573129
  0
ARC
  5
88E3
  8
0
 10
3211.9870062827021684
 20
196.6507105575356036
 30
0.0
 40
0.0031211160983432
 50
334.7541405608013747
 51
352.2177812592266264
  0
ARC
  5
88E4
  8
0
 10
3211.9684858934751901
 20
196.653312414009207
 30
0.0
 40
0.0218473358748138
 50
355.6618256994863145
 51
0.0245666544232669
  0
ARC
  5
88E5
  8
0
 10
3211.9770393227900058
 20
196.6526218072316112
 30
0.0
 40
0.0132662381575704
 50
349.8674593847439951
 51
355.8415803226687899
  0
LINE
  5
88E6
  8
0
 10
3211.9896495730599781
 20
196.6491872522817062
 30
0.0
 11
3211.9838385133280099
 21
196.6474626012092131
 31
0.0
  0
ARC
  5
88E7
  8
0
 10
3211.7394509058931362
 20
217.8436838894697871
 30
0.0
 40
21.1973653102925113
 50
270.6630970276585799
 51
270.6781424758132175
  0
ARC
  5
88E8
  8
0
 10
3211.9325898927199887
 20
201.3689014203353054
 30
0.0
 40
4.7214512385621283
 50
270.7007446829186961
 51
271.0557822146511739
  0
ARC
  5
88E9
  8
0
 10
3211.9633132027729516
 20
199.9658396155404034
 30
0.0
 40
3.3180650964125822
 50
270.9717653640875028
 51
272.5865744663174723
  0
LINE
  5
88EA
  8
0
 10
3212.1130528157600565
 20
196.6522603922458075
 30
0.0
 11
3212.1130528157600565
 21
196.6205258531850859
 31
0.0
  0
LINE
  5
88EB
  8
0
 10
3212.2266791312599707
 20
196.6234594349816973
 30
0.0
 11
3212.2266791312599707
 21
196.647095955070597
 31
0.0
  0
ARC
  5
88EC
  8
0
 10
3212.2231773551970946
 20
196.6446309999556945
 30
0.0
 40
0.0032509870134602
 50
274.8837027495579264
 51
324.9869826364458163
  0
ARC
  5
88ED
  8
0
 10
3212.2221151068401923
 20
196.6454033318881898
 30
0.0
 40
0.0045641849485828
 50
324.6972714001237819
 51
0.4805437582196089
  0
ARC
  5
88EE
  8
0
 10
3212.0405035506341846
 20
194.4378684737826859
 30
0.0
 40
2.208003860172143
 50
85.9605786512458963
 51
88.0621839014112027
  0
LINE
  5
88EF
  8
0
 10
3212.2234541231600815
 20
196.6413918154817111
 30
0.0
 11
3212.1960415547609955
 21
196.6403872536816948
 31
0.0
  0
ARC
  5
88F0
  8
0
 10
3212.1186089540378816
 20
196.6482589589475083
 30
0.0
 40
0.0055573539565021
 50
178.8015468846845124
 51
205.910853208399601
  0
ARC
  5
88F1
  8
0
 10
3212.1152713736260012
 20
196.6461587863325065
 30
0.0
 40
0.0015527006438614
 50
223.6362989138278863
 51
266.1386728061079907
  0
ARC
  5
88F2
  8
0
 10
3212.1162391163279608
 20
196.6471653591914048
 30
0.0
 40
0.0029483280809593
 50
206.9192509274450913
 51
224.8154728683344104
  0
ARC
  5
88F3
  8
0
 10
3212.1305492240699095
 20
196.6500842624913048
 30
0.0
 40
0.0062147496606137
 50
337.2541343193627768
 51
0.5823179998053308
  0
ARC
  5
88F4
  8
0
 10
3212.1342143571541783
 20
196.6479572364110027
 30
0.0
 40
0.0019322648453496
 50
278.6653421151909242
 51
325.5655218748028119
  0
ARC
  5
88F5
  8
0
 10
3212.1326910671068617
 20
196.6492133347655908
 30
0.0
 40
0.0039028204940605
 50
323.0009662681172244
 51
336.8880420040031254
  0
LINE
  5
88F6
  8
0
 10
3212.1367636527597824
 20
196.6501474241817107
 30
0.0
 11
3212.1367636527597824
 21
196.6515241301721062
 31
0.0
  0
LINE
  5
88F7
  8
0
 10
3212.1345054777621044
 20
196.6460470279818935
 30
0.0
 11
3212.1151668118600355
 21
196.6446096103817069
 31
0.0
  0
ARC
  5
88F8
  8
0
 10
3212.115618083867048
 20
196.6184598394723082
 30
0.0
 40
0.0020574300152497
 50
200.4994797062626049
 51
261.4159264563352849
  0
ARC
  5
88F9
  8
0
 10
3212.1191698527900371
 20
196.6204603490496936
 30
0.0
 40
0.0061173877439527
 50
179.3864730529813869
 51
206.4105977735219994
  0
LINE
  5
88FA
  8
0
 10
3212.1316545779341141
 20
196.6152038801922117
 30
0.0
 11
3212.1153109908459555
 21
196.6164254569752075
 31
0.0
  0
ARC
  5
88FB
  8
0
 10
3212.2220774137631452
 20
196.6234526762486894
 30
0.0
 40
0.0046017224602842
 50
336.9578104273666099
 51
0.0841526232184353
  0
ARC
  5
88FC
  8
0
 10
3212.2233942927991848
 20
196.6227491865435013
 30
0.0
 40
0.0031173488037423
 50
276.331815249022327
 51
339.3832704557697184
  0
ARC
  5
88FD
  8
0
 10
3212.3440325083029165
 20
194.8192305700544864
 30
0.0
 40
1.8044345222282101
 50
93.8225149066759059
 51
94.792918316241412
  0
ARC
  5
88FE
  8
0
 10
3212.1966269828808436
 20
196.6244257640011881
 30
0.0
 40
0.0038203178933328
 50
175.8780858269581984
 51
261.1852241549960922
  0
LINE
  5
88FF
  8
0
 10
3212.1960415548219316
 20
196.6206505682795012
 30
0.0
 11
3212.2237380934197972
 21
196.6196508539763101
 31
0.0
  0
LINE
  5
8900
  8
0
 10
3212.1928165467597864
 20
196.6247003643817095
 30
0.0
 11
3212.1928165467597864
 21
196.6406126254595108
 31
0.0
  0
ARC
  5
8901
  8
0
 10
3212.2879353286061814
 20
196.6344416149665904
 30
0.0
 40
0.0049597944548334
 50
331.1271275524712792
 51
0.0000000000211698
  0
ARC
  5
8902
  8
0
 10
3212.283002900415795
 20
196.6386752158445859
 30
0.0
 40
0.0114006895093303
 50
277.8823702113547256
 51
324.4499082183556879
  0
ARC
  5
8903
  8
0
 10
3212.2833837981138458
 20
196.6377588418974938
 30
0.0
 40
0.0039488478909743
 50
271.039014367977984
 51
0.2784873642274231
  0
LINE
  5
8904
  8
0
 10
3212.2928951230610437
 20
196.6344416149665904
 30
0.0
 11
3212.292886398074188
 21
196.6401331107817896
 31
0.0
  0
LINE
  5
8905
  8
0
 10
3212.2873325993600702
 20
196.6377780352817126
 30
0.0
 11
3212.2873325993600702
 21
196.6410695160764135
 31
0.0
  0
ARC
  5
8906
  8
0
 10
3212.2803346441460235
 20
196.5717431728496933
 30
0.0
 40
0.0695322237313927
 50
72.4349458954863508
 51
79.6001203614487451
  0
ARC
  5
8907
  8
0
 10
3212.2906922318188663
 20
196.6611235617056934
 30
0.0
 40
0.0310194120987314
 50
280.7699118904129136
 51
295.4165486483717018
  0
ARC
  5
8908
  8
0
 10
3212.2965826734389339
 20
196.6230302464958015
 30
0.0
 40
0.015732951658044
 50
60.2677597873491493
 51
72.4808917094139957
  0
ARC
  5
8909
  8
0
 10
3212.302814152188148
 20
196.6338055905657995
 30
0.0
 40
0.0032863537569755
 50
30.3444698834869797
 51
61.4379919193868602
  0
ARC
  5
890A
  8
0
 10
3212.3045999124851733
 20
196.6349965475419026
 30
0.0
 40
0.0011504483675679
 50
318.5611210306273051
 51
24.0747917860002296
  0
ARC
  5
890B
  8
0
 10
3212.3021620558602081
 20
196.6369902689662865
 30
0.0
 40
0.0042991452668161
 50
295.3930640949492954
 51
320.1446866314014983
  0
ARC
  5
890C
  8
0
 10
3212.2682833224921524
 20
196.7544054750165117
 30
0.0
 40
0.1269284304993182
 50
279.5834287141670984
 51
282.8391476309582799
  0
LINE
  5
890D
  8
0
 10
3212.2504992385911464
 20
196.6275313061813961
 30
0.0
 11
3212.2834554034598114
 21
196.627227178681693
 31
0.0
  0
LINE
  5
890E
  8
0
 10
3212.2834554034598114
 20
196.627227178681693
 30
0.0
 11
3212.2845663882599183
 21
196.6273822433817031
 31
0.0
  0
ARC
  5
890F
  8
0
 10
3212.2505708438989132
 20
196.6314795047946973
 30
0.0
 40
0.0039488478841945
 50
179.7215125953835013
 51
268.9609859012155084
  0
LINE
  5
8910
  8
0
 10
3212.2466220426599648
 20
196.6314986981817015
 30
0.0
 11
3212.2466220426599648
 21
196.6455929082540877
 31
0.0
  0
LINE
  5
8911
  8
0
 10
3212.2834554034598114
 20
196.6338106432816915
 30
0.0
 11
3212.2504992386948288
 21
196.6335065157830115
 31
0.0
  0
ARC
  5
8912
  8
0
 10
3212.2505020233620598
 20
196.6373783457254945
 30
0.0
 40
0.0038800549456496
 50
179.6455551740552892
 51
253.3185781801074938
  0
LINE
  5
8913
  8
0
 10
3212.2504992385602236
 20
196.6335065157817041
 30
0.0
 11
3212.2493882538601611
 21
196.6336615804816859
 31
0.0
  0
ARC
  5
8914
  8
0
 10
3211.852715866024937
 20
196.6175507458796972
 30
0.0
 40
0.0176367597440412
 50
350.5420558286534742
 51
0.5170151848740416
  0
LINE
  5
8915
  8
0
 10
3211.8696682534869069
 20
196.6135753619599029
 30
0.0
 11
3211.863857192580781
 21
196.611850569617701
 31
0.0
  0
LINE
  5
8916
  8
0
 10
3211.8638571924329881
 20
196.6118505696190084
 30
0.0
 11
3211.8638222203599071
 21
196.6118453369817018
 31
0.0
  0
ARC
  5
8917
  8
0
 10
3211.8680810284449763
 20
196.6148608604108858
 30
0.0
 40
0.0020424959677027
 50
320.9958824797864736
 51
354.148015792539411
  0
LINE
  5
8918
  8
0
 10
3211.8703519077598685
 20
196.6177098910893051
 30
0.0
 11
3211.8703519077598685
 21
196.6474557836374117
 31
0.0
  0
ARC
  5
8919
  8
0
 10
3212.0007909208088677
 20
196.6175507458796972
 30
0.0
 40
0.0176367597440412
 50
179.4829848151258886
 51
189.4579441713464973
  0
LINE
  5
891A
  8
0
 10
3211.9838385333459883
 20
196.6135753619599029
 30
0.0
 11
3211.9896495942512047
 21
196.611850569617701
 31
0.0
  0
ARC
  5
891B
  8
0
 10
3211.9854257583870094
 20
196.6148608604108858
 30
0.0
 40
0.0020424959677027
 50
185.851984207460589
 51
219.0041175202136117
  0
LINE
  5
891C
  8
0
 10
3211.9831548790721172
 20
196.6177098910893051
 30
0.0
 11
3211.9831548790721172
 21
196.6474557836374117
 31
0.0
  0
ENDSEC
  0
EOF
