  0
SECTION
  2
HEADER
  9
$ACADVER
  1
AC1009
  9
$INSBASE
 10
5386.8466007307806649
 20
-26.1713570625354102
 30
0.0
  9
$EXTMIN
 10
5380.1924020400483641
 20
-33.0774298726222185
 30
-0.0015258207003583
  9
$EXTMAX
 10
5393.3593752090218914
 20
-25.0459997159380094
 30
0.0000000349246037
  9
$LIMMIN
 10
0.0
 20
0.0
  9
$LIMMAX
 10
11.6929133858000007
 20
8.2677165353999982
  9
$ORTHOMODE
 70
     0
  9
$REGENMODE
 70
     1
  9
$FILLMODE
 70
     1
  9
$QTEXTMODE
 70
     0
  9
$MIRRTEXT
 70
     0
  9
$DRAGMODE
 70
     2
  9
$LTSCALE
 40
0.6431102362
  9
$OSMODE
 70
  4095
  9
$ATTMODE
 70
     1
  9
$TEXTSIZE
 40
0.2
  9
$TRACEWID
 40
0.05
  9
$TEXTSTYLE
  7
STANDARD
  9
$CLAYER
  8
0
  9
$CELTYPE
  6
BYLAYER
  9
$CECOLOR
 62
   256
  9
$DIMSCALE
 40
1.0
  9
$DIMASZ
 40
0.1875
  9
$DIMEXO
 40
0.0625
  9
$DIMDLI
 40
0.4443307087
  9
$DIMRND
 40
0.0
  9
$DIMDLE
 40
0.0
  9
$DIMEXE
 40
0.125
  9
$DIMTP
 40
0.01
  9
$DIMTM
 40
0.01
  9
$DIMTXT
 40
2.0
  9
$DIMCEN
 40
0.1052362205
  9
$DIMTSZ
 40
0.0
  9
$DIMTOL
 70
     1
  9
$DIMLIM
 70
     0
  9
$DIMTIH
 70
     1
  9
$DIMTOH
 70
     1
  9
$DIMSE1
 70
     0
  9
$DIMSE2
 70
     0
  9
$DIMTAD
 70
     0
  9
$DIMZIN
 70
     0
  9
$DIMBLK
  1

  9
$DIMASO
 70
     1
  9
$DIMSHO
 70
     1
  9
$DIMPOST
  1
\X
  9
$DIMAPOST
  1

  9
$DIMALT
 70
     1
  9
$DIMALTD
 70
     2
  9
$DIMALTF
 40
25.3999999999999986
  9
$DIMLFAC
 40
1.0
  9
$DIMTOFL
 70
     0
  9
$DIMTVP
 40
0.0
  9
$DIMTIX
 70
     0
  9
$DIMSOXD
 70
     0
  9
$DIMSAH
 70
     0
  9
$DIMBLK1
  1

  9
$DIMBLK2
  1

  9
$DIMSTYLE
  2
STANDARD
  9
$DIMCLRD
 70
     0
  9
$DIMCLRE
 70
     0
  9
$DIMCLRT
 70
     0
  9
$DIMTFAC
 40
1.0
  9
$DIMGAP
 40
0.09
  9
$LUNITS
 70
     2
  9
$LUPREC
 70
     4
  9
$SKETCHINC
 40
0.1
  9
$FILLETRAD
 40
0.0
  9
$AUNITS
 70
     0
  9
$AUPREC
 70
     0
  9
$MENU
  1
.
  9
$ELEVATION
 40
0.0
  9
$PELEVATION
 40
0.0
  9
$THICKNESS
 40
0.0
  9
$LIMCHECK
 70
     0
  9
$BLIPMODE
 70
     0
  9
$CHAMFERA
 40
0.0
  9
$CHAMFERB
 40
0.0
  9
$SKPOLY
 70
     0
  9
$TDCREATE
 40
2458060.468368056230247
  9
$TDUPDATE
 40
2460098.427372686099261
  9
$TDINDWG
 40
0.5967547454
  9
$TDUSRTIMER
 40
0.5967547454
  9
$USRTIMER
 70
     1
  9
$ANGBASE
 50
0.0
  9
$ANGDIR
 70
     0
  9
$PDMODE
 70
     0
  9
$PDSIZE
 40
0.3125
  9
$PLINEWID
 40
0.0
  9
$COORDS
 70
     1
  9
$SPLFRAME
 70
     0
  9
$SPLINETYPE
 70
     6
  9
$SPLINESEGS
 70
     8
  9
$ATTDIA
 70
     1
  9
$ATTREQ
 70
     1
  9
$HANDLING
 70
     1
  9
$HANDSEED
  5
22C8C
  9
$SURFTAB1
 70
     6
  9
$SURFTAB2
 70
     6
  9
$SURFTYPE
 70
     6
  9
$SURFU
 70
     6
  9
$SURFV
 70
     6
  9
$UCSNAME
  2

  9
$UCSORG
 10
0.0
 20
0.0
 30
0.0
  9
$UCSXDIR
 10
1.0
 20
0.0
 30
0.0
  9
$UCSYDIR
 10
0.0
 20
1.0
 30
0.0
  9
$PUCSNAME
  2

  9
$PUCSORG
 10
0.0
 20
0.0
 30
0.0
  9
$PUCSXDIR
 10
1.0
 20
0.0
 30
0.0
  9
$PUCSYDIR
 10
0.0
 20
1.0
 30
0.0
  9
$USERI1
 70
     0
  9
$USERI2
 70
     0
  9
$USERI3
 70
     0
  9
$USERI4
 70
     0
  9
$USERI5
 70
     0
  9
$USERR1
 40
0.0
  9
$USERR2
 40
0.0
  9
$USERR3
 40
0.0
  9
$USERR4
 40
0.0
  9
$USERR5
 40
0.0
  9
$WORLDVIEW
 70
     1
  9
$SHADEDGE
 70
     3
  9
$SHADEDIF
 70
    70
  9
$TILEMODE
 70
     1
  9
$MAXACTVP
 70
    64
  9
$PLIMCHECK
 70
     0
  9
$PEXTMIN
 10
1.0000000000000000E+20
 20
1.0000000000000000E+20
 30
1.0000000000000000E+20
  9
$PEXTMAX
 10
-1.0000000000000000E+20
 20
-1.0000000000000000E+20
 30
-1.0000000000000000E+20
  9
$PLIMMIN
 10
0.0
 20
0.0
  9
$PLIMMAX
 10
12.0
 20
9.0
  9
$UNITMODE
 70
     0
  9
$VISRETAIN
 70
     1
  9
$PLINEGEN
 70
     0
  9
$PSLTSCALE
 70
     1
  0
ENDSEC
  0
SECTION
  2
TABLES
  0
TABLE
  2
VPORT
 70
     1
  0
VPORT
  2
*ACTIVE
 70
     0
 10
0.0
 20
0.0
 11
1.0
 21
1.0
 12
1594.4179784682849004
 22
-149.242371227385604
 13
0.0
 23
0.0
 14
1.0
 24
1.0
 15
0.0
 25
0.0
 16
0.0
 26
0.0
 36
5.1040778033513332
 17
3792.35791015625
 27
120.1806564331053977
 37
0.0
 40
8.0993971255701052
 41
2.6793785310734459
 42
50.0
 43
0.0
 44
0.0
 50
0.0
 51
0.0
 71
     0
 72
   100
 73
     1
 74
     1
 75
     0
 76
     0
 77
     0
 78
     0
  0
ENDTAB
  0
TABLE
  2
LTYPE
 70
     2
  0
LTYPE
  2
CONTINUOUS
 70
     0
  3
Solid line
 72
    65
 73
     0
 40
0.0
  0
LTYPE
  2
PHANTOM2
 70
     0
  3
___ _ _ ___ _ _ ___ _ _ ___ _ _
 72
    65
 73
     6
 40
1.25
 49
0.625
 49
-0.125
 49
0.125
 49
-0.125
 49
0.125
 49
-0.125
  0
ENDTAB
  0
TABLE
  2
LAYER
 70
     2
  0
LAYER
  2
0
 70
     0
 62
   255
  6
CONTINUOUS
  0
LAYER
  2
DEFPOINTS
 70
     0
 62
     7
  6
CONTINUOUS
  0
ENDTAB
  0
TABLE
  2
STYLE
 70
     1
  0
STYLE
  2
STANDARD
 70
     0
 40
0.0
 41
0.8
 50
0.0
 71
     0
 42
0.2
  3
txt
  4

  0
ENDTAB
  0
TABLE
  2
VIEW
 70
     0
  0
ENDTAB
  0
TABLE
  2
UCS
 70
     0
  0
ENDTAB
  0
TABLE
  2
APPID
 70
     9
  0
APPID
  2
ACAD
 70
     0
  0
APPID
  2
ACAD_MLEADERVER
 70
     0
  0
APPID
  2
ACAD_EXEMPT_FROM_CAD_STANDARDS
 70
     0
  0
APPID
  2
ACAD_NAV_VCDISPLAY
 70
     0
  0
APPID
  2
ACAECLAYERSTANDARD
 70
     0
  0
APPID
  2
ACCMTRANSPARENCY
 70
     0
  0
APPID
  2
ACAD_DSTYLE_DIMJAG
 70
     0
  0
APPID
  2
ACAD_DSTYLE_DIMTALN
 70
     0
  0
APPID
  2
ACDBATTR
 70
     0
  0
ENDTAB
  0
TABLE
  2
DIMSTYLE
 70
     1
  0
DIMSTYLE
  2
STANDARD
 70
     0
  3

  4

  5

  6

  7

 40
1.0
 41
0.1875
 42
0.0625
 43
0.38
 44
0.125
 45
0.0
 46
0.0
 47
0.01
 48
0.01
140
0.15625
141
0.09
142
0.0
143
25.3999999999999986
144
1.0
145
0.0
146
1.0
147
0.09
 71
     1
 72
     0
 73
     1
 74
     1
 75
     0
 76
     0
 77
     0
 78
     4
170
     0
171
     2
172
     0
173
     0
174
     0
175
     0
176
     0
177
     0
178
     0
  0
ENDTAB
  0
ENDSEC
  0
SECTION
  2
BLOCKS
  0
BLOCK
  8
0
  2
$MODEL_SPACE
 70
     0
 10
0.0
 20
0.0
 30
0.0
  3
$MODEL_SPACE
  1

  0
ENDBLK
  5
21
  8
0
  0
BLOCK
 67
     1
  8
0
  2
$PAPER_SPACE
 70
     0
 10
0.0
 20
0.0
 30
0.0
  3
$PAPER_SPACE
  1

  0
ENDBLK
  5
1D
 67
     1
  8
0
  0
BLOCK
  8
0
  2
_FILLED
 70
     0
 10
0.0
 20
0.0
 30
0.0
  3
_FILLED
  1

  0
SOLID
  5
1CA7B
  8
0
  6
BYBLOCK
 62
     0
 10
0.0
 20
0.0
 30
0.0
 11
-1.0
 21
0.1666666667
 31
0.0
 12
-1.0
 22
-0.1666666667
 32
0.0
 13
-1.0
 23
-0.1666666667
 33
0.0
  0
ENDBLK
  5
1CA7C
  8
0
  6
BYBLOCK
 62
     0
  0
ENDSEC
  0
SECTION
  2
ENTITIES
  0
ATTDEF
  5
3930
  8
DEFPOINTS
 10
5386.83716931717845
 20
-26.1671125724506695
 30
0.0
 40
0.001
  1
P24490-LV
  3

  2
MODELNUMBER
 70
     0
1001
ACDBATTR
1070
     0
1070
     1
  0
ATTDEF
  5
3931
  8
DEFPOINTS
 10
5386.83716931717845
 20
-26.1687792391173311
 30
0.0
 40
0.001
  1
ONE
  3

  2
TRADENAME
 70
     0
1001
ACDBATTR
1070
     0
1070
     1
  0
ATTDEF
  5
3932
  8
DEFPOINTS
 10
5386.83716931717845
 20
-26.1704459057839891
 30
0.0
 40
0.001
  1
BATHROOM SINK FAUCET
  3

  2
PRODUCT
 70
     0
1001
ACDBATTR
1070
     0
1070
     1
  0
LINE
  5
2296F
  8
0
 10
5380.5966007307815744
 20
-26.2552109762354107
 30
0.0
 11
5380.5966007307815744
 21
-26.0875031488354097
 31
0.0
  0
LINE
  5
22970
  8
0
 10
5386.4406007307816253
 20
-32.6713570625354066
 30
0.0
 11
5386.4406007307816253
 21
-26.1713570625354102
 31
0.0
  0
ARC
  5
22971
  8
0
 10
5386.8466007307806649
 20
-26.1713570625354102
 30
0.0
 40
1.125
 50
291.1547957660138195
 51
248.8452042339862089
  0
ARC
  5
22972
  8
0
 10
5382.8466007307815744
 20
-26.1713570625354102
 30
0.0
 40
1.125
 50
185.8084763442913072
 51
174.1915236557086075
  0
LINE
  5
22973
  8
0
 10
5382.5719991074938662
 20
-26.0575031488354085
 30
0.0
 11
5380.6266007307822292
 21
-26.0575031488354085
 31
0.0
  0
ARC
  5
22974
  8
0
 10
5382.8466007307815744
 20
-26.1713570625354102
 30
0.0
 40
0.28
 50
207.6484260104546991
 51
152.3515739895453009
  0
ARC
  5
22975
  8
0
 10
5382.5719991074938662
 20
-26.0275031488355211
 30
0.0
 40
0.03
 50
269.9999999999478746
 51
332.3515739897126764
  0
LINE
  5
22976
  8
0
 10
5382.5719991074938662
 20
-26.2852109762354083
 30
0.0
 11
5380.6266007307822292
 21
-26.2852109762354083
 31
0.0
  0
ARC
  5
22977
  8
0
 10
5382.5719991074938662
 20
-26.3152109762352993
 30
0.0
 40
0.03
 50
27.6484260102876895
 51
90.0000000000521254
  0
ARC
  5
22978
  8
0
 10
5380.6266007307822292
 20
-26.0875031488354203
 30
0.0
 40
0.03
 50
90.0
 51
179.9999999999930083
  0
ARC
  5
22979
  8
0
 10
5380.6266007307822292
 20
-26.2552109762354107
 30
0.0
 40
0.03
 50
180.0
 51
270.0
  0
ARC
  5
2297A
  8
0
 10
5386.8466007307806649
 20
-26.1713570625354102
 30
0.0
 40
0.4059999999999997
 50
0.0
 51
180.0
  0
ARC
  5
2297B
  8
0
 10
5386.8466007307806649
 20
-32.6713570625354066
 30
0.0
 40
0.4060000000000006
 50
180.0
 51
0.0
  0
LINE
  5
2297C
  8
0
 10
5387.2526007307824329
 20
-32.6713570625354066
 30
0.0
 11
5387.2526007307824329
 21
-26.1713570625354102
 31
0.0
  0
LINE
  5
2297D
  8
0
 10
5393.0966007307815744
 20
-26.2552109762354107
 30
0.0
 11
5393.0966007307815744
 21
-26.0875031488354097
 31
0.0
  0
ARC
  5
2297E
  8
0
 10
5390.8466007307815744
 20
-26.1713570625354102
 30
0.0
 40
1.125
 50
5.8084763442913463
 51
354.1915236557085791
  0
LINE
  5
2297F
  8
0
 10
5391.1212023540711016
 20
-26.0575031488354085
 30
0.0
 11
5393.066600730781829
 21
-26.0575031488354085
 31
0.0
  0
ARC
  5
22980
  8
0
 10
5390.8466007307815744
 20
-26.1713570625354102
 30
0.0
 40
0.28
 50
27.6484260104546991
 51
332.3515739895452725
  0
ARC
  5
22981
  8
0
 10
5391.1212023540711016
 20
-26.0275031488355211
 30
0.0
 40
0.03
 50
207.648426010287011
 51
270.0000000000521254
  0
LINE
  5
22982
  8
0
 10
5391.1212023540711016
 20
-26.2852109762354083
 30
0.0
 11
5393.066600730781829
 21
-26.2852109762354083
 31
0.0
  0
ARC
  5
22983
  8
0
 10
5391.1212023540711016
 20
-26.3152109762352993
 30
0.0
 40
0.03
 50
89.9999999999478888
 51
152.3515739897123069
  0
ARC
  5
22984
  8
0
 10
5393.066600730781829
 20
-26.0875031488354203
 30
0.0
 40
0.03
 50
0.0000000000069209
 51
90.0
  0
ARC
  5
22985
  8
0
 10
5393.066600730781829
 20
-26.2552109762354107
 30
0.0
 40
0.03
 50
270.0
 51
0.0
  0
ENDSEC
  0
EOF
