  0
SECTION
  2
HEADER
  9
$ACADVER
  1
AC1009
  9
$INSBASE
 10
3193.7768230160559142
 20
193.9604180887689893
 30
0.0
  9
$EXTMIN
 10
3190.5068230160559324
 20
191.2199909531190087
 30
0.0
  9
$EXTMAX
 10
3193.7883667292949212
 20
195.8349909531189894
 30
0.0
  9
$LIMMIN
 10
0.0
 20
0.0
  9
$LIMMAX
 10
11.6929133858000007
 20
8.2677165353999982
  9
$ORTHOMODE
 70
     0
  9
$REGENMODE
 70
     1
  9
$FILLMODE
 70
     1
  9
$QTEXTMODE
 70
     0
  9
$MIRRTEXT
 70
     0
  9
$DRAGMODE
 70
     2
  9
$LTSCALE
 40
0.6431102362
  9
$OSMODE
 70
  4095
  9
$ATTMODE
 70
     1
  9
$TEXTSIZE
 40
0.2
  9
$TRACEWID
 40
0.05
  9
$TEXTSTYLE
  7
STANDARD
  9
$CLAYER
  8
0
  9
$CELTYPE
  6
BYLAYER
  9
$CECOLOR
 62
   256
  9
$DIMSCALE
 40
1.0
  9
$DIMASZ
 40
0.1875
  9
$DIMEXO
 40
0.0625
  9
$DIMDLI
 40
0.4443307087
  9
$DIMRND
 40
0.0
  9
$DIMDLE
 40
0.0
  9
$DIMEXE
 40
0.125
  9
$DIMTP
 40
0.01
  9
$DIMTM
 40
0.01
  9
$DIMTXT
 40
2.0
  9
$DIMCEN
 40
0.1052362205
  9
$DIMTSZ
 40
0.0
  9
$DIMTOL
 70
     1
  9
$DIMLIM
 70
     0
  9
$DIMTIH
 70
     1
  9
$DIMTOH
 70
     1
  9
$DIMSE1
 70
     0
  9
$DIMSE2
 70
     0
  9
$DIMTAD
 70
     0
  9
$DIMZIN
 70
     0
  9
$DIMBLK
  1

  9
$DIMASO
 70
     1
  9
$DIMSHO
 70
     1
  9
$DIMPOST
  1
\X
  9
$DIMAPOST
  1

  9
$DIMALT
 70
     1
  9
$DIMALTD
 70
     2
  9
$DIMALTF
 40
25.3999999999999986
  9
$DIMLFAC
 40
1.0
  9
$DIMTOFL
 70
     0
  9
$DIMTVP
 40
0.0
  9
$DIMTIX
 70
     0
  9
$DIMSOXD
 70
     0
  9
$DIMSAH
 70
     0
  9
$DIMBLK1
  1

  9
$DIMBLK2
  1

  9
$DIMSTYLE
  2
STANDARD
  9
$DIMCLRD
 70
     0
  9
$DIMCLRE
 70
     0
  9
$DIMCLRT
 70
     0
  9
$DIMTFAC
 40
1.0
  9
$DIMGAP
 40
0.09
  9
$LUNITS
 70
     2
  9
$LUPREC
 70
     4
  9
$SKETCHINC
 40
0.1
  9
$FILLETRAD
 40
0.0
  9
$AUNITS
 70
     0
  9
$AUPREC
 70
     0
  9
$MENU
  1
.
  9
$ELEVATION
 40
0.0
  9
$PELEVATION
 40
0.0
  9
$THICKNESS
 40
0.0
  9
$LIMCHECK
 70
     0
  9
$BLIPMODE
 70
     0
  9
$CHAMFERA
 40
0.0
  9
$CHAMFERB
 40
0.0
  9
$SKPOLY
 70
     0
  9
$TDCREATE
 40
2458060.468368056230247
  9
$TDUPDATE
 40
2460126.459814814850688
  9
$TDINDWG
 40
0.3964075231
  9
$TDUSRTIMER
 40
0.3964075231
  9
$USRTIMER
 70
     1
  9
$ANGBASE
 50
0.0
  9
$ANGDIR
 70
     0
  9
$PDMODE
 70
     0
  9
$PDSIZE
 40
0.3125
  9
$PLINEWID
 40
0.0
  9
$COORDS
 70
     1
  9
$SPLFRAME
 70
     0
  9
$SPLINETYPE
 70
     6
  9
$SPLINESEGS
 70
     8
  9
$ATTDIA
 70
     1
  9
$ATTREQ
 70
     1
  9
$HANDLING
 70
     1
  9
$HANDSEED
  5
84B6
  9
$SURFTAB1
 70
     6
  9
$SURFTAB2
 70
     6
  9
$SURFTYPE
 70
     6
  9
$SURFU
 70
     6
  9
$SURFV
 70
     6
  9
$UCSNAME
  2

  9
$UCSORG
 10
0.0
 20
0.0
 30
0.0
  9
$UCSXDIR
 10
1.0
 20
0.0
 30
0.0
  9
$UCSYDIR
 10
0.0
 20
1.0
 30
0.0
  9
$PUCSNAME
  2

  9
$PUCSORG
 10
0.0
 20
0.0
 30
0.0
  9
$PUCSXDIR
 10
1.0
 20
0.0
 30
0.0
  9
$PUCSYDIR
 10
0.0
 20
1.0
 30
0.0
  9
$USERI1
 70
     0
  9
$USERI2
 70
     0
  9
$USERI3
 70
     0
  9
$USERI4
 70
     0
  9
$USERI5
 70
     0
  9
$USERR1
 40
0.0
  9
$USERR2
 40
0.0
  9
$USERR3
 40
0.0
  9
$USERR4
 40
0.0
  9
$USERR5
 40
0.0
  9
$WORLDVIEW
 70
     1
  9
$SHADEDGE
 70
     3
  9
$SHADEDIF
 70
    70
  9
$TILEMODE
 70
     1
  9
$MAXACTVP
 70
    64
  9
$PLIMCHECK
 70
     0
  9
$PEXTMIN
 10
1.0000000000000000E+20
 20
1.0000000000000000E+20
 30
1.0000000000000000E+20
  9
$PEXTMAX
 10
-1.0000000000000000E+20
 20
-1.0000000000000000E+20
 30
-1.0000000000000000E+20
  9
$PLIMMIN
 10
0.0
 20
0.0
  9
$PLIMMAX
 10
12.0
 20
9.0
  9
$UNITMODE
 70
     0
  9
$VISRETAIN
 70
     1
  9
$PLINEGEN
 70
     0
  9
$PSLTSCALE
 70
     1
  0
ENDSEC
  0
SECTION
  2
TABLES
  0
TABLE
  2
VPORT
 70
     1
  0
VPORT
  2
*ACTIVE
 70
     0
 10
0.0
 20
0.0
 11
1.0
 21
1.0
 12
102.3363155758005973
 22
-3.6340796362676988
 13
0.0
 23
0.0
 14
1.0
 24
1.0
 15
0.0
 25
0.0
 16
0.0
 26
0.0
 36
95.5902297660485658
 17
3089.811279296875
 27
197.161570589386713
 37
0.0
 40
4.6504545454545543
 41
1.4307692307692299
 42
50.0
 43
0.0
 44
0.0
 50
0.0
 51
0.0
 71
     0
 72
   100
 73
     1
 74
     1
 75
     0
 76
     0
 77
     0
 78
     0
  0
ENDTAB
  0
TABLE
  2
LTYPE
 70
     3
  0
LTYPE
  2
CONTINUOUS
 70
     0
  3
Solid line
 72
    65
 73
     0
 40
0.0
  0
LTYPE
  2
PHANTOM2
 70
     0
  3
___ _ _ ___ _ _ ___ _ _ ___ _ _
 72
    65
 73
     6
 40
1.25
 49
0.625
 49
-0.125
 49
0.125
 49
-0.125
 49
0.125
 49
-0.125
  0
ENDTAB
  0
TABLE
  2
LAYER
 70
     2
  0
LAYER
  2
0
 70
     0
 62
   255
  6
CONTINUOUS
  0
LAYER
  2
DEFPOINTS
 70
     0
 62
     7
  6
CONTINUOUS
  0
ENDTAB
  0
TABLE
  2
STYLE
 70
     1
  0
STYLE
  2
STANDARD
 70
     0
 40
0.0
 41
0.8
 50
0.0
 71
     0
 42
0.2
  3
txt
  4

  0
ENDTAB
  0
TABLE
  2
VIEW
 70
     0
  0
ENDTAB
  0
TABLE
  2
UCS
 70
     0
  0
ENDTAB
  0
TABLE
  2
APPID
 70
     9
  0
APPID
  2
ACAD
 70
     0
  0
APPID
  2
ACAD_MLEADERVER
 70
     0
  0
APPID
  2
ACAD_EXEMPT_FROM_CAD_STANDARDS
 70
     0
  0
APPID
  2
ACAD_NAV_VCDISPLAY
 70
     0
  0
APPID
  2
ACAECLAYERSTANDARD
 70
     0
  0
APPID
  2
ACCMTRANSPARENCY
 70
     0
  0
APPID
  2
ACAD_DSTYLE_DIMJAG
 70
     0
  0
APPID
  2
ACAD_DSTYLE_DIMTALN
 70
     0
  0
APPID
  2
ACDBATTR
 70
     0
  0
ENDTAB
  0
TABLE
  2
DIMSTYLE
 70
     2
  0
DIMSTYLE
  2
STANDARD
 70
     0
  3

  4

  5

  6

  7

 40
1.0
 41
0.1875
 42
0.0625
 43
0.38
 44
0.125
 45
0.0
 46
0.0
 47
0.01
 48
0.01
140
0.15625
141
0.09
142
0.0
143
25.3999999999999986
144
1.0
145
0.0
146
1.0
147
0.09
 71
     1
 72
     0
 73
     1
 74
     1
 75
     0
 76
     0
 77
     0
 78
     4
170
     0
171
     2
172
     0
173
     0
174
     0
175
     0
176
     0
177
     0
178
     0
  0
ENDTAB
  0
ENDSEC
  0
SECTION
  2
BLOCKS
  0
BLOCK
  8
0
  2
$MODEL_SPACE
 70
     0
 10
0.0
 20
0.0
 30
0.0
  3
$MODEL_SPACE
  1

  0
ENDBLK
  5
21
  8
0
  0
BLOCK
 67
     1
  8
0
  2
$PAPER_SPACE
 70
     0
 10
0.0
 20
0.0
 30
0.0
  3
$PAPER_SPACE
  1

  0
ENDBLK
  5
1D
 67
     1
  8
0
  0
ENDSEC
  0
SECTION
  2
ENTITIES
  0
ATTDEF
  5
3930
  8
DEFPOINTS
 10
3193.777700062626991
 20
193.9609512654998866
 30
0.0
 40
0.001
  1
P24483-LV
  3

  2
MODELNUMBER
 70
     0
1001
ACDBATTR
1070
     0
1070
     1
  0
ATTDEF
  5
3931
  8
DEFPOINTS
 10
3193.777700062626991
 20
193.9592845988333067
 30
0.0
 40
0.001
  1
ONE
  3

  2
TRADENAME
 70
     0
1001
ACDBATTR
1070
     0
1070
     1
  0
ATTDEF
  5
3932
  8
DEFPOINTS
 10
3193.777700062626991
 20
193.9576179321666132
 30
0.0
 40
0.001
  1
VALVE TRIM
  3

  2
PRODUCT
 70
     0
1001
ACDBATTR
1070
     0
1070
     1
  0
LINE
  5
840B
  8
0
 10
3193.1456013476558837
 20
195.8248272083808956
 30
0.0
 11
3193.7768230160559142
 21
195.8349909531189894
 31
0.0
  0
LINE
  5
840C
  8
0
 10
3193.7768230160559142
 20
195.8349909531189894
 30
0.0
 11
3193.7768230160559142
 21
192.0858452244189891
 31
0.0
  0
LINE
  5
840D
  8
0
 10
3193.7768230160559142
 20
192.0858452244189891
 30
0.0
 11
3193.1456013476908993
 21
192.0968632388565993
 31
0.0
  0
LINE
  5
840E
  8
0
 10
3193.0768230160570056
 20
195.7548378697190117
 30
0.0
 11
3193.0768230160570056
 21
192.1668525775189948
 31
0.0
  0
ARC
  5
840F
  8
0
 10
3193.1468230160558051
 20
195.7548378697190117
 30
0.0
 40
0.0700000000000009
 50
91.0000000029203875
 51
179.9999999999984084
  0
ARC
  5
8410
  8
0
 10
3193.1468230160558051
 20
192.1668525775189948
 30
0.0
 40
0.0700000000000014
 50
180.0
 51
268.9999999999982947
  0
ARC
  5
8411
  8
0
 10
3191.8369613186341667
 20
194.8298360773802074
 30
0.0
 40
0.0301551928932579
 50
90.2627800073474589
 51
178.0822335233227136
  0
LINE
  5
8412
  8
0
 10
3193.0768230160570056
 20
194.8599909531189951
 30
0.0
 11
3191.8368230160558596
 21
194.8599909531189951
 31
0.0
  0
LINE
  5
8413
  8
0
 10
3191.8068230160561143
 20
194.8308452236190078
 30
0.0
 11
3191.8068230160561143
 21
193.0908452236189987
 31
0.0
  0
LINE
  5
8414
  8
0
 10
3191.8068230160561143
 20
194.3149909531190076
 30
0.0
 11
3191.5268230160559142
 21
194.3149909531190076
 31
0.0
  0
LINE
  5
8415
  8
0
 10
3191.4968230160561689
 20
194.2858452236189919
 30
0.0
 11
3191.4968230160561689
 21
193.6358452236189862
 31
0.0
  0
LINE
  5
8416
  8
0
 10
3191.476823016056187
 20
194.2858452236189919
 30
0.0
 11
3191.476823016056187
 21
191.2499909531190099
 31
0.0
  0
LINE
  5
8417
  8
0
 10
3191.4968230160561689
 20
194.2599909531190008
 30
0.0
 11
3191.476823016056187
 21
194.2599909531190008
 31
0.0
  0
LINE
  5
8418
  8
0
 10
3191.446823016055987
 20
194.3149909531190076
 30
0.0
 11
3190.5368230160561325
 21
194.3149909531190076
 31
0.0
  0
LINE
  5
8419
  8
0
 10
3190.5068230160559324
 20
194.2858452236189919
 30
0.0
 11
3190.5068230160559324
 21
191.2499909531190099
 31
0.0
  0
ARC
  5
841A
  8
0
 10
3191.5268320560148823
 20
194.2849691287275107
 30
0.0
 40
0.0300218257525846
 50
90.0172524985187152
 51
178.327761032159998
  0
ARC
  5
841B
  8
0
 10
3191.4468142860978332
 20
194.2849694478144897
 30
0.0
 40
0.0300215065737629
 50
1.6716475173249781
 51
89.9833389520021143
  0
ARC
  5
841C
  8
0
 10
3190.5368317460411163
 20
194.2849694477876028
 30
0.0
 40
0.030021506600748
 50
90.0166610980237039
 51
178.3283524326670033
  0
LINE
  5
841D
  8
0
 10
3191.8068230160561143
 20
193.6049909531189996
 30
0.0
 11
3191.5268230160559142
 21
193.6049909531189996
 31
0.0
  0
LINE
  5
841E
  8
0
 10
3191.4968230160561689
 20
193.6599909531190065
 30
0.0
 11
3191.476823016056187
 21
193.6599909531190065
 31
0.0
  0
LINE
  5
841F
  8
0
 10
3191.4468230101560948
 20
193.6279123614189928
 30
0.0
 11
3190.5373918755290106
 21
193.6409833444598121
 31
0.0
  0
ARC
  5
8420
  8
0
 10
3191.5301009417771638
 20
193.638189948236402
 30
0.0
 40
0.03336042676345
 50
184.0303344898443925
 51
264.3611381542608001
  0
ARC
  5
8421
  8
0
 10
3191.4477326665441979
 20
193.6570056156668898
 30
0.0
 40
0.0291074718496304
 50
268.2091210210876966
 51
357.973188050428007
  0
ARC
  5
8422
  8
0
 10
3190.5355025525809651
 20
193.6696499097311914
 30
0.0
 40
0.0287287574681628
 50
183.3912011252562024
 51
273.770730861646598
  0
ARC
  5
8423
  8
0
 10
3191.8368230160558596
 20
193.0908452236189987
 30
0.0
 40
0.0299999999999994
 50
180.0
 51
270.0
  0
LINE
  5
8424
  8
0
 10
3193.0768230160570056
 20
193.0608452236189976
 30
0.0
 11
3191.8368230160558596
 21
193.0608452236189976
 31
0.0
  0
ARC
  5
8425
  8
0
 10
3190.5368230160561325
 20
191.2499909531190099
 30
0.0
 40
0.0300000000000001
 50
180.0
 51
270.0
  0
ARC
  5
8426
  8
0
 10
3191.446823016055987
 20
191.2499909531190099
 30
0.0
 40
0.0300000000000001
 50
270.0
 51
0.0
  0
LINE
  5
8427
  8
0
 10
3191.446823016055987
 20
191.2199909531190087
 30
0.0
 11
3190.5368230160561325
 21
191.2199909531190087
 31
0.0
  0
ENDSEC
  0
EOF
