  0
SECTION
  2
HEADER
  9
$ACADVER
  1
AC1009
  9
$INSBASE
 10
3194.2285304591368913
 20
193.2278896020945922
 30
0.0
  9
$EXTMIN
 10
3192.3535304591368913
 20
189.9578888231866927
 30
0.0
  9
$EXTMAX
 10
3196.1035304591368913
 20
193.2331889883427039
 30
0.0
  9
$LIMMIN
 10
0.0
 20
0.0
  9
$LIMMAX
 10
11.6929133858000007
 20
8.2677165353999982
  9
$ORTHOMODE
 70
     0
  9
$REGENMODE
 70
     1
  9
$FILLMODE
 70
     1
  9
$QTEXTMODE
 70
     0
  9
$MIRRTEXT
 70
     0
  9
$DRAGMODE
 70
     2
  9
$LTSCALE
 40
0.6431102362
  9
$OSMODE
 70
  4095
  9
$ATTMODE
 70
     1
  9
$TEXTSIZE
 40
0.2
  9
$TRACEWID
 40
0.05
  9
$TEXTSTYLE
  7
STANDARD
  9
$CLAYER
  8
0
  9
$CELTYPE
  6
BYLAYER
  9
$CECOLOR
 62
   256
  9
$DIMSCALE
 40
1.0
  9
$DIMASZ
 40
0.1875
  9
$DIMEXO
 40
0.0625
  9
$DIMDLI
 40
0.4443307087
  9
$DIMRND
 40
0.0
  9
$DIMDLE
 40
0.0
  9
$DIMEXE
 40
0.125
  9
$DIMTP
 40
0.01
  9
$DIMTM
 40
0.01
  9
$DIMTXT
 40
2.0
  9
$DIMCEN
 40
0.1052362205
  9
$DIMTSZ
 40
0.0
  9
$DIMTOL
 70
     1
  9
$DIMLIM
 70
     0
  9
$DIMTIH
 70
     1
  9
$DIMTOH
 70
     1
  9
$DIMSE1
 70
     0
  9
$DIMSE2
 70
     0
  9
$DIMTAD
 70
     0
  9
$DIMZIN
 70
     0
  9
$DIMBLK
  1

  9
$DIMASO
 70
     1
  9
$DIMSHO
 70
     1
  9
$DIMPOST
  1
\X
  9
$DIMAPOST
  1

  9
$DIMALT
 70
     1
  9
$DIMALTD
 70
     2
  9
$DIMALTF
 40
25.3999999999999986
  9
$DIMLFAC
 40
1.0
  9
$DIMTOFL
 70
     0
  9
$DIMTVP
 40
0.0
  9
$DIMTIX
 70
     0
  9
$DIMSOXD
 70
     0
  9
$DIMSAH
 70
     0
  9
$DIMBLK1
  1

  9
$DIMBLK2
  1

  9
$DIMSTYLE
  2
STANDARD
  9
$DIMCLRD
 70
     0
  9
$DIMCLRE
 70
     0
  9
$DIMCLRT
 70
     0
  9
$DIMTFAC
 40
1.0
  9
$DIMGAP
 40
0.09
  9
$LUNITS
 70
     2
  9
$LUPREC
 70
     4
  9
$SKETCHINC
 40
0.1
  9
$FILLETRAD
 40
0.0
  9
$AUNITS
 70
     0
  9
$AUPREC
 70
     0
  9
$MENU
  1
.
  9
$ELEVATION
 40
0.0
  9
$PELEVATION
 40
0.0
  9
$THICKNESS
 40
0.0
  9
$LIMCHECK
 70
     0
  9
$BLIPMODE
 70
     0
  9
$CHAMFERA
 40
0.0
  9
$CHAMFERB
 40
0.0
  9
$SKPOLY
 70
     0
  9
$TDCREATE
 40
2458060.468368056230247
  9
$TDUPDATE
 40
2460126.4597453698515892
  9
$TDINDWG
 40
0.3962107639
  9
$TDUSRTIMER
 40
0.3962107639
  9
$USRTIMER
 70
     1
  9
$ANGBASE
 50
0.0
  9
$ANGDIR
 70
     0
  9
$PDMODE
 70
     0
  9
$PDSIZE
 40
0.3125
  9
$PLINEWID
 40
0.0
  9
$COORDS
 70
     1
  9
$SPLFRAME
 70
     0
  9
$SPLINETYPE
 70
     6
  9
$SPLINESEGS
 70
     8
  9
$ATTDIA
 70
     1
  9
$ATTREQ
 70
     1
  9
$HANDLING
 70
     1
  9
$HANDSEED
  5
84DC
  9
$SURFTAB1
 70
     6
  9
$SURFTAB2
 70
     6
  9
$SURFTYPE
 70
     6
  9
$SURFU
 70
     6
  9
$SURFV
 70
     6
  9
$UCSNAME
  2

  9
$UCSORG
 10
0.0
 20
0.0
 30
0.0
  9
$UCSXDIR
 10
1.0
 20
0.0
 30
0.0
  9
$UCSYDIR
 10
0.0
 20
1.0
 30
0.0
  9
$PUCSNAME
  2

  9
$PUCSORG
 10
0.0
 20
0.0
 30
0.0
  9
$PUCSXDIR
 10
1.0
 20
0.0
 30
0.0
  9
$PUCSYDIR
 10
0.0
 20
1.0
 30
0.0
  9
$USERI1
 70
     0
  9
$USERI2
 70
     0
  9
$USERI3
 70
     0
  9
$USERI4
 70
     0
  9
$USERI5
 70
     0
  9
$USERR1
 40
0.0
  9
$USERR2
 40
0.0
  9
$USERR3
 40
0.0
  9
$USERR4
 40
0.0
  9
$USERR5
 40
0.0
  9
$WORLDVIEW
 70
     1
  9
$SHADEDGE
 70
     3
  9
$SHADEDIF
 70
    70
  9
$TILEMODE
 70
     1
  9
$MAXACTVP
 70
    64
  9
$PLIMCHECK
 70
     0
  9
$PEXTMIN
 10
1.0000000000000000E+20
 20
1.0000000000000000E+20
 30
1.0000000000000000E+20
  9
$PEXTMAX
 10
-1.0000000000000000E+20
 20
-1.0000000000000000E+20
 30
-1.0000000000000000E+20
  9
$PLIMMIN
 10
0.0
 20
0.0
  9
$PLIMMAX
 10
12.0
 20
9.0
  9
$UNITMODE
 70
     0
  9
$VISRETAIN
 70
     1
  9
$PLINEGEN
 70
     0
  9
$PSLTSCALE
 70
     1
  0
ENDSEC
  0
SECTION
  2
TABLES
  0
TABLE
  2
VPORT
 70
     1
  0
VPORT
  2
*ACTIVE
 70
     0
 10
0.0
 20
0.0
 11
1.0
 21
1.0
 12
104.4172511622613939
 22
-5.5660316836220138
 13
0.0
 23
0.0
 14
1.0
 24
1.0
 15
0.0
 25
0.0
 16
0.0
 26
0.0
 36
95.5902297660485658
 17
3089.811279296875
 27
197.161570589386713
 37
0.0
 40
3.300462522378778
 41
1.4307692307692299
 42
50.0
 43
0.0
 44
0.0
 50
0.0
 51
0.0
 71
     0
 72
   100
 73
     1
 74
     1
 75
     0
 76
     0
 77
     0
 78
     0
  0
ENDTAB
  0
TABLE
  2
LTYPE
 70
     2
  0
LTYPE
  2
CONTINUOUS
 70
     0
  3
Solid line
 72
    65
 73
     0
 40
0.0
  0
LTYPE
  2
PHANTOM2
 70
     0
  3
___ _ _ ___ _ _ ___ _ _ ___ _ _
 72
    65
 73
     6
 40
1.25
 49
0.625
 49
-0.125
 49
0.125
 49
-0.125
 49
0.125
 49
-0.125
  0
ENDTAB
  0
TABLE
  2
LAYER
 70
     2
  0
LAYER
  2
0
 70
     0
 62
   255
  6
CONTINUOUS
  0
LAYER
  2
DEFPOINTS
 70
     0
 62
     7
  6
CONTINUOUS
  0
ENDTAB
  0
TABLE
  2
STYLE
 70
     1
  0
STYLE
  2
STANDARD
 70
     0
 40
0.0
 41
0.8
 50
0.0
 71
     0
 42
0.2
  3
txt
  4

  0
ENDTAB
  0
TABLE
  2
VIEW
 70
     0
  0
ENDTAB
  0
TABLE
  2
UCS
 70
     0
  0
ENDTAB
  0
TABLE
  2
APPID
 70
     9
  0
APPID
  2
ACAD
 70
     0
  0
APPID
  2
ACAD_MLEADERVER
 70
     0
  0
APPID
  2
ACAD_EXEMPT_FROM_CAD_STANDARDS
 70
     0
  0
APPID
  2
ACAD_NAV_VCDISPLAY
 70
     0
  0
APPID
  2
ACAECLAYERSTANDARD
 70
     0
  0
APPID
  2
ACCMTRANSPARENCY
 70
     0
  0
APPID
  2
ACAD_DSTYLE_DIMJAG
 70
     0
  0
APPID
  2
ACAD_DSTYLE_DIMTALN
 70
     0
  0
APPID
  2
ACDBATTR
 70
     0
  0
ENDTAB
  0
TABLE
  2
DIMSTYLE
 70
     1
  0
DIMSTYLE
  2
STANDARD
 70
     0
  3

  4

  5

  6

  7

 40
1.0
 41
0.1875
 42
0.0625
 43
0.38
 44
0.125
 45
0.0
 46
0.0
 47
0.01
 48
0.01
140
0.15625
141
0.09
142
0.0
143
25.3999999999999986
144
1.0
145
0.0
146
1.0
147
0.09
 71
     1
 72
     0
 73
     1
 74
     1
 75
     0
 76
     0
 77
     0
 78
     4
170
     0
171
     2
172
     0
173
     0
174
     0
175
     0
176
     0
177
     0
178
     0
  0
ENDTAB
  0
ENDSEC
  0
SECTION
  2
BLOCKS
  0
BLOCK
  8
0
  2
$MODEL_SPACE
 70
     0
 10
0.0
 20
0.0
 30
0.0
  3
$MODEL_SPACE
  1

  0
ENDBLK
  5
21
  8
0
  0
BLOCK
 67
     1
  8
0
  2
$PAPER_SPACE
 70
     0
 10
0.0
 20
0.0
 30
0.0
  3
$PAPER_SPACE
  1

  0
ENDBLK
  5
1D
 67
     1
  8
0
  0
ENDSEC
  0
SECTION
  2
ENTITIES
  0
ATTDEF
  5
3930
  8
DEFPOINTS
 10
3194.2243719651341962
 20
193.2321889883426138
 30
0.0
 40
0.001
  1
P24483-LV
  3

  2
MODELNUMBER
 70
     0
1001
ACDBATTR
1070
     0
1070
     1
  0
ATTDEF
  5
3931
  8
DEFPOINTS
 10
3194.2243719651341962
 20
193.2305223216760055
 30
0.0
 40
0.001
  1
ONE
  3

  2
TRADENAME
 70
     0
1001
ACDBATTR
1070
     0
1070
     1
  0
ATTDEF
  5
3932
  8
DEFPOINTS
 10
3194.2243719651341962
 20
193.2288556550093119
 30
0.0
 40
0.001
  1
VALVE TRIM
  3

  2
PRODUCT
 70
     0
1001
ACDBATTR
1070
     0
1070
     1
  0
LINE
  5
843D
  8
0
 10
3192.3645484743751695
 20
192.5966679336945901
 30
0.0
 11
3192.3535304591368913
 21
193.2278896020945922
 31
0.0
  0
LINE
  5
843E
  8
0
 10
3192.3535304591368913
 20
193.2278896020945922
 30
0.0
 11
3196.1035304591368913
 21
193.2278896020945922
 31
0.0
  0
LINE
  5
843F
  8
0
 10
3196.1035304591368913
 20
193.2278896020945922
 30
0.0
 11
3196.0925124438990679
 21
192.5966679337290941
 31
0.0
  0
LINE
  5
8440
  8
0
 10
3192.4345378130369681
 20
192.5278896020946036
 30
0.0
 11
3196.0225231052368144
 21
192.5278896020946036
 31
0.0
  0
ARC
  5
8441
  8
0
 10
3192.4345378130369681
 20
192.5978896020945967
 30
0.0
 40
0.0700000000000009
 50
181.0000000029170906
 51
270.0
  0
ARC
  5
8442
  8
0
 10
3196.0225231052368144
 20
192.5978896020945967
 30
0.0
 40
0.0700000000000014
 50
270.0
 51
358.999999999998181
  0
ARC
  5
8443
  8
0
 10
3193.3585304591360909
 20
191.2878896020945945
 30
0.0
 40
0.0299999999999994
 50
179.9999999999984084
 51
270.0
  0
LINE
  5
8444
  8
0
 10
3193.3285304591368003
 20
192.5278896020946036
 30
0.0
 11
3193.3285304591368003
 21
191.2878896020945945
 31
0.0
  0
LINE
  5
8445
  8
0
 10
3193.3585304591360909
 20
191.2578896020945933
 30
0.0
 11
3195.0985304591358727
 21
191.2578896020945933
 31
0.0
  0
LINE
  5
8446
  8
0
 10
3193.8735304591368731
 20
191.2578896020945933
 30
0.0
 11
3193.8735304591368731
 21
190.9778896020945922
 31
0.0
  0
LINE
  5
8447
  8
0
 10
3193.9035304591370732
 20
190.9478896020945911
 30
0.0
 11
3194.5535304591371641
 21
190.9478896020945911
 31
0.0
  0
LINE
  5
8448
  8
0
 10
3193.9035304591370732
 20
190.9278896020946092
 30
0.0
 11
3194.5535304591371641
 21
190.9278896020946092
 31
0.0
  0
LINE
  5
8449
  8
0
 10
3193.9285304591357999
 20
190.9478896020945911
 30
0.0
 11
3193.9285304591357999
 21
190.9278896020946092
 31
0.0
  0
LINE
  5
844A
  8
0
 10
3193.8735304591368731
 20
190.8978896020946081
 30
0.0
 11
3193.8735304591368731
 21
189.9878896020946968
 31
0.0
  0
LINE
  5
844B
  8
0
 10
3193.9035304591370732
 20
189.9578896020946956
 30
0.0
 11
3194.5535304577369971
 21
189.9578896020946956
 31
0.0
  0
ARC
  5
844C
  8
0
 10
3193.9035304591370732
 20
190.9778896020945922
 30
0.0
 40
0.0300000000000003
 50
179.9999999999984084
 51
270.0
  0
ARC
  5
844D
  8
0
 10
3193.9035304591370732
 20
190.8978896020946081
 30
0.0
 40
0.0300000000000003
 50
90.0
 51
180.0
  0
ARC
  5
844E
  8
0
 10
3193.9035304591370732
 20
189.9878896020946115
 30
0.0
 40
0.0299999999999994
 50
179.9999999999984084
 51
270.0
  0
LINE
  5
844F
  8
0
 10
3194.5835304591369095
 20
191.2578896020945933
 30
0.0
 11
3194.5835304591369095
 21
190.9778896020945922
 31
0.0
  0
LINE
  5
8450
  8
0
 10
3194.5285304577359966
 20
190.9478896020945911
 30
0.0
 11
3194.5285304577359966
 21
190.9278896020946092
 31
0.0
  0
LINE
  5
8451
  8
0
 10
3194.5835304591369095
 20
190.8978896020946081
 30
0.0
 11
3194.5835304591369095
 21
189.9878896020946968
 31
0.0
  0
ARC
  5
8452
  8
0
 10
3194.5535809784701087
 20
190.9778390827586918
 30
0.0
 40
0.0299495232748261
 50
269.9033498409975778
 51
0.0966474852140304
  0
ARC
  5
8453
  8
0
 10
3194.5538231332971009
 20
190.8981822762694947
 30
0.0
 40
0.0297087675050068
 50
359.4355448693519861
 51
90.5644578044597779
  0
ARC
  5
8454
  8
0
 10
3194.5537458632247763
 20
189.9876741979960002
 30
0.0
 40
0.0297853748093706
 50
269.5856378158995881
 51
0.4143595103159714
  0
ARC
  5
8455
  8
0
 10
3195.0985304591358727
 20
191.2878896020945945
 30
0.0
 40
0.0299999999999994
 50
270.0
 51
0.0000000000016284
  0
LINE
  5
8456
  8
0
 10
3195.1285304591369822
 20
192.5278896020946036
 30
0.0
 11
3195.1285304591369822
 21
191.2878896020945945
 31
0.0
  0
ENDSEC
  0
EOF
