  0
SECTION
  2
HEADER
  9
$ACADVER
  1
AC1009
  9
$INSBASE
 10
41.4648625514987401
 20
2.608345932046539
 30
0.0
  9
$EXTMIN
 10
39.5881563589140484
 20
-0.6723173964718683
 30
-0.0015258207003583
  9
$EXTMAX
 10
43.3415649831194472
 20
2.614100059443504
 30
0.0000000349246037
  9
$LIMMIN
 10
0.0
 20
0.0
  9
$LIMMAX
 10
11.6929133858000007
 20
8.2677165353999982
  9
$ORTHOMODE
 70
     0
  9
$REGENMODE
 70
     1
  9
$FILLMODE
 70
     1
  9
$QTEXTMODE
 70
     0
  9
$MIRRTEXT
 70
     0
  9
$DRAGMODE
 70
     2
  9
$LTSCALE
 40
0.6431102362
  9
$OSMODE
 70
  4095
  9
$ATTMODE
 70
     1
  9
$TEXTSIZE
 40
0.2
  9
$TRACEWID
 40
0.05
  9
$TEXTSTYLE
  7
STANDARD
  9
$CLAYER
  8
0
  9
$CELTYPE
  6
BYLAYER
  9
$CECOLOR
 62
   256
  9
$DIMSCALE
 40
1.0
  9
$DIMASZ
 40
0.1875
  9
$DIMEXO
 40
0.0625
  9
$DIMDLI
 40
0.4443307087
  9
$DIMRND
 40
0.0
  9
$DIMDLE
 40
0.0
  9
$DIMEXE
 40
0.125
  9
$DIMTP
 40
0.0
  9
$DIMTM
 40
0.0
  9
$DIMTXT
 40
0.15625
  9
$DIMCEN
 40
0.1052362205
  9
$DIMTSZ
 40
0.0
  9
$DIMTOL
 70
     0
  9
$DIMLIM
 70
     0
  9
$DIMTIH
 70
     1
  9
$DIMTOH
 70
     1
  9
$DIMSE1
 70
     0
  9
$DIMSE2
 70
     0
  9
$DIMTAD
 70
     0
  9
$DIMZIN
 70
     0
  9
$DIMBLK
  1

  9
$DIMASO
 70
     1
  9
$DIMSHO
 70
     1
  9
$DIMPOST
  1

  9
$DIMAPOST
  1

  9
$DIMALT
 70
     0
  9
$DIMALTD
 70
     2
  9
$DIMALTF
 40
25.3999999999999986
  9
$DIMLFAC
 40
1.0
  9
$DIMTOFL
 70
     0
  9
$DIMTVP
 40
0.0
  9
$DIMTIX
 70
     0
  9
$DIMSOXD
 70
     0
  9
$DIMSAH
 70
     0
  9
$DIMBLK1
  1

  9
$DIMBLK2
  1

  9
$DIMSTYLE
  2
STANDARD
  9
$DIMCLRD
 70
     0
  9
$DIMCLRE
 70
     0
  9
$DIMCLRT
 70
     0
  9
$DIMTFAC
 40
1.0
  9
$DIMGAP
 40
0.09
  9
$LUNITS
 70
     2
  9
$LUPREC
 70
     4
  9
$SKETCHINC
 40
0.1
  9
$FILLETRAD
 40
0.0
  9
$AUNITS
 70
     0
  9
$AUPREC
 70
     0
  9
$MENU
  1
.
  9
$ELEVATION
 40
0.0
  9
$PELEVATION
 40
0.0
  9
$THICKNESS
 40
0.0
  9
$LIMCHECK
 70
     0
  9
$BLIPMODE
 70
     0
  9
$CHAMFERA
 40
0.0
  9
$CHAMFERB
 40
0.0
  9
$SKPOLY
 70
     0
  9
$TDCREATE
 40
2457869.6357754631899297
  9
$TDUPDATE
 40
2459894.4900115737691522
  9
$TDINDWG
 40
0.1019251852
  9
$TDUSRTIMER
 40
0.1019251852
  9
$USRTIMER
 70
     1
  9
$ANGBASE
 50
0.0
  9
$ANGDIR
 70
     0
  9
$PDMODE
 70
     0
  9
$PDSIZE
 40
0.3125
  9
$PLINEWID
 40
0.0
  9
$COORDS
 70
     1
  9
$SPLFRAME
 70
     0
  9
$SPLINETYPE
 70
     6
  9
$SPLINESEGS
 70
     8
  9
$ATTDIA
 70
     1
  9
$ATTREQ
 70
     1
  9
$HANDLING
 70
     1
  9
$HANDSEED
  5
486
  9
$SURFTAB1
 70
     6
  9
$SURFTAB2
 70
     6
  9
$SURFTYPE
 70
     6
  9
$SURFU
 70
     6
  9
$SURFV
 70
     6
  9
$UCSNAME
  2

  9
$UCSORG
 10
0.0
 20
0.0
 30
0.0
  9
$UCSXDIR
 10
1.0
 20
0.0
 30
0.0
  9
$UCSYDIR
 10
0.0
 20
1.0
 30
0.0
  9
$PUCSNAME
  2

  9
$PUCSORG
 10
0.0
 20
0.0
 30
0.0
  9
$PUCSXDIR
 10
1.0
 20
0.0
 30
0.0
  9
$PUCSYDIR
 10
0.0
 20
1.0
 30
0.0
  9
$USERI1
 70
     0
  9
$USERI2
 70
     0
  9
$USERI3
 70
     0
  9
$USERI4
 70
     0
  9
$USERI5
 70
     0
  9
$USERR1
 40
0.0
  9
$USERR2
 40
0.0
  9
$USERR3
 40
0.0
  9
$USERR4
 40
0.0
  9
$USERR5
 40
0.0
  9
$WORLDVIEW
 70
     1
  9
$SHADEDGE
 70
     3
  9
$SHADEDIF
 70
    70
  9
$TILEMODE
 70
     1
  9
$MAXACTVP
 70
    48
  9
$PLIMCHECK
 70
     0
  9
$PEXTMIN
 10
1.0000000000000000E+20
 20
1.0000000000000000E+20
 30
1.0000000000000000E+20
  9
$PEXTMAX
 10
-1.0000000000000000E+20
 20
-1.0000000000000000E+20
 30
-1.0000000000000000E+20
  9
$PLIMMIN
 10
0.0
 20
0.0
  9
$PLIMMAX
 10
12.0
 20
9.0
  9
$UNITMODE
 70
     0
  9
$VISRETAIN
 70
     1
  9
$PLINEGEN
 70
     0
  9
$PSLTSCALE
 70
     1
  0
ENDSEC
  0
SECTION
  2
TABLES
  0
TABLE
  2
VPORT
 70
     1
  0
VPORT
  2
*ACTIVE
 70
     0
 10
0.0
 20
0.0
 11
1.0
 21
1.0
 12
30.9349818261392606
 22
-6.0448674281573931
 13
0.0
 23
0.0
 14
1.0
 24
1.0
 15
0.0
 25
0.0
 16
-0.0000000000000142
 26
0.0
 36
62.4982449722281501
 17
10.5298788448774907
 27
7.0157587596432123
 37
0.0
 40
3.312059204596117
 41
2.095052083333333
 42
50.0
 43
0.0
 44
0.0
 50
0.0
 51
0.0
 71
     0
 72
   100
 73
     1
 74
     1
 75
     0
 76
     0
 77
     0
 78
     0
  0
ENDTAB
  0
TABLE
  2
LTYPE
 70
     1
  0
LTYPE
  2
CONTINUOUS
 70
     0
  3
Solid line
 72
    65
 73
     0
 40
0.0
  0
ENDTAB
  0
TABLE
  2
LAYER
 70
     2
  0
LAYER
  2
0
 70
     0
 62
     7
  6
CONTINUOUS
  0
LAYER
  2
DEFPOINTS
 70
     0
 62
     7
  6
CONTINUOUS
  0
ENDTAB
  0
TABLE
  2
STYLE
 70
     1
  0
STYLE
  2
STANDARD
 70
     0
 40
0.0
 41
0.8
 50
0.0
 71
     0
 42
0.2
  3
txt
  4

  0
ENDTAB
  0
TABLE
  2
VIEW
 70
     0
  0
ENDTAB
  0
TABLE
  2
UCS
 70
     0
  0
ENDTAB
  0
TABLE
  2
APPID
 70
     5
  0
APPID
  2
ACAD
 70
     0
  0
APPID
  2
ACAD_NAV_VCDISPLAY
 70
     0
  0
APPID
  2
ACADANNOTATIVE
 70
     0
  0
APPID
  2
ACDBATTR
 70
     0
  0
APPID
  2
ACAD_MLEADERVER
 70
     0
  0
ENDTAB
  0
TABLE
  2
DIMSTYLE
 70
     1
  0
DIMSTYLE
  2
STANDARD
 70
     0
  3

  4

  5

  6

  7

 40
1.0
 41
0.1875
 42
0.0625
 43
0.38
 44
0.125
 45
0.0
 46
0.0
 47
1.5
 48
1.5
140
0.15625
141
0.09
142
0.0
143
25.3999999999999986
144
1.0
145
0.0
146
1.0
147
0.09
 71
     0
 72
     0
 73
     1
 74
     1
 75
     0
 76
     0
 77
     0
 78
     4
170
     0
171
     2
172
     0
173
     0
174
     0
175
     0
176
     0
177
     0
178
     0
  0
ENDTAB
  0
ENDSEC
  0
SECTION
  2
BLOCKS
  0
BLOCK
  8
0
  2
$MODEL_SPACE
 70
     2
 10
0.0
 20
0.0
 30
0.0
  3
$MODEL_SPACE
  1

  0
ENDBLK
  5
16
  8
0
  0
BLOCK
 67
     1
  8
0
  2
$PAPER_SPACE
 70
     0
 10
0.0
 20
0.0
 30
0.0
  3
$PAPER_SPACE
  1

  0
ENDBLK
  5
1D
 67
     1
  8
0
  0
ENDSEC
  0
SECTION
  2
ENTITIES
  0
ATTDEF
  5
209
  8
DEFPOINTS
 10
41.4618712072447906
 20
2.6130740248784039
 30
0.0
 40
0.001
  1
P24483-CR
  3

  2
MODELNUMBER
 70
     0
1001
ACDBATTR
1070
     0
1070
     1
  0
ATTDEF
  5
20A
  8
DEFPOINTS
 10
41.4618712072447906
 20
2.6114073582117392
 30
0.0
 40
0.001
  1
ONE
  3

  2
TRADENAME
 70
     0
1001
ACDBATTR
1070
     0
1070
     1
  0
ATTDEF
  5
20B
  8
DEFPOINTS
 10
41.4618712072447906
 20
2.609740691545074
 30
0.0
 40
0.001
  1
VALVE TRIM
  3

  2
PRODUCT
 70
     0
1001
ACDBATTR
1070
     0
1070
     1
  0
LINE
  5
3D2
  8
0
 10
39.5898625514987472
 20
2.608345932046539
 30
0.0
 11
43.3398625514987401
 21
2.608345932046539
 31
0.0
  0
LINE
  5
3D3
  8
0
 10
39.671723627448749
 20
1.9083459320465399
 30
0.0
 11
43.2580014755487525
 21
1.9083459320465399
 31
0.0
  0
LINE
  5
3D4
  8
0
 10
41.1107162735487393
 20
0.3583459320465394
 30
0.0
 11
41.1107162735487393
 21
0.6383459320465388
 31
0.0
  0
LINE
  5
3D5
  8
0
 10
40.5657162735487518
 20
0.6683459320465382
 30
0.0
 11
40.5657162735487518
 21
1.9083459320465399
 31
0.0
  0
LINE
  5
3D6
  8
0
 10
40.0490143367487406
 20
0.3083459320465405
 30
0.0
 11
42.8807107662487397
 21
0.3083459320465405
 31
0.0
  0
LINE
  5
3D7
  8
0
 10
41.1407162735487404
 20
0.3283459320465401
 30
0.0
 11
41.789008829448747
 21
0.3283459320465401
 31
0.0
  0
LINE
  5
3D8
  8
0
 10
39.6017342887878669
 20
1.9771242635923669
 30
0.0
 11
39.5898625514987472
 21
2.608345932046539
 31
0.0
  0
LINE
  5
3D9
  8
0
 10
39.9665751115976491
 20
-0.6022269365642253
 30
0.0
 11
40.0190654295651669
 21
0.2800960630444944
 31
0.0
  0
ARC
  5
3DA
  8
0
 10
41.4470155419261275
 20
27.257320765219859
 30
0.0
 40
27.9289810940068506
 50
267.0217126620079853
 51
270.0366128070164109
  0
ARC
  5
3DB
  8
0
 10
39.9982191016258994
 20
-0.602377651386659
 30
0.0
 40
0.0316443489404601
 50
179.7271122278617099
 51
265.7883407846110231
  0
ARC
  5
3DC
  8
0
 10
39.671723627448749
 20
1.9783459320465431
 30
0.0
 40
0.07
 50
181.0000000029197054
 51
270.0000000000003979
  0
ARC
  5
3DD
  8
0
 10
41.1407162735487404
 20
0.358345932046543
 30
0.0
 40
0.03
 50
180.0000000000067075
 51
269.9999999999984084
  0
ARC
  5
3DE
  8
0
 10
40.0490143367487406
 20
0.2783459320465411
 30
0.0
 40
0.03
 50
89.9999999999983658
 51
176.6555971810946062
  0
LINE
  5
3DF
  8
0
 10
40.5957162735487529
 20
0.6383459320465388
 30
0.0
 11
42.3340088294487487
 21
0.6383459320465424
 31
0.0
  0
ARC
  5
3E0
  8
0
 10
40.5957162735487529
 20
0.6683459320465417
 30
0.0
 40
0.03
 50
180.0000000000067075
 51
269.9999999999964189
  0
ARC
  5
3E1
  8
0
 10
41.4827095610711609
 20
27.2573207652261083
 30
0.0
 40
27.9289810940130891
 50
269.9616357978749193
 51
269.9633871929813722
  0
LINE
  5
3E2
  8
0
 10
41.1657162735487532
 20
0.3283459320465401
 30
0.0
 11
41.1657162735487532
 21
0.3083459320465423
 31
0.0
  0
LINE
  5
3E3
  8
0
 10
41.1711758727487478
 20
-0.6398428650534616
 30
0.0
 11
41.1463274343487413
 21
0.2783459931465391
 31
0.0
  0
LINE
  5
3E4
  8
0
 10
41.2823962533544702
 20
-0.6379620897534615
 30
0.0
 11
41.3292634725326025
 21
0.2798742738217221
 31
0.0
  0
ARC
  5
3E5
  8
0
 10
41.3169639082038174
 20
-0.6372658474526727
 30
0.0
 40
0.0345746657991829
 50
181.153863414945107
 51
260.1352374989778014
  0
ARC
  5
3E6
  8
0
 10
41.1760309139120224
 20
0.2793057723853636
 30
0.0
 40
0.0297189817179652
 50
102.2695541210323995
 51
181.8506981084663039
  0
ARC
  5
3E7
  8
0
 10
41.1987462965434332
 20
-0.6423138711809955
 30
0.0
 40
0.0276827764388725
 50
174.8730500840212017
 51
263.8630804743597196
  0
ARC
  5
3E8
  8
0
 10
41.359224929709832
 20
0.2783454173355278
 30
0.0
 40
0.0300005147120348
 50
90.000472798747353
 51
177.0821431192447051
  0
LINE
  5
3E9
  8
0
 10
41.8190088294487481
 20
0.3583459320465394
 30
0.0
 11
41.8190088294487481
 21
0.6383459320465388
 31
0.0
  0
LINE
  5
3EA
  8
0
 10
42.3640088294487498
 20
0.6683459320465382
 30
0.0
 11
42.3640088294487498
 21
1.9083459320465399
 31
0.0
  0
LINE
  5
3EB
  8
0
 10
43.3279908142096275
 20
1.9771242635923669
 30
0.0
 11
43.3398625514987401
 21
2.608345932046539
 31
0.0
  0
LINE
  5
3EC
  8
0
 10
42.963150964298741
 20
-0.6022269365642253
 30
0.0
 11
42.9106596734323134
 21
0.2800960630444944
 31
0.0
  0
ARC
  5
3ED
  8
0
 10
41.4827095610714167
 20
27.257320765218811
 30
0.0
 40
27.9289810940057883
 50
269.963387192978189
 51
272.9782873379920147
  0
ARC
  5
3EE
  8
0
 10
42.9315051575968099
 20
-0.6023759002718326
 30
0.0
 40
0.0316461573023083
 50
274.2129499162523985
 51
0.2697017266325977
  0
ARC
  5
3EF
  8
0
 10
43.2580014755487525
 20
1.9783459320465431
 30
0.0
 40
0.07
 50
269.9999999999992042
 51
358.9999999970801809
  0
ARC
  5
3F0
  8
0
 10
41.789008829448747
 20
0.358345932046543
 30
0.0
 40
0.03
 50
270.0000000000017053
 51
359.9999999999932925
  0
ARC
  5
3F1
  8
0
 10
42.8807107662487397
 20
0.2783459320465411
 30
0.0
 40
0.03
 50
3.344402818905333
 51
90.0000000000016058
  0
ARC
  5
3F2
  8
0
 10
42.3340088294487487
 20
0.6683459320465417
 30
0.0
 40
0.03
 50
270.0000000000032969
 51
359.9999999999932925
  0
ARC
  5
3F3
  8
0
 10
41.4470155419263335
 20
27.2573207652261083
 30
0.0
 40
27.9289810940130891
 50
270.0366128070185141
 51
270.0383642021250807
  0
LINE
  5
3F4
  8
0
 10
41.7640088294487413
 20
0.3283459320465401
 30
0.0
 11
41.7640088294487413
 21
0.3083459320465423
 31
0.0
  0
LINE
  5
3F5
  8
0
 10
41.7585492302487395
 20
-0.6398428650534616
 30
0.0
 11
41.7833976686487389
 21
0.2783459931465391
 31
0.0
  0
LINE
  5
3F6
  8
0
 10
41.6473288496430172
 20
-0.6379620897534615
 30
0.0
 11
41.600461630464892
 21
0.2798742738217221
 31
0.0
  0
ARC
  5
3F7
  8
0
 10
41.61276119479367
 20
-0.6372658474526727
 30
0.0
 40
0.0345746657991829
 50
279.8647625010221986
 51
358.8461365850548077
  0
ARC
  5
3F8
  8
0
 10
41.753694189085472
 20
0.2793057723853636
 30
0.0
 40
0.0297189817179652
 50
358.1493018915336961
 51
77.7304458789672452
  0
ARC
  5
3F9
  8
0
 10
41.7309788064540612
 20
-0.6423138711809955
 30
0.0
 40
0.0276827764388725
 50
276.1369195256402804
 51
5.1269499159787761
  0
ARC
  5
3FA
  8
0
 10
41.5705001732876482
 20
0.2783454173355278
 30
0.0
 40
0.0300005147120348
 50
2.917856880755255
 51
89.9995272012530734
  0
LINE
  5
3FC
  8
0
 10
41.3131749009987388
 20
-0.6343829066534621
 30
0.0
 11
41.6165502139987495
 21
-0.634382906653463
 31
0.0
  0
ARC
  5
3FD
  8
0
 10
41.3133182774654912
 20
-0.6043945561463726
 30
0.0
 40
0.0299886932517453
 50
190.4958663587649994
 51
269.7260668328042925
  0
ARC
  5
3FE
  8
0
 10
41.6162503159509427
 20
-0.6039807253398779
 30
0.0
 40
0.0304036604286915
 50
270.5651678393813881
 51
347.4745558816227913
  0
ENDSEC
  0
EOF
