  0
SECTION
  2
HEADER
  9
$ACADVER
  1
AC1009
  9
$INSBASE
 10
4683.3060580663632209
 20
321.9895003557218729
 30
0.0
  9
$EXTMIN
 10
4674.6413908065860596
 20
316.7311142135645241
 30
-0.0000000349181948
  9
$EXTMAX
 10
4683.552525204039739
 20
323.1872284482863051
 30
0.0000000814935746
  9
$LIMMIN
 10
0.0
 20
0.0
  9
$LIMMAX
 10
11.6929133858000007
 20
8.2677165353999982
  9
$ORTHOMODE
 70
     0
  9
$REGENMODE
 70
     1
  9
$FILLMODE
 70
     1
  9
$QTEXTMODE
 70
     0
  9
$MIRRTEXT
 70
     0
  9
$DRAGMODE
 70
     2
  9
$LTSCALE
 40
0.6431102362
  9
$OSMODE
 70
  4095
  9
$ATTMODE
 70
     1
  9
$TEXTSIZE
 40
0.2
  9
$TRACEWID
 40
0.05
  9
$TEXTSTYLE
  7
STANDARD
  9
$CLAYER
  8
0
  9
$CELTYPE
  6
BYLAYER
  9
$CECOLOR
 62
   256
  9
$DIMSCALE
 40
1.0
  9
$DIMASZ
 40
0.1875
  9
$DIMEXO
 40
0.0625
  9
$DIMDLI
 40
0.4443307087
  9
$DIMRND
 40
0.0
  9
$DIMDLE
 40
0.0
  9
$DIMEXE
 40
0.125
  9
$DIMTP
 40
0.01
  9
$DIMTM
 40
0.01
  9
$DIMTXT
 40
2.0
  9
$DIMCEN
 40
0.1052362205
  9
$DIMTSZ
 40
0.0
  9
$DIMTOL
 70
     1
  9
$DIMLIM
 70
     0
  9
$DIMTIH
 70
     1
  9
$DIMTOH
 70
     1
  9
$DIMSE1
 70
     0
  9
$DIMSE2
 70
     0
  9
$DIMTAD
 70
     0
  9
$DIMZIN
 70
     0
  9
$DIMBLK
  1

  9
$DIMASO
 70
     1
  9
$DIMSHO
 70
     1
  9
$DIMPOST
  1
\X
  9
$DIMAPOST
  1

  9
$DIMALT
 70
     1
  9
$DIMALTD
 70
     2
  9
$DIMALTF
 40
25.3999999999999986
  9
$DIMLFAC
 40
1.0
  9
$DIMTOFL
 70
     0
  9
$DIMTVP
 40
0.0
  9
$DIMTIX
 70
     0
  9
$DIMSOXD
 70
     0
  9
$DIMSAH
 70
     0
  9
$DIMBLK1
  1

  9
$DIMBLK2
  1

  9
$DIMSTYLE
  2
STANDARD
  9
$DIMCLRD
 70
     0
  9
$DIMCLRE
 70
     0
  9
$DIMCLRT
 70
     0
  9
$DIMTFAC
 40
1.0
  9
$DIMGAP
 40
0.09
  9
$LUNITS
 70
     2
  9
$LUPREC
 70
     4
  9
$SKETCHINC
 40
0.1
  9
$FILLETRAD
 40
0.0
  9
$AUNITS
 70
     0
  9
$AUPREC
 70
     0
  9
$MENU
  1
.
  9
$ELEVATION
 40
0.0
  9
$PELEVATION
 40
0.0
  9
$THICKNESS
 40
0.0
  9
$LIMCHECK
 70
     0
  9
$BLIPMODE
 70
     0
  9
$CHAMFERA
 40
0.0
  9
$CHAMFERB
 40
0.0
  9
$SKPOLY
 70
     0
  9
$TDCREATE
 40
2458060.468368056230247
  9
$TDUPDATE
 40
2459573.7998958327807486
  9
$TDINDWG
 40
0.6560255787
  9
$TDUSRTIMER
 40
0.6560255787
  9
$USRTIMER
 70
     1
  9
$ANGBASE
 50
0.0
  9
$ANGDIR
 70
     0
  9
$PDMODE
 70
     0
  9
$PDSIZE
 40
0.3125
  9
$PLINEWID
 40
0.0
  9
$COORDS
 70
     1
  9
$SPLFRAME
 70
     0
  9
$SPLINETYPE
 70
     6
  9
$SPLINESEGS
 70
     8
  9
$ATTDIA
 70
     1
  9
$ATTREQ
 70
     1
  9
$HANDLING
 70
     1
  9
$HANDSEED
  5
22FE7
  9
$SURFTAB1
 70
     6
  9
$SURFTAB2
 70
     6
  9
$SURFTYPE
 70
     6
  9
$SURFU
 70
     6
  9
$SURFV
 70
     6
  9
$UCSNAME
  2

  9
$UCSORG
 10
0.0
 20
0.0
 30
0.0
  9
$UCSXDIR
 10
1.0
 20
0.0
 30
0.0
  9
$UCSYDIR
 10
0.0
 20
1.0
 30
0.0
  9
$PUCSNAME
  2

  9
$PUCSORG
 10
0.0
 20
0.0
 30
0.0
  9
$PUCSXDIR
 10
1.0
 20
0.0
 30
0.0
  9
$PUCSYDIR
 10
0.0
 20
1.0
 30
0.0
  9
$USERI1
 70
     0
  9
$USERI2
 70
     0
  9
$USERI3
 70
     0
  9
$USERI4
 70
     0
  9
$USERI5
 70
     0
  9
$USERR1
 40
0.0
  9
$USERR2
 40
0.0
  9
$USERR3
 40
0.0
  9
$USERR4
 40
0.0
  9
$USERR5
 40
0.0
  9
$WORLDVIEW
 70
     1
  9
$SHADEDGE
 70
     3
  9
$SHADEDIF
 70
    70
  9
$TILEMODE
 70
     1
  9
$MAXACTVP
 70
    64
  9
$PLIMCHECK
 70
     0
  9
$PEXTMIN
 10
1.0000000000000000E+20
 20
1.0000000000000000E+20
 30
1.0000000000000000E+20
  9
$PEXTMAX
 10
-1.0000000000000000E+20
 20
-1.0000000000000000E+20
 30
-1.0000000000000000E+20
  9
$PLIMMIN
 10
0.0
 20
0.0
  9
$PLIMMAX
 10
12.0
 20
9.0
  9
$UNITMODE
 70
     0
  9
$VISRETAIN
 70
     1
  9
$PLINEGEN
 70
     0
  9
$PSLTSCALE
 70
     1
  0
ENDSEC
  0
SECTION
  2
TABLES
  0
TABLE
  2
VPORT
 70
     1
  0
VPORT
  2
*ACTIVE
 70
     0
 10
0.0
 20
0.0
 11
1.0
 21
1.0
 12
767.7316015600008541
 22
187.3795662283862953
 13
0.0
 23
0.0
 14
1.0
 24
1.0
 15
0.0
 25
0.0
 16
0.0
 26
0.0
 36
60.4960186965801583
 17
3911.3653564453120453
 27
132.5796051025390057
 37
0.0
 40
6.5072855496601392
 41
1.67063492063492
 42
50.0
 43
0.0
 44
0.0
 50
0.0
 51
0.0
 71
     0
 72
   100
 73
     1
 74
     1
 75
     0
 76
     0
 77
     0
 78
     0
  0
ENDTAB
  0
TABLE
  2
LTYPE
 70
     2
  0
LTYPE
  2
CONTINUOUS
 70
     0
  3
Solid line
 72
    65
 73
     0
 40
0.0
  0
LTYPE
  2
PHANTOM2
 70
     0
  3
___ _ _ ___ _ _ ___ _ _ ___ _ _
 72
    65
 73
     6
 40
1.25
 49
0.625
 49
-0.125
 49
0.125
 49
-0.125
 49
0.125
 49
-0.125
  0
ENDTAB
  0
TABLE
  2
LAYER
 70
     2
  0
LAYER
  2
0
 70
     0
 62
   255
  6
CONTINUOUS
  0
LAYER
  2
DEFPOINTS
 70
     0
 62
     7
  6
CONTINUOUS
  0
ENDTAB
  0
TABLE
  2
STYLE
 70
     1
  0
STYLE
  2
STANDARD
 70
     0
 40
0.0
 41
0.8
 50
0.0
 71
     0
 42
0.2
  3
txt
  4

  0
ENDTAB
  0
TABLE
  2
VIEW
 70
     0
  0
ENDTAB
  0
TABLE
  2
UCS
 70
     0
  0
ENDTAB
  0
TABLE
  2
APPID
 70
    11
  0
APPID
  2
ACAD
 70
     0
  0
APPID
  2
ACAD_MLEADERVER
 70
     0
  0
APPID
  2
ACAD_EXEMPT_FROM_CAD_STANDARDS
 70
     0
  0
APPID
  2
ACAD_NAV_VCDISPLAY
 70
     0
  0
APPID
  2
ACAECLAYERSTANDARD
 70
     0
  0
APPID
  2
ACCMTRANSPARENCY
 70
     0
  0
APPID
  2
ACAD_DSTYLE_DIMJAG
 70
     0
  0
APPID
  2
ACAD_DSTYLE_DIMTALN
 70
     0
  0
APPID
  2
ACDBATTR
 70
     0
  0
APPID
  2
ACADANNOTATIVE
 70
     0
  0
APPID
  2
DCO15
 70
     0
  0
ENDTAB
  0
TABLE
  2
DIMSTYLE
 70
     1
  0
DIMSTYLE
  2
STANDARD
 70
     0
  3

  4

  5

  6

  7

 40
1.0
 41
0.1875
 42
0.0625
 43
0.38
 44
0.125
 45
0.0
 46
0.0
 47
0.01
 48
0.01
140
0.15625
141
0.09
142
0.0
143
25.3999999999999986
144
1.0
145
0.0
146
1.0
147
0.09
 71
     1
 72
     0
 73
     1
 74
     1
 75
     0
 76
     0
 77
     0
 78
     4
170
     0
171
     2
172
     0
173
     0
174
     0
175
     0
176
     0
177
     0
178
     0
  0
ENDTAB
  0
ENDSEC
  0
SECTION
  2
BLOCKS
  0
BLOCK
  8
0
  2
$MODEL_SPACE
 70
     0
 10
0.0
 20
0.0
 30
0.0
  3
$MODEL_SPACE
  1

  0
ENDBLK
  5
21
  8
0
  0
BLOCK
 67
     1
  8
0
  2
$PAPER_SPACE
 70
     0
 10
0.0
 20
0.0
 30
0.0
  3
$PAPER_SPACE
  1

  0
ENDBLK
  5
1D
 67
     1
  8
0
  0
ENDSEC
  0
SECTION
  2
ENTITIES
  0
ATTDEF
  5
211C4
  8
DEFPOINTS
 10
4683.3073114658582199
 20
321.9896443310947234
 30
0.0
 40
0.001
  1
P24482-00
  3

  2
MODELNUMBER
 70
     0
1001
ACDBATTR
1070
     0
1070
     1
  0
ATTDEF
  5
211C5
  8
DEFPOINTS
 10
4683.3073114658582199
 20
321.9879774907154797
 30
0.0
 40
0.001
  1
ONE
  3

  2
TRADENAME
 70
     0
1001
ACDBATTR
1070
     0
1070
     1
  0
ATTDEF
  5
211C6
  8
DEFPOINTS
 10
4683.3073114658582199
 20
321.9863109977612794
 30
0.0
 40
0.001
  1
SHOWERHEAD
  3

  2
PRODUCT
 70
     0
1001
ACDBATTR
1070
     0
1070
     1
  0
LINE
  5
22E37
  8
0
 10
4682.8360580663638757
 20
323.1745003557218752
 30
0.0
 11
4683.276058066364385
 21
323.1745003557218752
 31
0.0
  0
LINE
  5
22E38
  8
0
 10
4682.8360580663638757
 20
320.8045003557219275
 30
0.0
 11
4683.276058066364385
 21
320.8045003557219275
 31
0.0
  0
LINE
  5
22E39
  8
0
 10
4683.3060580663632209
 20
323.1445003557217888
 30
0.0
 11
4683.3060580663632209
 21
320.8345003557217865
 31
0.0
  0
LINE
  5
22E3A
  8
0
 10
4682.8060580663632209
 20
323.1445003557217888
 30
0.0
 11
4682.8060580663632209
 21
320.8345003557217865
 31
0.0
  0
LINE
  5
22E3B
  8
0
 10
4678.2629091919634448
 20
320.8398613059719082
 30
0.0
 11
4679.1386358854642822
 21
321.7155879995718806
 31
0.0
  0
LINE
  5
22E3C
  8
0
 10
4678.83533820978937
 20
320.2674322881470061
 30
0.0
 11
4679.7093323033423076
 21
321.1448915816918088
 31
0.0
  0
ARC
  5
22E3D
  8
0
 10
4682.8360580663638757
 20
323.1445003557217888
 30
0.0
 40
0.03
 50
90.0
 51
180.0000000000032117
  0
ARC
  5
22E3E
  8
0
 10
4683.276058066364385
 20
323.1445003557217888
 30
0.0
 40
0.03
 50
0.0
 51
90.0
  0
ARC
  5
22E3F
  8
0
 10
4682.8360580663638757
 20
320.8345003557217865
 30
0.0
 40
0.03
 50
180.0000000000129887
 51
270.0
  0
ARC
  5
22E40
  8
0
 10
4683.276058066364385
 20
320.8345003557217865
 30
0.0
 40
0.03
 50
270.0
 51
359.9999999999902229
  0
ARC
  5
22E41
  8
0
 10
4680.7714865052403184
 20
320.086530014064806
 30
0.0
 40
2.3065192534747299
 50
89.9333819986501339
 51
135.0666180035127013
  0
ARC
  5
22E42
  8
0
 10
4680.7979185605172461
 20
320.0226735573056089
 30
0.0
 40
1.563455574541458
 50
89.1599561620762131
 51
134.1284575886255936
  0
LINE
  5
22E43
  8
0
 10
4678.2212250591310294
 20
320.8815454388044941
 30
0.0
 11
4678.8752897426957134
 21
320.2274807552391849
 31
0.0
  0
LINE
  5
22E44
  8
0
 10
4678.1070182251887672
 20
320.7567501807470194
 30
0.0
 11
4677.605921008704172
 21
320.255652964262481
 31
0.0
  0
LINE
  5
22E45
  8
0
 10
4678.1070182258881687
 20
320.8133187240468942
 30
0.0
 11
4678.1752661795007953
 21
320.8815484995449765
 31
0.0
  0
LINE
  5
22E46
  8
0
 10
4678.1070182258881687
 20
320.8133187240468942
 30
0.0
 11
4678.1070182251887672
 21
320.7567501807470194
 31
0.0
  0
ARC
  5
22E47
  8
0
 10
4678.1982440887431949
 20
320.8585644684159774
 30
0.0
 40
0.0325
 50
44.9999999999976907
 51
134.9923685037022949
  0
LINE
  5
22E48
  8
0
 10
4677.6166937709376725
 20
320.1239973640447261
 30
0.0
 11
4678.1166108248371529
 21
319.6234134312982178
 31
0.0
  0
ARC
  5
22E49
  8
0
 10
4677.8729005768745992
 20
320.2112301116346202
 30
0.0
 40
0.2706501055905247
 50
170.5530763528134059
 51
198.8025724625447026
  0
ARC
  5
22E4A
  8
0
 10
4677.5532842770553543
 20
320.0955396187881092
 30
0.0
 40
0.0695025695899763
 50
263.7365766437583829
 51
24.1702153757531484
  0
LINE
  5
22E4B
  8
0
 10
4678.7504944846377839
 20
320.113273921296809
 30
0.0
 11
4678.2493860628637776
 21
319.6121745881719107
 31
0.0
  0
LINE
  5
22E4C
  8
0
 10
4678.8070630279389661
 20
320.1132739219967789
 30
0.0
 11
4678.8752928034364231
 21
320.1815218756102013
 31
0.0
  0
LINE
  5
22E4D
  8
0
 10
4678.8070630279389661
 20
320.1132739219967789
 30
0.0
 11
4678.7504944846377839
 21
320.113273921296809
 31
0.0
  0
ARC
  5
22E4E
  8
0
 10
4678.8523087723078788
 20
320.2044997848506114
 30
0.0
 40
0.0325
 50
315.0076314963092159
 51
44.9999999999930935
  0
ARC
  5
22E4F
  8
0
 10
4678.1999379320550361
 20
319.8179614115975937
 30
0.0
 40
0.2116443581485327
 50
246.8156152478368881
 51
283.5113417391651183
  0
ARC
  5
22E50
  8
0
 10
4678.0898730352755592
 20
319.5587184890475783
 30
0.0
 40
0.0700000000110899
 50
67.5403103814530255
 51
185.5465202183686984
  0
LINE
  5
22E52
  8
0
 10
4680.7741683025633392
 20
322.3930477084718973
 30
0.0
 11
4682.8060580663632209
 21
322.393047708371796
 31
0.0
  0
LINE
  5
22E53
  8
0
 10
4680.8208403913931761
 20
321.5859610942719087
 30
0.0
 11
4682.8060580663632209
 21
321.5859610942719087
 31
0.0
  0
LINE
  5
22E54
  8
0
 10
4677.1891409220706919
 20
320.2722503433632824
 30
0.0
 11
4678.2659946486537592
 21
319.1953966167811245
 31
0.0
  0
ARC
  5
22E55
  8
0
 10
4678.089865309578272
 20
319.5587289132002979
 30
0.0
 40
0.069993318903433
 50
67.531205977353693
 51
185.5556246224419965
  0
ARC
  5
22E56
  8
0
 10
4677.494668296951204
 20
319.5009239932347782
 30
0.0
 40
0.5279999998366434
 50
84.4534797960975823
 51
96.4053889983495651
  0
ARC
  5
22E57
  8
0
 10
4677.4943450118043984
 20
319.5009459944229775
 30
0.0
 40
0.5283237320302837
 50
353.596150343999625
 51
5.5402185541556479
  0
LINE
  5
22E58
  8
0
 10
4676.6316086759406971
 20
319.7338792893834807
 30
0.0
 11
4677.175741520615702
 21
320.2722857827881171
 31
0.0
  0
LINE
  5
22E59
  8
0
 10
4676.6315524221736268
 20
319.7126101289615008
 30
0.0
 11
4677.7063544342518071
 21
318.6378081168829226
 31
0.0
  0
LINE
  5
22E5A
  8
0
 10
4676.2984342691870552
 20
319.9184490613471894
 30
0.0
 11
4677.9121933666383484
 21
318.3046899638973173
 31
0.0
  0
LINE
  5
22E5B
  8
0
 10
4676.2418657266925948
 20
319.9184490613475873
 30
0.0
 11
4674.7399709234159673
 21
318.4165542581197883
 31
0.0
  0
LINE
  5
22E5C
  8
0
 10
4674.7399709234477996
 20
318.3599857155920745
 30
0.0
 11
4676.3537402255678899
 21
316.746216417152084
 31
0.0
  0
ARC
  5
22E5D
  8
0
 10
4676.2701499979402797
 20
319.890164790099675
 30
0.0
 40
0.04
 50
44.9999999999930935
 51
134.9999999990558024
  0
ARC
  5
22E5E
  8
0
 10
4674.7682551946627427
 20
318.388269986871876
 30
0.0
 40
0.04
 50
134.9999999990535002
 51
225.0000000653467112
  0
ARC
  5
22E5F
  8
0
 10
4676.6421590238905992
 20
319.7232167306793258
 30
0.0
 40
0.015
 50
134.6969230695733017
 51
224.9999999999976978
  0
ARC
  5
22E60
  8
0
 10
4677.1824234076502762
 20
320.2655328289421277
 30
0.0
 40
0.0095
 50
44.9999999999976907
 51
134.6969230695756039
  0
LINE
  5
22E61
  8
0
 10
4676.7128695536630403
 20
319.6312929974719168
 30
0.0
 11
4676.6492299433630251
 21
319.5676533871719016
 31
0.0
  0
LINE
  5
22E62
  8
0
 10
4677.7276235946746965
 20
318.6378643706501066
 30
0.0
 11
4678.2660300880788782
 21
319.1819972153243725
 31
0.0
  0
LINE
  5
22E63
  8
0
 10
4677.9121933666383484
 20
318.2481214214028
 30
0.0
 11
4676.4102985634108336
 21
316.7462266181256041
 31
0.0
  0
ARC
  5
22E64
  8
0
 10
4677.8839090953906634
 20
318.2764056926498029
 30
0.0
 40
0.04
 50
315.0000000009533778
 51
44.9999999999976907
  0
ARC
  5
22E65
  8
0
 10
4676.3820142921631486
 20
316.7745108893726069
 30
0.0
 40
0.04
 50
225.0206679582871914
 51
315.0000000009558221
  0
ARC
  5
22E66
  8
0
 10
4677.7169610359705985
 20
318.6484147186006908
 30
0.0
 40
0.015
 50
224.9999999999930935
 51
315.3030769304288015
  0
ARC
  5
22E67
  8
0
 10
4678.2592771342333435
 20
319.1886791023597993
 30
0.0
 40
0.0095
 50
315.3030769304288015
 51
44.9999999999930935
  0
LINE
  5
22E68
  8
0
 10
4677.6250373027623937
 20
318.7191252483726203
 30
0.0
 11
4677.5613976924623785
 21
318.6554856380724914
 31
0.0
  0
LINE
  5
22E69
  8
0
 10
4675.4495380783200744
 20
317.5400239124285804
 30
0.0
 11
4675.4356861682481394
 21
317.5217254696092937
 31
0.0
  0
LINE
  5
22E6A
  8
0
 10
4675.4493252377287718
 20
317.5353688222890014
 30
0.0
 11
4675.4644886755631887
 21
317.5555431376621982
 31
0.0
  0
LINE
  5
22E6B
  8
0
 10
4675.4682334685630849
 20
317.5542604259717905
 30
0.0
 11
4675.4842689111328582
 21
317.5761916612668188
 31
0.0
  0
ARC
  5
22E6C
  8
0
 10
4675.6835618001123294
 20
317.6929636718433017
 30
0.0
 40
0.3163254431202187
 50
218.8741575057993032
 51
225.4029584340622989
  0
ARC
  5
22E6D
  8
0
 10
4675.4534429319792252
 20
317.5090785747635778
 30
0.0
 40
0.021800151546158
 50
144.540400684126098
 51
222.2032967369241874
  0
ARC
  5
22E6E
  8
0
 10
4675.4003037991969904
 20
317.4098189923362838
 30
0.0
 40
0.0884244031582143
 50
43.5063960005645569
 51
55.2235771883722322
  0
ARC
  5
22E6F
  8
0
 10
4675.5265010529028586
 20
317.5356668917983143
 30
0.0
 40
0.0925851165391509
 50
215.0853138626654868
 51
226.2735521472606024
  0
ARC
  5
22E70
  8
0
 10
4675.600635455192787
 20
317.6140525812572264
 30
0.0
 40
0.1840699575295267
 50
215.1647923125171928
 51
226.57644692943569
  0
ARC
  5
22E71
  8
0
 10
4675.4679196704300921
 20
317.5222592301274744
 30
0.0
 40
0.0227511391820217
 50
144.815099024717
 51
218.6777105390916915
  0
ARC
  5
22E72
  8
0
 10
4675.4331476737543198
 20
317.4405588902858995
 30
0.0
 40
0.0637330358335514
 50
44.2654301656263982
 51
60.6403603690371824
  0
ARC
  5
22E73
  8
0
 10
4675.5313370029844009
 20
317.5363916339459252
 30
0.0
 40
0.0781288504920271
 50
211.0396070053949984
 51
224.377168169286108
  0
ARC
  5
22E74
  8
0
 10
4675.4868298490982852
 20
317.5409291323521188
 30
0.0
 40
0.02286419315047
 50
143.9163165020964925
 51
212.598401431281701
  0
ARC
  5
22E75
  8
0
 10
4675.7340835215327388
 20
317.6990447330456959
 30
0.0
 40
0.3163517085856444
 50
212.598401431281701
 51
214.9010412637144043
  0
ARC
  5
22E76
  8
0
 10
4675.6445265868378556
 20
317.6522643274699931
 30
0.0
 40
0.2165195386465768
 50
218.3099021091626923
 51
225.2773150809755123
  0
ARC
  5
22E77
  8
0
 10
4675.4709863636444425
 20
317.4823181039228075
 30
0.0
 40
0.035115022357942
 50
39.1332258684796201
 51
69.2203679926439435
  0
ARC
  5
22E78
  8
0
 10
4675.541935761249988
 20
317.5446303950723745
 30
0.0
 40
0.0655012073560608
 50
206.749455936184404
 51
222.796846514271806
  0
ARC
  5
22E79
  8
0
 10
4675.5017711054651954
 20
317.5891323763337937
 30
0.0
 40
0.0808500597807387
 50
205.5806757029066887
 51
224.2912807030529052
  0
ARC
  5
22E7A
  8
0
 10
4675.3803707223560195
 20
317.4614033496645789
 30
0.0
 40
0.1047154048862728
 50
47.2449712146372818
 51
62.4239782539134893
  0
ARC
  5
22E7B
  8
0
 10
4675.5005478082302943
 20
317.584465720535718
 30
0.0
 40
0.0598788488996958
 50
195.8682502484963948
 51
222.0083507799108133
  0
ARC
  5
22E7C
  8
0
 10
4675.4212845153097078
 20
317.5061545331810748
 30
0.0
 40
0.0656188518326897
 50
45.4582723070111427
 51
70.7200986709920585
  0
ARC
  5
22E7D
  8
0
 10
4675.5017529537553855
 20
317.5902752554497965
 30
0.0
 40
0.040294065824921
 50
184.7608628219859099
 51
225.5490735673714084
  0
ARC
  5
22E7E
  8
0
 10
4675.2504955050217177
 20
317.2647070334975865
 30
0.0
 40
0.3894517668989213
 50
44.172334779676099
 51
53.1112787304930976
  0
ARC
  5
22E7F
  8
0
 10
4675.4382934902996567
 20
317.5084353614225847
 30
0.0
 40
0.081881960707731
 50
55.8415030579498719
 51
73.4644650973350934
  0
LINE
  5
22E80
  8
0
 10
4675.3778406798628566
 20
317.6036271210718951
 30
0.0
 11
4675.3979929574634298
 21
317.6175955069718952
 31
0.0
  0
LINE
  5
22E81
  8
0
 10
4675.3472149648641789
 20
317.671175497071772
 30
0.0
 11
4675.3691010357633786
 21
317.6859091597718816
 31
0.0
  0
LINE
  5
22E82
  8
0
 10
4675.2716826102632695
 20
317.7549756314717797
 30
0.0
 11
4675.288502798663103
 21
317.7751000532717853
 31
0.0
  0
LINE
  5
22E83
  8
0
 10
4675.1492401624245758
 20
317.814199952242177
 30
0.0
 11
4675.1618963093442289
 21
317.8286123193241792
 31
0.0
  0
LINE
  5
22E84
  8
0
 10
4675.2425304659036556
 20
317.7326203054988127
 30
0.0
 11
4675.2646927117366431
 21
317.7467222732365144
 31
0.0
  0
LINE
  5
22E85
  8
0
 10
4675.170516993272031
 20
317.8188383487482724
 30
0.0
 11
4675.1863504236016524
 21
317.8367849064414941
 31
0.0
  0
LINE
  5
22E86
  8
0
 10
4675.1698661537920998
 20
317.8439128444218227
 30
0.0
 11
4675.1920350708633123
 21
317.8572914210719205
 31
0.0
  0
LINE
  5
22E87
  8
0
 10
4675.1157301391849614
 20
317.9497165328446044
 30
0.0
 11
4675.0989406582420997
 21
317.931404393688922
 31
0.0
  0
LINE
  5
22E88
  8
0
 10
4675.0745486233636257
 20
317.9179283227718997
 30
0.0
 11
4675.0892480733637058
 21
317.9339079580719272
 31
0.0
  0
LINE
  5
22E89
  8
0
 10
4675.1461376042680058
 20
317.8307097713624785
 30
0.0
 11
4675.1641737995605581
 21
317.8417035470777137
 31
0.0
  0
LINE
  5
22E8A
  8
0
 10
4675.0395555485720251
 20
317.9728473107915079
 30
0.0
 11
4675.059445451933243
 21
317.9840858076548216
 31
0.0
  0
LINE
  5
22E8B
  8
0
 10
4674.9707860179732961
 20
318.0623044742749812
 30
0.0
 11
4674.9866946981637739
 21
318.0785144777718756
 31
0.0
  0
LINE
  5
22E8C
  8
0
 10
4674.9026057454630063
 20
318.1319263214717807
 30
0.0
 11
4674.9165735870174103
 21
318.1456548490373279
 31
0.0
  0
ARC
  5
22E8D
  8
0
 10
4679.3305791044822399
 20
321.3368347298771255
 30
0.0
 40
5.4500003032790296
 50
214.3746991126523085
 51
215.8708771558731883
  0
ARC
  5
22E8E
  8
0
 10
4674.9166908672577847
 20
318.1176197083905777
 30
0.0
 40
0.0200765991596874
 50
134.5530298322312035
 51
216.5004252465355989
  0
ARC
  5
22E8F
  8
0
 10
4675.5181033546814433
 20
318.517198415923076
 30
0.0
 40
0.742104292586159
 50
213.6785110551838898
 51
219.3229124020656116
  0
ARC
  5
22E90
  8
0
 10
4674.9601646472583525
 20
318.0588800799374098
 30
0.0
 40
0.0200827182115221
 50
216.500998210340498
 51
288.5386148325828799
  0
ARC
  5
22E91
  8
0
 10
4673.6439161240132307
 20
317.1250160291900215
 30
0.0
 40
1.6313677141344161
 50
35.2806752808274666
 51
39.560077488608222
  0
ARC
  5
22E92
  8
0
 10
4675.1556255203058754
 20
318.3137132619527847
 30
0.0
 40
0.2948279623037178
 50
210.5144160135006075
 51
215.1920397126519902
  0
ARC
  5
22E93
  8
0
 10
4674.9858687377518436
 20
318.0478225999692086
 30
0.0
 40
0.0209033734999185
 50
136.0207979762402886
 51
202.4518467980284129
  0
ARC
  5
22E94
  8
0
 10
4675.2427715912835993
 20
318.1977374752631818
 30
0.0
 40
0.3181670144466821
 50
209.7537944078206067
 51
223.8262091481572043
  0
ARC
  5
22E95
  8
0
 10
4675.0292793020180397
 20
317.9917592135469135
 30
0.0
 40
0.0215235059655709
 50
221.7920465703971047
 51
298.518530920114415
  0
ARC
  5
22E96
  8
0
 10
4675.0377461438665705
 20
317.9566649290297278
 30
0.0
 40
0.0200198123443247
 50
134.4242992273873938
 51
218.6282884062997027
  0
ARC
  5
22E97
  8
0
 10
4601.3514998008686234
 20
259.0741187310994178
 30
0.0
 40
94.302920911916118
 50
38.5838006719335596
 51
38.6282884062996814
  0
ARC
  5
22E98
  8
0
 10
4675.0834330963753018
 20
317.8994244763018742
 30
0.0
 40
0.0200062241178193
 50
218.5838006719309874
 51
266.0474371455387086
  0
ARC
  5
22E99
  8
0
 10
4675.089572818277702
 20
317.9040967760357148
 30
0.0
 40
0.0203788157602831
 50
137.0287674801645892
 51
208.0242769104382035
  0
ARC
  5
22E9A
  8
0
 10
4675.4155316440510433
 20
318.1225491718295757
 30
0.0
 40
0.4126703388625878
 50
213.5431791987996917
 51
224.1969353121623101
  0
ARC
  5
22E9B
  8
0
 10
4675.1354396083206666
 20
317.8489432234052856
 30
0.0
 40
0.0211401487859388
 50
221.7527186352045021
 51
300.4011528669498148
  0
ARC
  5
22E9C
  8
0
 10
4675.1151362980908743
 20
317.9169072838993202
 30
0.0
 40
0.02173626598826
 50
138.1691719438042014
 51
208.18996909958571
  0
ARC
  5
22E9D
  8
0
 10
4675.2750576282724069
 20
318.0026203048701063
 30
0.0
 40
0.2031792427363559
 50
208.18996909958571
 51
229.4276780173339034
  0
ARC
  5
22E9E
  8
0
 10
4675.1600194245138482
 20
317.86591778814892
 30
0.0
 40
0.0245680341640741
 50
225.8549677330904046
 51
279.7353071040034251
  0
ARC
  5
22E9F
  8
0
 10
4675.1606315248482133
 20
317.8592683299621058
 30
0.0
 40
0.0179184069581624
 50
281.4018594789545773
 51
301.0222624556324149
  0
ARC
  5
22EA0
  8
0
 10
4675.1641313511981934
 20
317.8010605302823137
 30
0.0
 40
0.0198593029205539
 50
138.576036376219605
 51
222.6906688120222952
  0
ARC
  5
22EA1
  8
0
 10
4675.2120709587934471
 20
317.7457295311351118
 30
0.0
 40
0.020238709603763
 50
223.8101592253065917
 51
316.5973409585068907
  0
ARC
  5
22EA2
  8
0
 10
4675.2336050719532068
 20
317.7520545172313859
 30
0.0
 40
0.0213531588429711
 50
230.8601145490169984
 51
295.3345996995603855
  0
ARC
  5
22EA3
  8
0
 10
4675.3944507670594248
 20
317.9387981280788722
 30
0.0
 40
0.267809527807206
 50
214.901013506923988
 51
229.3885555525870075
  0
ARC
  5
22EA4
  8
0
 10
4675.2454061559983529
 20
317.8348192476796044
 30
0.0
 40
0.0860792230827927
 50
204.8726990021438041
 51
214.901013506923988
  0
ARC
  5
22EA5
  8
0
 10
4675.1873681742727058
 20
317.8058010476207755
 30
0.0
 40
0.021305715707413
 50
142.2718529505717129
 51
199.7142038021536052
  0
ARC
  5
22EA6
  8
0
 10
4677.156672326577791
 20
319.4608581173401944
 30
0.0
 40
2.6131230779035182
 50
219.8164850600878992
 51
221.4306982856340085
  0
ARC
  5
22EA7
  8
0
 10
4675.5698283565061502
 20
318.0401461248449095
 30
0.0
 40
0.48111964295825
 50
220.6230668840435101
 51
225.7895822409450091
  0
ARC
  5
22EA8
  8
0
 10
4675.2453748992065812
 20
317.7066246663212041
 30
0.0
 40
0.0158169358433819
 50
225.7895822409450091
 51
272.3101766487903888
  0
ARC
  5
22EA9
  8
0
 10
4675.263919026547228
 20
317.6995521950519787
 30
0.0
 40
0.0199219936735539
 50
138.6351386050220924
 51
205.994823291136413
  0
ARC
  5
22EAA
  8
0
 10
4675.5134086986372495
 20
317.8773101139908022
 30
0.0
 40
0.3260047364539572
 50
214.8929851825666901
 51
228.7519230856705121
  0
ARC
  5
22EAB
  8
0
 10
4675.3135689101518437
 20
317.6483318091566161
 30
0.0
 40
0.0220978527722281
 50
226.8894876040282043
 51
302.1486777106831028
  0
ARC
  5
22EAC
  8
0
 10
4677.5718908410153745
 20
315.822165685365178
 30
0.0
 40
2.9950226857422688
 50
140.4496847010354088
 51
140.858977580068796
  0
ARC
  5
22EAD
  8
0
 10
4676.0336971772821926
 20
318.3334806675255777
 30
0.0
 40
0.9863123613744678
 50
217.2526840060646975
 51
218.1640574714741945
  0
ARC
  5
22EAE
  8
0
 10
4674.632151292214985
 20
317.0767078264922816
 30
0.0
 40
0.9073079472245099
 50
42.363275743083129
 51
46.8679850770408493
  0
ARC
  5
22EAF
  8
0
 10
4675.4179167577303815
 20
317.8028799123885051
 30
0.0
 40
0.1627544161330381
 50
224.8592750385635952
 51
232.2287131333364982
  0
ARC
  5
22EB0
  8
0
 10
4675.3386976578140093
 20
317.7003471134503911
 30
0.0
 40
0.0331840614835698
 50
231.9131331746999081
 51
256.6940513616739281
  0
ARC
  5
22EB1
  8
0
 10
4675.3354199356108438
 20
317.6888541422363232
 30
0.0
 40
0.0212522283520661
 50
258.1624895694822044
 51
303.7108525790304725
  0
ARC
  5
22EB2
  8
0
 10
4675.2966908622056508
 20
317.7422281720093906
 30
0.0
 40
0.0298018876052521
 50
177.2699181932210024
 51
209.9092963323124934
  0
ARC
  5
22EB3
  8
0
 10
4675.4073878333647372
 20
317.8059056554080257
 30
0.0
 40
0.1575071784725111
 50
209.9092963323124934
 51
218.9423839324643097
  0
ARC
  5
22EB4
  8
0
 10
4675.2877905318136982
 20
317.7415433916441998
 30
0.0
 40
0.0209735596273912
 50
140.175600232021111
 51
174.2418442022498084
  0
ARC
  5
22EB5
  8
0
 10
4675.3658870351509904
 20
317.6213527561189949
 30
0.0
 40
0.0213796108413301
 50
240.2084523304210109
 51
303.9945631467190879
  0
ARC
  5
22EB6
  8
0
 10
4675.3854526506211187
 20
317.6555156513874181
 30
0.0
 40
0.0607485923969616
 50
227.6164932987061889
 51
240.2026956941521973
  0
ARC
  5
22EB7
  8
0
 10
4675.5690089067002191
 20
317.8566516486970954
 30
0.0
 40
0.3330509768148098
 50
217.2385587481290088
 51
227.6164932987061889
  0
ARC
  5
22EB8
  8
0
 10
4675.3308783716502148
 20
317.6756480184482143
 30
0.0
 40
0.0339381788831391
 50
177.0884381408257013
 51
217.2385587481290088
  0
ARC
  5
22EB9
  8
0
 10
4675.3170905547467555
 20
317.6735106811221954
 30
0.0
 40
0.0204739438058374
 50
134.9479581520477893
 51
169.1294100610267037
  0
ARC
  5
22EBA
  8
0
 10
4675.3523724102124106
 20
317.6106210626826964
 30
0.0
 40
0.0206012461991313
 50
151.6254544038557981
 51
203.054040904516313
  0
ARC
  5
22EBB
  8
0
 10
4675.5709484339222399
 20
317.7661571259660036
 30
0.0
 40
0.2884225028037013
 50
214.5576756558781142
 51
231.2769451339977138
  0
ARC
  5
22EBC
  8
0
 10
4675.4029084548374158
 20
317.5652138265930944
 30
0.0
 40
0.0270761899474688
 50
242.780579885363494
 51
281.118559084279525
  0
ARC
  5
22EBD
  8
0
 10
4675.4050270078787435
 20
317.5544339555095803
 30
0.0
 40
0.016090112960357
 50
281.118559084279525
 51
314.9157352952065025
  0
ARC
  5
22EBE
  8
0
 10
4676.0450670315412935
 20
318.1812334011135022
 30
0.0
 40
0.8958397049130467
 50
220.4409728082194988
 51
227.2481457391745039
  0
ARC
  5
22EBF
  8
0
 10
4674.9078308184343769
 20
317.2448045685694069
 30
0.0
 40
0.6158181600866991
 50
37.2546648046631503
 51
44.0791852832180311
  0
ARC
  5
22EC0
  8
0
 10
4675.3326100060476165
 20
317.5678687535715881
 30
0.0
 40
0.0821442654084954
 50
19.3828480318862191
 51
37.2546648046631503
  0
ARC
  5
22EC1
  8
0
 10
4675.4417475026002649
 20
317.6666035605975935
 30
0.0
 40
0.0781666833702643
 50
226.0741389675741004
 51
246.1156927234283955
  0
ARC
  5
22EC2
  8
0
 10
4675.2984363707573721
 20
317.7848519881003995
 30
0.0
 40
0.0304869407367363
 50
174.3107845795223056
 51
227.4915856120433943
  0
ARC
  5
22EC3
  8
0
 10
4675.2301771795182503
 20
317.7046224134921886
 30
0.0
 40
0.0914821051576901
 50
50.3896511669248781
 51
65.5100410098719834
  0
ARC
  5
22EC4
  8
0
 10
4675.0225619235889098
 20
317.4537509536717153
 30
0.0
 40
0.4171208372619958
 50
33.8909975302428634
 51
50.3896511669248781
  0
ARC
  5
22EC5
  8
0
 10
4675.3111098461540678
 20
317.6475813084246056
 30
0.0
 40
0.0695145800693739
 50
11.9176726408232891
 51
33.8909975302428634
  0
ARC
  5
22EC6
  8
0
 10
4675.391613800930827
 20
317.7097535269251125
 30
0.0
 40
0.0494207752669464
 50
222.340606639317798
 51
255.3637265600289084
  0
ARC
  5
22EC7
  8
0
 10
4674.7011776317758631
 20
317.3356454099493931
 30
0.0
 40
0.6975194856583298
 50
35.7982657348676199
 51
47.17334480052223
  0
ARC
  5
22EC8
  8
0
 10
4674.6982351778779048
 20
317.5273275771594967
 30
0.0
 40
0.5938976954007877
 50
33.7513880470705914
 51
45.3529096617059366
  0
ARC
  5
22EC9
  8
0
 10
4675.128247724661378
 20
317.8146678436982029
 30
0.0
 40
0.0767176308524257
 50
14.1476557007446804
 51
33.7513880470705914
  0
ARC
  5
22ECA
  8
0
 10
4675.2254008448771856
 20
317.8877265648702064
 30
0.0
 40
0.0588846940107114
 50
219.8027968408075878
 51
247.2594416928747023
  0
ARC
  5
22ECB
  8
0
 10
4675.142854358178738
 20
317.9694255059827128
 30
0.0
 40
0.0468068596731287
 50
186.7372756048837061
 51
219.2328243531580085
  0
ARC
  5
22ECC
  8
0
 10
4675.0744549335959164
 20
317.9138601554720935
 30
0.0
 40
0.0546600308184196
 50
41.1877277231284893
 51
66.3625921560319654
  0
ARC
  5
22ECD
  8
0
 10
4675.1640373690552224
 20
317.9920656642194103
 30
0.0
 40
0.1014063377021426
 50
204.3004397560752068
 51
218.5004251596500922
  0
ARC
  5
22ECE
  8
0
 10
4674.9770086866210477
 20
317.8296681111970088
 30
0.0
 40
0.1533327088226387
 50
39.2595957051446405
 51
51.9023019438702775
  0
ARC
  5
22ECF
  8
0
 10
4672.2512587508826982
 20
315.6853119556225238
 30
0.0
 40
3.6118571045903982
 50
38.3679654120419613
 51
39.3510512996341077
  0
ARC
  5
22ED0
  8
0
 10
4674.3111891138532883
 20
317.4828451406056047
 30
0.0
 40
0.9006274223248752
 50
33.8172715205518912
 51
41.4062539726903225
  0
ARC
  5
22ED1
  8
0
 10
4674.958958976935719
 20
317.9167721008466856
 30
0.0
 40
0.1209490255846624
 50
21.3482920154215385
 51
33.8172715205518912
  0
ARC
  5
22ED2
  8
0
 10
4675.1306490449596822
 20
318.0444259380331005
 30
0.0
 40
0.1023654858524543
 50
219.3149616168713862
 51
234.7772431900681909
  0
ARC
  5
22ED3
  8
0
 10
4675.041677034823806
 20
318.1173511783010781
 30
0.0
 40
0.0759811107049977
 50
197.4751963197680027
 51
216.4210830593665946
  0
ARC
  5
22ED4
  8
0
 10
4674.9303320131357395
 20
318.0345328966699867
 30
0.0
 40
0.0714921796632857
 50
37.9660395704738818
 51
57.06377947294677
  0
ARC
  5
22ED5
  8
0
 10
4674.8938904793631082
 20
317.9324362974085716
 30
0.0
 40
0.1242980259773315
 50
29.0797459164575507
 51
45.7185863169328002
  0
ARC
  5
22ED6
  8
0
 10
4675.0822130332398956
 20
318.0764154189308783
 30
0.0
 40
0.115474762479657
 50
208.439028158160113
 51
226.3593040752803915
  0
ARC
  5
22ED7
  8
0
 10
4675.0627146441356672
 20
317.8285989839415038
 30
0.0
 40
0.0783490112657335
 50
26.1398820405811314
 51
52.6999158225226267
  0
ARC
  5
22ED8
  8
0
 10
4675.181023260523034
 20
317.9258476088081125
 30
0.0
 40
0.0789719856205096
 50
206.2465360085766122
 51
232.5932620482043092
  0
ARC
  5
22ED9
  8
0
 10
4674.9771034651621449
 20
317.7650651257515051
 30
0.0
 40
0.1561820582765883
 50
32.7304488134785601
 51
45.9659735032957428
  0
ARC
  5
22EDA
  8
0
 10
4675.2186523456257419
 20
317.9631638581900006
 30
0.0
 40
0.1582729484235176
 50
212.8333647447377075
 51
225.8933655210994971
  0
ARC
  5
22EDB
  8
0
 10
4675.1172733235280248
 20
317.698174200521521
 30
0.0
 40
0.1043943322902133
 50
30.9402923700997192
 51
50.7952941439879311
  0
ARC
  5
22EDC
  8
0
 10
4675.2729600073507754
 20
317.8328811316205247
 30
0.0
 40
0.1046032343750523
 50
210.960318687910501
 51
230.775267826190003
  0
ARC
  5
22EDD
  8
0
 10
4675.2464240666358819
 20
317.6543148641496259
 30
0.0
 40
0.0718418867108438
 50
29.7058038623931608
 51
57.7246055572078873
  0
ARC
  5
22EDE
  8
0
 10
4675.3328817283254466
 20
317.7369795070637224
 30
0.0
 40
0.0528557648622278
 50
204.5047998055518121
 51
242.9256096140883017
  0
ARC
  5
22EDF
  8
0
 10
4675.2641641305517624
 20
317.5757930384070846
 30
0.0
 40
0.0872495702484655
 50
30.6367922809497983
 51
54.4098826086977994
  0
ARC
  5
22EE0
  8
0
 10
4675.3862030833943209
 20
317.6877126160507032
 30
0.0
 40
0.0821982212569788
 50
209.8946295655113943
 51
235.1520453241361963
  0
ARC
  5
22EE1
  8
0
 10
4675.1519760476139709
 20
317.5500194888667806
 30
0.0
 40
0.1648068080552661
 50
35.6123668839092176
 51
47.9797723826949607
  0
ARC
  5
22EE2
  8
0
 10
4675.3699780541510336
 20
317.7449088708657996
 30
0.0
 40
0.1297872912805945
 50
213.9344552772905104
 51
229.6576839893060935
  0
LINE
  5
22EE3
  8
0
 10
4675.1551832556642694
 20
317.8362234543217824
 30
0.0
 11
4675.170516993272031
 21
317.8188383487482724
 31
0.0
  0
LINE
  5
22EE4
  8
0
 10
4675.1698661537920998
 20
317.8439128444218227
 30
0.0
 11
4675.1797337552743556
 21
317.8292851784981963
 31
0.0
  0
LINE
  5
22EE5
  8
0
 10
4675.5337667921421598
 20
317.4557851334744782
 30
0.0
 11
4675.5154666942826225
 21
317.4419354099907196
 31
0.0
  0
LINE
  5
22EE6
  8
0
 10
4675.5291116766038613
 20
317.4555728491246782
 30
0.0
 11
4675.5492878037193805
 21
317.4707338762107725
 31
0.0
  0
LINE
  5
22EE7
  8
0
 10
4675.5480055395046293
 20
317.4744788224559784
 30
0.0
 11
4675.5699386907272128
 21
317.4905116443363795
 31
0.0
  0
ARC
  5
22EE8
  8
0
 10
4675.6867345140763064
 20
317.6897905787478749
 30
0.0
 40
0.3163254431202186
 50
224.5901952649660984
 51
231.118996193231709
  0
ARC
  5
22EE9
  8
0
 10
4675.502821921290888
 20
317.4596936847786992
 30
0.0
 40
0.0218001515461579
 50
227.7898569620878106
 51
305.4527530149072732
  0
ARC
  5
22EEA
  8
0
 10
4675.4035549980662836
 20
317.4065656462930178
 30
0.0
 40
0.0884256551532756
 50
34.7696180602756399
 51
46.4869590812974067
  0
ARC
  5
22EEB
  8
0
 10
4675.5294192207602464
 20
317.5327489530860134
 30
0.0
 40
0.0925855278013961
 50
223.7195299861562034
 51
234.9078274019394996
  0
ARC
  5
22EEC
  8
0
 10
4675.6078135151419701
 20
317.606873663547276
 30
0.0
 40
0.1840699575295267
 50
223.4167067695557876
 51
234.8283613865002053
  0
ARC
  5
22EED
  8
0
 10
4675.5160043063942794
 20
317.4741688481636857
 30
0.0
 40
0.0227511391820217
 50
231.3154431599016903
 51
305.1780546743140121
  0
ARC
  5
22EEE
  8
0
 10
4675.434298278287315
 20
317.4394056010382883
 30
0.0
 40
0.0637348694437451
 50
29.3529112190143984
 51
45.7300033463636595
  0
ARC
  5
22EEF
  8
0
 10
4675.5301432194000881
 20
317.5375829298233725
 30
0.0
 40
0.0781269614101054
 50
225.6140058266776123
 51
238.9536273439661898
  0
ARC
  5
22EF0
  8
0
 10
4675.5346764680707565
 20
317.493076795819718
 30
0.0
 40
0.02286419315047
 50
237.3947522677347024
 51
306.0768371969239752
  0
ARC
  5
22EF1
  8
0
 10
4675.692821612098669
 20
317.7403115731804064
 30
0.0
 40
0.3163517085856443
 50
235.092112435311293
 51
237.3947522677347024
  0
ARC
  5
22EF2
  8
0
 10
4675.6460305056561992
 20
317.6507602289373722
 30
0.0
 40
0.2165195386465767
 50
224.7158386180335015
 51
231.6832515898566101
  0
ARC
  5
22EF3
  8
0
 10
4675.4760553243868344
 20
317.4772358878054206
 30
0.0
 40
0.03512428018187
 50
20.7747793715746383
 51
50.864162201297539
  0
ARC
  5
22EF4
  8
0
 10
4675.5383815447894449
 20
317.5481769582934248
 30
0.0
 40
0.0654952212427005
 50
227.1901434131698068
 51
243.2437719077423992
  0
ARC
  5
22EF5
  8
0
 10
4675.5828814970473104
 20
317.5080122922514079
 30
0.0
 40
0.0808500597807387
 50
225.7018729959503958
 51
244.4124779960887111
  0
ARC
  5
22EF6
  8
0
 10
4675.4551379650984018
 20
317.3866271724132844
 30
0.0
 40
0.1047154048862728
 50
27.5691754451243902
 51
42.7481824843713198
  0
ARC
  5
22EF7
  8
0
 10
4675.5782146951096365
 20
317.5067895526465804
 30
0.0
 40
0.0598788488996958
 50
227.9848029190794136
 51
254.1249034505443092
  0
ARC
  5
22EF8
  8
0
 10
4675.4998940371051503
 20
317.4275356177340086
 30
0.0
 40
0.0656188518326897
 50
19.2730550280116404
 51
44.534881392030627
  0
ARC
  5
22EF9
  8
0
 10
4675.5840243739858124
 20
317.5079940039789221
 30
0.0
 40
0.040294065824921
 50
224.4440801316488034
 51
265.2322908770339041
  0
ARC
  5
22EFA
  8
0
 10
4675.2584049015649725
 20
317.2567581960396979
 30
0.0
 40
0.3894791090421248
 50
36.882031930669342
 51
45.8220485039842913
  0
ARC
  5
22EFB
  8
0
 10
4675.5021768977403553
 20
317.4445443200652903
 30
0.0
 40
0.081881960707731
 50
16.5286886016974783
 51
34.1516506410808702
  0
LINE
  5
22EFC
  8
0
 10
4675.5973614331742283
 20
317.384080135550505
 30
0.0
 11
4675.6113322269802666
 21
317.4042307439173101
 31
0.0
  0
LINE
  5
22EFD
  8
0
 10
4675.6649061492098554
 20
317.3534463493804196
 30
0.0
 11
4675.6796424269823547
 21
317.3753306595914978
 31
0.0
  0
LINE
  5
22EFE
  8
0
 10
4675.7486972576125481
 20
317.2779039820002254
 30
0.0
 11
4675.7688236891217457
 21
317.2947217656030148
 31
0.0
  0
LINE
  5
22EFF
  8
0
 10
4675.807906947252377
 20
317.1554544582926951
 30
0.0
 11
4675.8223208265208086
 21
317.1681088829806185
 31
0.0
  0
LINE
  5
22F00
  8
0
 10
4675.7264731813120306
 20
317.2489661956130931
 30
0.0
 11
4675.7404430642109219
 21
317.2709150697206724
 31
0.0
  0
LINE
  5
22F01
  8
0
 10
4675.8125478861047668
 20
317.176730734744126
 30
0.0
 11
4675.8304963356131339
 21
317.1925620205174141
 31
0.0
  0
LINE
  5
22F02
  8
0
 10
4675.8376223038303579
 20
317.1760768991043733
 30
0.0
 11
4675.8510035293593319
 21
317.1982442174045786
 31
0.0
  0
LINE
  5
22F03
  8
0
 10
4675.9432550607707526
 20
317.1217774915776886
 30
0.0
 11
4675.9251053775496985
 21
317.1051409496523092
 31
0.0
  0
LINE
  5
22F04
  8
0
 10
4675.9116263921132486
 20
317.0807505252100214
 30
0.0
 11
4675.9277217068929531
 21
317.0955528369233889
 31
0.0
  0
LINE
  5
22F05
  8
0
 10
4675.8244163955287149
 20
317.1523499273915263
 30
0.0
 11
4675.835412326318874
 21
317.1703848089038047
 31
0.0
  0
LINE
  5
22F06
  8
0
 10
4675.9665411984005914
 20
317.0457508883710034
 30
0.0
 11
4675.9777820718381918
 21
317.0656394486971976
 31
0.0
  0
LINE
  5
22F07
  8
0
 10
4676.0559901439401074
 20
316.9769706689828013
 30
0.0
 11
4676.0722020482580774
 21
316.9928774121182755
 31
0.0
  0
LINE
  5
22F08
  8
0
 10
4676.125603843745921
 20
316.9087820778111109
 30
0.0
 11
4676.1393340402373724
 21
316.9227482788365933
 31
0.0
  0
ARC
  5
22F09
  8
0
 10
4678.886088392982856
 20
320.7108558104700933
 30
0.0
 40
4.6823991812915411
 50
234.0481628212970122
 51
235.7897184383654974
  0
ARC
  5
22F0A
  8
0
 10
4676.1112989138046032
 20
316.9228689090090825
 30
0.0
 40
0.0200765991596874
 50
233.4927284524711979
 51
315.4401238667823009
  0
ARC
  5
22F0B
  8
0
 10
4676.5109494815587823
 20
317.5242336462824824
 30
0.0
 40
0.7421042925861588
 50
230.6702412969497971
 51
236.3146426438345031
  0
ARC
  5
22F0C
  8
0
 10
4676.0525644804747571
 20
316.9663497075254099
 30
0.0
 40
0.0200827182115221
 50
161.4393013822337934
 51
233.4921554886468016
  0
ARC
  5
22F0D
  8
0
 10
4675.1185431572075686
 20
315.6502127815539893
 30
0.0
 40
1.6313677141344161
 50
50.4330762104002019
 51
54.7116130391777418
  0
ARC
  5
22F0E
  8
0
 10
4676.3074210163867974
 20
317.1617801290356056
 30
0.0
 40
0.2948279623037177
 50
234.8105006482851991
 51
239.4787376855298078
  0
ARC
  5
22F0F
  8
0
 10
4676.0415100719801558
 20
316.9920551191015079
 30
0.0
 40
0.0209033734999185
 50
247.5413069009738081
 51
313.9723557228006143
  0
ARC
  5
22F10
  8
0
 10
4676.1914556436522616
 20
317.2489400573953731
 30
0.0
 40
0.318167014446682
 50
226.1669445508863987
 51
240.23935929122581
  0
ARC
  5
22F11
  8
0
 10
4675.9854518731071948
 20
317.0354723820984759
 30
0.0
 40
0.0215235059655709
 50
151.4746227789107138
 51
228.2011071286192987
  0
ARC
  5
22F12
  8
0
 10
4675.9503586005466786
 20
317.0439434173201221
 30
0.0
 40
0.0200198123443247
 50
231.3648652926922011
 51
315.5688544716185788
  0
ARC
  5
22F13
  8
0
 10
4617.0590080170395595
 20
243.3647335048705997
 30
0.0
 40
94.3029209119161038
 50
51.3648652926921869
 51
51.4093530270824672
  0
ARC
  5
22F14
  8
0
 10
4675.8931236073849504
 20
317.0896372091925741
 30
0.0
 40
0.0200062241178193
 50
183.9457165534813043
 51
231.4093530270845065
  0
ARC
  5
22F15
  8
0
 10
4675.8977966407237545
 20
317.0957763727561201
 30
0.0
 40
0.0203788157602831
 50
241.9688767885942866
 51
312.9643862188553953
  0
ARC
  5
22F16
  8
0
 10
4676.1162879839403104
 20
317.4217090932169754
 30
0.0
 40
0.4126703388625877
 50
225.7962183868723116
 51
236.4499745002102031
  0
ARC
  5
22F17
  8
0
 10
4675.8426485691315975
 20
317.1416497527961269
 30
0.0
 40
0.0211401487859388
 50
149.5920008320773888
 51
228.240435063804
  0
ARC
  5
22F18
  8
0
 10
4675.9106102030882539
 20
317.1213383216517059
 30
0.0
 40
0.02173626598826
 50
241.8031845994565003
 51
311.8239817552041018
  0
ARC
  5
22F19
  8
0
 10
4675.9963423325261829
 20
317.2812494088012158
 30
0.0
 40
0.2031792427363558
 50
220.5654756816568067
 51
241.8031845994565003
  0
ARC
  5
22F1A
  8
0
 10
4675.8596260708090995
 20
317.1662275405146261
 30
0.0
 40
0.0245680341640741
 50
170.2578465950176962
 51
224.1381859659360885
  0
ARC
  5
22F1B
  8
0
 10
4675.8529766858100629
 20
317.166840435391407
 30
0.0
 40
0.0179184069581624
 50
148.9708912433632122
 51
168.5912942200814086
  0
ARC
  5
22F1C
  8
0
 10
4675.7947693047417488
 20
317.1703472169946849
 30
0.0
 40
0.0198593029205539
 50
227.3024848870192898
 51
311.4171173228124871
  0
ARC
  5
22F1D
  8
0
 10
4675.7394440343159658
 20
317.2182934357766726
 30
0.0
 40
0.020238709603763
 50
133.3958127405275036
 51
226.1829944736751088
  0
ARC
  5
22F1E
  8
0
 10
4675.7457715934897351
 20
317.2398267930071256
 30
0.0
 40
0.0213531588429711
 50
154.6585539994601106
 51
219.1330391499909922
  0
ARC
  5
22F1F
  8
0
 10
4675.9325344225362642
 20
317.4006501728782723
 30
0.0
 40
0.2678095278072059
 50
220.6045981463998089
 51
235.0921401920855089
  0
ARC
  5
22F20
  8
0
 10
4675.8285377334641453
 20
317.2516179873697979
 30
0.0
 40
0.0860792230827927
 50
235.0921401920855089
 51
245.120454696890107
  0
ARC
  5
22F21
  8
0
 10
4675.7995125986262792
 20
317.1935834734579203
 30
0.0
 40
0.021305715707413
 50
250.278949896880988
 51
307.7213007484376135
  0
ARC
  5
22F22
  8
0
 10
4677.4548049696550152
 20
319.1626898481184185
 30
0.0
 40
2.6131230779035182
 50
228.5624554133848108
 51
230.1766686389483993
  0
ARC
  5
22F23
  8
0
 10
4676.0339033745331108
 20
317.5760156509510921
 30
0.0
 40
0.48111964295825
 50
224.203571458071707
 51
229.3700868149554992
  0
ARC
  5
22F24
  8
0
 10
4675.7003431492857999
 20
317.2516020486128241
 30
0.0
 40
0.0158169358433819
 50
177.6829770502253893
 51
224.2035714580694048
  0
ARC
  5
22F25
  8
0
 10
4675.6932728939145818
 20
317.2701470209128729
 30
0.0
 40
0.0199219936735538
 50
243.9983304078768924
 51
311.3580150939903888
  0
ARC
  5
22F26
  8
0
 10
4675.8710606232280043
 20
317.5196154508399786
 30
0.0
 40
0.3260047364539572
 50
221.2412306133360005
 51
235.1001685164463026
  0
ARC
  5
22F27
  8
0
 10
4675.6420584410743686
 20
317.319803024513476
 30
0.0
 40
0.0220978527722281
 50
147.8444759883387007
 51
223.103666095011306
  0
ARC
  5
22F28
  8
0
 10
4673.8161621783210649
 20
319.5783431487452049
 30
0.0
 40
2.9950226857422679
 50
309.1341761189318049
 51
309.5434689979891232
  0
ARC
  5
22F29
  8
0
 10
4676.3272933430343983
 20
318.0398494177262023
 30
0.0
 40
0.9863123613744678
 50
231.8290962275322897
 51
232.7433826807871071
  0
ARC
  5
22F2A
  8
0
 10
4675.0703530395630878
 20
316.6384537150728988
 30
0.0
 40
0.9073079472245099
 50
43.1198954997845618
 51
47.6298779559208825
  0
ARC
  5
22F2B
  8
0
 10
4675.7966190117776932
 20
317.4241324043169925
 30
0.0
 40
0.1627544161330381
 50
217.7644405656799904
 51
225.1338786604636937
  0
ARC
  5
22F2C
  8
0
 10
4675.6940767476426117
 20
317.3449255566612237
 30
0.0
 40
0.0331840614835698
 50
193.2991023373488133
 51
218.080020524291001
  0
ARC
  5
22F2D
  8
0
 10
4675.682583384854297
 20
317.341649207781586
 30
0.0
 40
0.0212522283520661
 50
146.2823011199932068
 51
191.8306641295359043
  0
ARC
  5
22F2E
  8
0
 10
4675.7359527864909978
 20
317.3029137569652107
 30
0.0
 40
0.0298018876052521
 50
240.0838573667026026
 51
272.7232355058108055
  0
ARC
  5
22F2F
  8
0
 10
4675.7996434966689776
 20
317.413603118478818
 30
0.0
 40
0.157507178472511
 50
231.0507697665493083
 51
240.0838573667026026
  0
ARC
  5
22F30
  8
0
 10
4675.7352669426245484
 20
317.2940135084600115
 30
0.0
 40
0.0209735596273912
 50
275.7513094967437723
 51
309.8175534669866238
  0
ARC
  5
22F31
  8
0
 10
4675.6150856397480311
 20
317.3721243728787726
 30
0.0
 40
0.0213796108413304
 50
145.9985905522821099
 51
209.7847013685862976
  0
ARC
  5
22F32
  8
0
 10
4675.6492508726778397
 20
317.3916859060676074
 30
0.0
 40
0.0607485923969616
 50
209.7904580048297021
 51
222.3766604003320992
  0
ARC
  5
22F33
  8
0
 10
4675.8504088017780305
 20
317.575218126997072
 30
0.0
 40
0.3330509768148098
 50
222.3766604003320992
 51
232.754594950888702
  0
ARC
  5
22F34
  8
0
 10
4675.6693767184870012
 20
317.337109221860203
 30
0.0
 40
0.0339381788831391
 50
232.754594950888702
 51
272.9047155581706079
  0
ARC
  5
22F35
  8
0
 10
4675.6672377336626596
 20
317.3233216604463109
 30
0.0
 40
0.0204739438058374
 50
280.8637436380054737
 51
315.0451955469875998
  0
ARC
  5
22F36
  8
0
 10
4675.6043523315192942
 20
317.3586110303720034
 30
0.0
 40
0.0206012461991313
 50
246.9391127944765003
 51
298.3676992951480997
  0
ARC
  5
22F37
  8
0
 10
4675.7599145114490966
 20
317.5771684674400035
 30
0.0
 40
0.2884225028037011
 50
218.7162085650234076
 51
235.4354780431627887
  0
ARC
  5
22F38
  8
0
 10
4675.5589511343296181
 20
317.4091525003693164
 30
0.0
 40
0.0270761899474688
 50
168.874594614740289
 51
207.2125738136556947
  0
ARC
  5
22F39
  8
0
 10
4675.5481715164696652
 20
317.4112723414881998
 30
0.0
 40
0.016090112960357
 50
135.077418403801687
 51
168.8745946147435006
  0
ARC
  5
22F3A
  8
0
 10
4676.175047436297973
 20
318.0512374640060216
 30
0.0
 40
0.8958397049130464
 50
222.7450079598303887
 51
229.5521808907942898
  0
ARC
  5
22F3B
  8
0
 10
4675.2384827215228142
 20
316.9141131533605744
 30
0.0
 40
0.615818160086699
 50
45.9139684158115315
 51
52.7384888943456076
  0
ARC
  5
22F3C
  8
0
 10
4675.5615976612925806
 20
317.3388537348430987
 30
0.0
 40
0.0821442654084953
 50
52.7384888943456076
 51
70.6103056671213238
  0
ARC
  5
22F3D
  8
0
 10
4675.6603455085069072
 20
317.4479794327451145
 30
0.0
 40
0.0781666833702642
 50
203.8774609755921858
 51
223.9190147314261878
  0
ARC
  5
22F3E
  8
0
 10
4675.77857681084879
 20
317.3046541723614951
 30
0.0
 40
0.0304869407367363
 50
222.4540404908061078
 51
275.6823691194799721
  0
ARC
  5
22F3F
  8
0
 10
4675.6983390804889495
 20
317.2364045682817846
 30
0.0
 40
0.0914821051576901
 50
24.4831126891612705
 51
39.6035025321007979
  0
ARC
  5
22F40
  8
0
 10
4675.4474428144112608
 20
317.0288192905906044
 30
0.0
 40
0.4171208372619957
 50
39.6035025321007979
 51
56.1021561687721331
  0
ARC
  5
22F41
  8
0
 10
4675.6413076465141785
 20
317.3173440502094991
 30
0.0
 40
0.0695145800693739
 50
56.1021561687721331
 51
78.0754810581879042
  0
ARC
  5
22F42
  8
0
 10
4675.7034894840271591
 20
317.3978405754235155
 30
0.0
 40
0.0494207752669464
 50
194.6294271389596986
 51
227.6525470596955927
  0
ARC
  5
22F43
  8
0
 10
4675.329298869163722
 20
316.7074491135601875
 30
0.0
 40
0.6975194856583297
 50
42.8198088984878424
 51
54.1948879641684584
  0
ARC
  5
22F44
  8
0
 10
4675.5209806834100164
 20
316.7044837554864216
 30
0.0
 40
0.5938976954007876
 50
44.6402440373155116
 51
56.2417656519581683
  0
ARC
  5
22F45
  8
0
 10
4675.8083723303079751
 20
317.1344619647703098
 30
0.0
 40
0.0767176308524257
 50
56.2417656519581683
 51
75.8454979982494706
  0
ARC
  5
22F46
  8
0
 10
4675.8814426598337377
 20
317.2316063544697045
 30
0.0
 40
0.0588846940107114
 50
202.7337120061671953
 51
230.2702868365284985
  0
ARC
  5
22F47
  8
0
 10
4675.9631317368421151
 20
317.1490501061136911
 30
0.0
 40
0.0468068596731287
 50
230.7603293458502094
 51
263.2558780941349141
  0
ARC
  5
22F48
  8
0
 10
4675.9075582136465528
 20
317.0806573215501771
 30
0.0
 40
0.0546600308184196
 50
23.6305615429647915
 51
48.8054259758899391
  0
ARC
  5
22F49
  8
0
 10
4675.9857744260852996
 20
317.1702304115556217
 30
0.0
 40
0.1014063377021425
 50
231.4927285393667944
 51
245.692713942927611
  0
ARC
  5
22F4A
  8
0
 10
4675.8233545260718529
 20
316.9832211354203082
 30
0.0
 40
0.1533327088226386
 50
38.0908517551441079
 51
50.2155785291639489
  0
ARC
  5
22F4B
  8
0
 10
4673.6786726846021338
 20
314.257727449316917
 30
0.0
 40
3.6118571045903982
 50
50.642220543406907
 51
51.6251882869751384
  0
ARC
  5
22F4C
  8
0
 10
4675.4764519988475513
 20
316.3174430094533136
 30
0.0
 40
0.900627422324875
 50
48.586899726314833
 51
56.1758821784724702
  0
ARC
  5
22F4D
  8
0
 10
4675.9104563583323397
 20
316.9651610177658085
 30
0.0
 40
0.1209490255846624
 50
56.1758821784724702
 51
68.6448616835958205
  0
ARC
  5
22F4E
  8
0
 10
4676.0381307099378319
 20
317.1368358311434008
 30
0.0
 40
0.1023654858524543
 50
215.215910508959098
 51
230.6628508214614044
  0
ARC
  5
22F4F
  8
0
 10
4676.1110453183773643
 20
317.0478551077708858
 30
0.0
 40
0.0759811107049976
 50
233.5972461007388858
 51
252.5179573792619863
  0
ARC
  5
22F50
  8
0
 10
4676.0282137326639713
 20
316.9365199828743016
 30
0.0
 40
0.0714921796632857
 50
32.92937422605943
 51
52.0271141285480212
  0
ARC
  5
22F51
  8
0
 10
4675.9261127797153677
 20
316.9000906489354179
 30
0.0
 40
0.1242980259773315
 50
44.2745673820660102
 51
60.9134077825529729
  0
ARC
  5
22F52
  8
0
 10
4676.0701144029635543
 20
317.088395997330224
 30
0.0
 40
0.115474762479657
 50
223.6338496237551965
 51
241.5541255408452912
  0
ARC
  5
22F53
  8
0
 10
4675.822295639872209
 20
317.06892722007359
 30
0.0
 40
0.0783490112657335
 50
37.2932378765079378
 51
63.8532716584226918
  0
ARC
  5
22F54
  8
0
 10
4675.9195584007993602
 20
317.1872242153302182
 30
0.0
 40
0.0789719856205095
 50
217.399891650823605
 51
243.7466176904246993
  0
ARC
  5
22F55
  8
0
 10
4675.7587515524137416
 20
316.983323633403586
 30
0.0
 40
0.1561820582765882
 50
44.0271801957303879
 51
57.2627048855526795
  0
ARC
  5
22F56
  8
0
 10
4675.9568791462334048
 20
317.2248488412279812
 30
0.0
 40
0.1582729484235176
 50
224.0997881779422016
 51
237.1597889542765074
  0
ARC
  5
22F57
  8
0
 10
4675.6918773766274171
 20
317.1235014835979769
 30
0.0
 40
0.1043943322902132
 50
39.1978595550124993
 51
59.0528613289026296
  0
ARC
  5
22F58
  8
0
 10
4675.8266029098422223
 20
317.2791720701129066
 30
0.0
 40
0.1046032343750523
 50
219.2178858728269972
 51
239.0328350110789017
  0
ARC
  5
22F59
  8
0
 10
4675.6480334728539674
 20
317.2526574665575936
 30
0.0
 40
0.0718418867108438
 50
32.2685481417995419
 51
60.2873498366066727
  0
ARC
  5
22F5A
  8
0
 10
4675.7307084460471742
 20
317.3391052499907232
 30
0.0
 40
0.0528557648622278
 50
207.0675440849429094
 51
245.4883538934498119
  0
ARC
  5
22F5B
  8
0
 10
4675.5695137674410944
 20
317.2704069129583218
 30
0.0
 40
0.0872495702484655
 50
35.5832710903184619
 51
59.3563614180725807
  0
ARC
  5
22F5C
  8
0
 10
4675.6814479267795832
 20
317.392432491604211
 30
0.0
 40
0.0821982212569788
 50
214.8411083748914905
 51
240.0985241334898888
  0
ARC
  5
22F5D
  8
0
 10
4675.543726812676141
 20
317.1582219105171134
 30
0.0
 40
0.1648068080552661
 50
42.0133813163287471
 51
54.3807868151022973
  0
ARC
  5
22F5E
  8
0
 10
4675.7386422424506236
 20
317.376200628067977
 30
0.0
 40
0.1297872912805944
 50
220.3354697096976906
 51
236.0586984217175086
  0
LINE
  5
22F5F
  8
0
 10
4675.829931159318221
 20
317.1613949198894034
 30
0.0
 11
4675.8125478861047668
 21
317.176730734744126
 31
0.0
  0
LINE
  5
22F60
  8
0
 10
4675.8376223038303579
 20
317.1760768991043733
 30
0.0
 11
4675.822995817095034
 21
317.185946248383118
 31
0.0
  0
ARC
  5
22F61
  8
0
 10
4676.2715620211629357
 20
316.8650183684717945
 30
0.0
 40
0.0319999999999914
 50
235.6253013712243956
 51
260.8831461421918902
  0
ARC
  5
22F62
  8
0
 10
4674.8587626719800028
 20
318.2778177171661014
 30
0.0
 40
0.031999999604875
 50
189.0254689250151898
 51
214.3746997289539138
  0
ENDSEC
  0
EOF
