  0
SECTION
  2
HEADER
  9
$ACADVER
  1
AC1009
  9
$INSBASE
 10
3589.4126615081440832
 20
134.0108758030440868
 30
0.0
  9
$EXTMIN
 10
3585.8219989210419953
 20
129.7667214931441038
 30
0.0
  9
$EXTMAX
 10
3589.4239411745447796
 20
137.5541828896440961
 30
0.0
  9
$LIMMIN
 10
0.0
 20
0.0
  9
$LIMMAX
 10
11.6929133858000007
 20
8.2677165353999982
  9
$ORTHOMODE
 70
     1
  9
$REGENMODE
 70
     1
  9
$FILLMODE
 70
     1
  9
$QTEXTMODE
 70
     0
  9
$MIRRTEXT
 70
     0
  9
$DRAGMODE
 70
     2
  9
$LTSCALE
 40
0.6431102362
  9
$OSMODE
 70
  4095
  9
$ATTMODE
 70
     1
  9
$TEXTSIZE
 40
0.2
  9
$TRACEWID
 40
0.05
  9
$TEXTSTYLE
  7
STANDARD
  9
$CLAYER
  8
0
  9
$CELTYPE
  6
BYLAYER
  9
$CECOLOR
 62
   256
  9
$DIMSCALE
 40
1.0
  9
$DIMASZ
 40
0.1875
  9
$DIMEXO
 40
0.0625
  9
$DIMDLI
 40
0.4443307087
  9
$DIMRND
 40
0.0
  9
$DIMDLE
 40
0.0
  9
$DIMEXE
 40
0.125
  9
$DIMTP
 40
0.01
  9
$DIMTM
 40
0.01
  9
$DIMTXT
 40
2.0
  9
$DIMCEN
 40
0.1052362205
  9
$DIMTSZ
 40
0.0
  9
$DIMTOL
 70
     1
  9
$DIMLIM
 70
     0
  9
$DIMTIH
 70
     1
  9
$DIMTOH
 70
     1
  9
$DIMSE1
 70
     0
  9
$DIMSE2
 70
     0
  9
$DIMTAD
 70
     0
  9
$DIMZIN
 70
     0
  9
$DIMBLK
  1

  9
$DIMASO
 70
     1
  9
$DIMSHO
 70
     1
  9
$DIMPOST
  1
\X
  9
$DIMAPOST
  1

  9
$DIMALT
 70
     1
  9
$DIMALTD
 70
     2
  9
$DIMALTF
 40
25.3999999999999986
  9
$DIMLFAC
 40
1.0
  9
$DIMTOFL
 70
     0
  9
$DIMTVP
 40
0.0
  9
$DIMTIX
 70
     0
  9
$DIMSOXD
 70
     0
  9
$DIMSAH
 70
     0
  9
$DIMBLK1
  1

  9
$DIMBLK2
  1

  9
$DIMSTYLE
  2
STANDARD
  9
$DIMCLRD
 70
     0
  9
$DIMCLRE
 70
     0
  9
$DIMCLRT
 70
     0
  9
$DIMTFAC
 40
1.0
  9
$DIMGAP
 40
0.09
  9
$LUNITS
 70
     2
  9
$LUPREC
 70
     4
  9
$SKETCHINC
 40
0.1
  9
$FILLETRAD
 40
0.0
  9
$AUNITS
 70
     0
  9
$AUPREC
 70
     0
  9
$MENU
  1
.
  9
$ELEVATION
 40
0.0
  9
$PELEVATION
 40
0.0
  9
$THICKNESS
 40
0.0
  9
$LIMCHECK
 70
     0
  9
$BLIPMODE
 70
     0
  9
$CHAMFERA
 40
0.0
  9
$CHAMFERB
 40
0.0
  9
$SKPOLY
 70
     0
  9
$TDCREATE
 40
2458060.468368056230247
  9
$TDUPDATE
 40
2459424.6654166667722166
  9
$TDINDWG
 40
0.3556204861
  9
$TDUSRTIMER
 40
0.3556204861
  9
$USRTIMER
 70
     1
  9
$ANGBASE
 50
0.0
  9
$ANGDIR
 70
     0
  9
$PDMODE
 70
     0
  9
$PDSIZE
 40
0.3125
  9
$PLINEWID
 40
0.0
  9
$COORDS
 70
     1
  9
$SPLFRAME
 70
     0
  9
$SPLINETYPE
 70
     6
  9
$SPLINESEGS
 70
     8
  9
$ATTDIA
 70
     1
  9
$ATTREQ
 70
     1
  9
$HANDLING
 70
     1
  9
$HANDSEED
  5
16B73
  9
$SURFTAB1
 70
     6
  9
$SURFTAB2
 70
     6
  9
$SURFTYPE
 70
     6
  9
$SURFU
 70
     6
  9
$SURFV
 70
     6
  9
$UCSNAME
  2

  9
$UCSORG
 10
0.0
 20
0.0
 30
0.0
  9
$UCSXDIR
 10
1.0
 20
0.0
 30
0.0
  9
$UCSYDIR
 10
0.0
 20
1.0
 30
0.0
  9
$PUCSNAME
  2

  9
$PUCSORG
 10
0.0
 20
0.0
 30
0.0
  9
$PUCSXDIR
 10
1.0
 20
0.0
 30
0.0
  9
$PUCSYDIR
 10
0.0
 20
1.0
 30
0.0
  9
$USERI1
 70
     0
  9
$USERI2
 70
     0
  9
$USERI3
 70
     0
  9
$USERI4
 70
     0
  9
$USERI5
 70
     0
  9
$USERR1
 40
0.0
  9
$USERR2
 40
0.0
  9
$USERR3
 40
0.0
  9
$USERR4
 40
0.0
  9
$USERR5
 40
0.0
  9
$WORLDVIEW
 70
     1
  9
$SHADEDGE
 70
     3
  9
$SHADEDIF
 70
    70
  9
$TILEMODE
 70
     1
  9
$MAXACTVP
 70
    64
  9
$PLIMCHECK
 70
     0
  9
$PEXTMIN
 10
1.0000000000000000E+20
 20
1.0000000000000000E+20
 30
1.0000000000000000E+20
  9
$PEXTMAX
 10
-1.0000000000000000E+20
 20
-1.0000000000000000E+20
 30
-1.0000000000000000E+20
  9
$PLIMMIN
 10
0.0
 20
0.0
  9
$PLIMMAX
 10
12.0
 20
9.0
  9
$UNITMODE
 70
     0
  9
$VISRETAIN
 70
     1
  9
$PLINEGEN
 70
     0
  9
$PSLTSCALE
 70
     1
  0
ENDSEC
  0
SECTION
  2
TABLES
  0
TABLE
  2
VPORT
 70
     1
  0
VPORT
  2
*ACTIVE
 70
     0
 10
0.0
 20
0.0
 11
1.0
 21
1.0
 12
-215.9210973350189136
 22
7.6651899946442077
 13
0.0
 23
0.0
 14
1.0
 24
1.0
 15
0.0
 25
0.0
 16
0.0
 26
0.0
 36
17.1152628219792007
 17
3803.5440673828129547
 27
125.9952621967499056
 37
0.0
 40
7.8488605665118181
 41
2.5092105263157891
 42
50.0
 43
0.0
 44
0.0
 50
0.0
 51
0.0
 71
     0
 72
   100
 73
     1
 74
     1
 75
     0
 76
     0
 77
     0
 78
     0
  0
ENDTAB
  0
TABLE
  2
LTYPE
 70
     2
  0
LTYPE
  2
CONTINUOUS
 70
     0
  3
Solid line
 72
    65
 73
     0
 40
0.0
  0
LTYPE
  2
PHANTOM2
 70
     0
  3
___ _ _ ___ _ _ ___ _ _ ___ _ _
 72
    65
 73
     6
 40
1.25
 49
0.625
 49
-0.125
 49
0.125
 49
-0.125
 49
0.125
 49
-0.125
  0
ENDTAB
  0
TABLE
  2
LAYER
 70
     2
  0
LAYER
  2
0
 70
     0
 62
   255
  6
CONTINUOUS
  0
LAYER
  2
DEFPOINTS
 70
     0
 62
     7
  6
CONTINUOUS
  0
ENDTAB
  0
TABLE
  2
STYLE
 70
     1
  0
STYLE
  2
STANDARD
 70
     0
 40
0.0
 41
0.8
 50
0.0
 71
     0
 42
0.2
  3
txt
  4

  0
ENDTAB
  0
TABLE
  2
VIEW
 70
     0
  0
ENDTAB
  0
TABLE
  2
UCS
 70
     0
  0
ENDTAB
  0
TABLE
  2
APPID
 70
     9
  0
APPID
  2
ACAD
 70
     0
  0
APPID
  2
ACAD_MLEADERVER
 70
     0
  0
APPID
  2
ACAD_EXEMPT_FROM_CAD_STANDARDS
 70
     0
  0
APPID
  2
ACAD_NAV_VCDISPLAY
 70
     0
  0
APPID
  2
ACAECLAYERSTANDARD
 70
     0
  0
APPID
  2
ACCMTRANSPARENCY
 70
     0
  0
APPID
  2
ACAD_DSTYLE_DIMJAG
 70
     0
  0
APPID
  2
ACAD_DSTYLE_DIMTALN
 70
     0
  0
APPID
  2
ACDBATTR
 70
     0
  0
ENDTAB
  0
TABLE
  2
DIMSTYLE
 70
     1
  0
DIMSTYLE
  2
STANDARD
 70
     0
  3

  4

  5

  6

  7

 40
1.0
 41
0.1875
 42
0.0625
 43
0.38
 44
0.125
 45
0.0
 46
0.0
 47
0.01
 48
0.01
140
0.15625
141
0.09
142
0.0
143
25.3999999999999986
144
1.0
145
0.0
146
1.0
147
0.09
 71
     1
 72
     0
 73
     1
 74
     1
 75
     0
 76
     0
 77
     0
 78
     4
170
     0
171
     2
172
     0
173
     0
174
     0
175
     0
176
     0
177
     0
178
     0
  0
ENDTAB
  0
ENDSEC
  0
SECTION
  2
BLOCKS
  0
BLOCK
  8
0
  2
$MODEL_SPACE
 70
     0
 10
0.0
 20
0.0
 30
0.0
  3
$MODEL_SPACE
  1

  0
ENDBLK
  5
21
  8
0
  0
BLOCK
 67
     1
  8
0
  2
$PAPER_SPACE
 70
     0
 10
0.0
 20
0.0
 30
0.0
  3
$PAPER_SPACE
  1

  0
ENDBLK
  5
1D
 67
     1
  8
0
  0
BLOCK
  8
0
  2
_FILLED
 70
     0
 10
0.0
 20
0.0
 30
0.0
  3
_FILLED
  1

  0
SOLID
  5
124E8
  8
0
  6
BYBLOCK
 62
     0
 10
0.0
 20
0.0
 30
0.0
 11
-1.0
 21
0.1666666667
 31
0.0
 12
-1.0
 22
-0.1666666667
 32
0.0
 13
-1.0
 23
-0.1666666667
 33
0.0
  0
ENDBLK
  5
124E9
  8
0
  6
BYBLOCK
 62
     0
  0
ENDSEC
  0
SECTION
  2
ENTITIES
  0
ATTDEF
  5
160EF
  8
DEFPOINTS
 10
3589.4132745078759399
 20
134.0149251217468986
 30
0.0
 40
0.001
  1
P24432T-LV
  3

  2
MODELNUMBER
 70
     0
1001
ACDBATTR
1070
     0
1070
     1
  0
ATTDEF
  5
160F0
  8
DEFPOINTS
 10
3589.4132745078759399
 20
134.0132584550802051
 30
0.0
 40
0.001
  1

  3

  2
TRADENAME
 70
     0
1001
ACDBATTR
1070
     0
1070
     1
  0
ATTDEF
  5
160F1
  8
DEFPOINTS
 10
3589.4132745078759399
 20
134.0115917884135968
 30
0.0
 40
0.001
  1
VALVE TRIM
  3

  2
PRODUCT
 70
     0
1001
ACDBATTR
1070
     0
1070
     1
  0
LINE
  5
168E8
  8
0
 10
3588.072266840534212
 20
133.3611859280428007
 30
0.0
 11
3588.8221103269429477
 21
133.3611859280428007
 31
0.0
  0
LINE
  5
168E9
  8
0
 10
3588.0740788309431082
 20
134.9756474835415077
 30
0.0
 11
3588.8221103269429477
 21
134.9756474835415077
 31
0.0
  0
LINE
  5
168EA
  8
0
 10
3589.4126615081440832
 20
137.5541828896440961
 30
0.0
 11
3589.4126615081440832
 21
130.4675687164441058
 31
0.0
  0
LINE
  5
168EB
  8
0
 10
3588.8221103269429477
 20
137.4664403255783043
 30
0.0
 11
3588.8221103269429477
 21
130.5553112805031901
 31
0.0
  0
LINE
  5
168EC
  8
0
 10
3589.4126615081440832
 20
137.5541828896440961
 30
0.0
 11
3588.8580490772919802
 21
137.5056605893483948
 31
0.0
  0
ARC
  5
168ED
  8
0
 10
3588.8614804057488072
 20
137.4664403255783043
 30
0.0
 40
0.0393700788057559
 50
94.9999999944288192
 51
179.9999999042767911
  0
LINE
  5
168EE
  8
0
 10
3589.4126615081440832
 20
130.4675687164441058
 30
0.0
 11
3588.858049077243777
 21
130.5160910167840029
 31
0.0
  0
ARC
  5
168EF
  8
0
 10
3588.8614804056978755
 20
130.5553112805031901
 30
0.0
 40
0.039370078754907
 50
180.0000000859540989
 51
265.0000000014908892
  0
LINE
  5
168F0
  8
0
 10
3589.4126615081440832
 20
130.5123437282441046
 30
0.0
 11
3589.29455127184292
 21
130.521161900444099
 31
0.0
  0
LINE
  5
168F1
  8
0
 10
3589.29455127184292
 20
130.521161900444099
 30
0.0
 11
3589.29455127184292
 21
130.4858079146441128
 31
0.0
  0
LINE
  5
168F2
  8
0
 10
3589.29455127184292
 20
130.4858079146441128
 30
0.0
 11
3589.4126615081440832
 21
130.4747762430440901
 31
0.0
  0
LINE
  5
168F3
  8
0
 10
3588.0071496970431326
 20
131.6289860392440971
 30
0.0
 11
3587.4159385448438115
 21
131.6341454608441097
 31
0.0
  0
LINE
  5
168F4
  8
0
 10
3588.0740788309431082
 20
131.6289860392440971
 30
0.0
 11
3588.8221103269429477
 21
131.6289860392440971
 31
0.0
  0
ARC
  5
168F5
  8
0
 10
3588.0740788264811272
 20
133.3415844661728897
 30
0.0
 40
0.0196850349381022
 50
95.2814902027398745
 51
180.0000050319864044
  0
LINE
  5
168F6
  8
0
 10
3588.0543937915431343
 20
133.3415844644441108
 30
0.0
 11
3588.0543937915431343
 21
131.6486710786440995
 31
0.0
  0
ARC
  5
168F7
  8
0
 10
3588.0740788309431082
 20
131.6486710786440995
 30
0.0
 40
0.0196850393999988
 50
180.0000000000015916
 51
270.0
  0
LINE
  5
168F8
  8
0
 10
3588.0071496970431326
 20
131.6289860392440971
 30
0.0
 11
3588.0071496970431326
 21
133.361185928142902
 31
0.0
  0
LINE
  5
168F9
  8
0
 10
3588.0071496970431326
 20
133.3611859280428007
 30
0.0
 11
3585.871626542742888
 21
133.3426330755440858
 31
0.0
  0
ARC
  5
168FA
  8
0
 10
3585.871901428612091
 20
133.3111342748601942
 30
0.0
 40
0.0315000001073832
 50
90.4999999991577369
 51
177.4318156651600873
  0
ARC
  5
168FB
  8
0
 10
3605.6142394536332176
 20
132.4585162969405872
 30
0.0
 40
19.79224053259043
 50
177.5269358953891015
 51
182.3475770344502962
  0
ARC
  5
168FC
  8
0
 10
3561.7689393488731184
 20
131.1786371751854858
 30
0.0
 40
24.074242613517729
 50
0.0332018264496634
 51
1.1166525228763959
  0
LINE
  5
168FD
  8
0
 10
3585.8431779203438055
 20
131.1925877451440954
 30
0.0
 11
3585.8420853723000619
 21
129.8060147070285097
 31
0.0
  0
ARC
  5
168FE
  8
0
 10
3585.8735907571240205
 20
129.8052626183911968
 30
0.0
 40
0.0315143603819546
 50
178.6325092552725096
 51
269.4916806733658063
  0
ARC
  5
168FF
  8
0
 10
3610.4771500815700165
 20
2902.9501170194607766
 30
0.0
 40
2773.2855089707850311
 50
269.4916806733917838
 51
269.5083193301014717
  0
ARC
  5
16900
  8
0
 10
3586.6776741318499262
 20
129.7994727202840863
 30
0.0
 40
0.0327654895900519
 50
271.6906048966616822
 51
357.8093951474476171
  0
LINE
  5
16901
  8
0
 10
3586.7104156763430183
 20
129.7982202937440945
 30
0.0
 11
3586.7104156763430183
 21
131.4942858526441114
 31
0.0
  0
ARC
  5
16902
  8
0
 10
3586.861266299898034
 20
131.4885285164922095
 30
0.0
 40
0.1509597209521719
 50
115.2015871997346039
 51
177.8143104622207886
  0
ARC
  5
16903
  8
0
 10
3587.4161352550058837
 20
131.6539610714187916
 30
0.0
 40
0.0198165869900149
 50
249.0721495821973122
 51
269.4312415822918751
  0
ARC
  5
16904
  8
0
 10
3587.0793722677221922
 20
130.8088541777478895
 30
0.0
 40
0.8899188430624668
 50
68.2556414155637299
 51
87.5402284148893841
  0
ARC
  5
16905
  8
0
 10
3587.0963443141959033
 20
130.8874536835434981
 30
0.0
 40
0.8107771414623165
 50
88.5001587863569341
 51
106.4085401292437041
  0
ARC
  5
16906
  8
0
 10
3586.9299462433368717
 20
131.4745389732080127
 30
0.0
 40
0.2006943207977911
 50
108.1849786673106024
 51
130.5738152728341106
  0
ARC
  5
16907
  8
0
 10
3586.7806773763600177
 20
131.6488551116792962
 30
0.0
 40
0.0287992755835816
 50
304.4940310804606156
 51
310.5738152728341106
  0
LINE
  5
16908
  8
0
 10
3586.8255591458441813
 20
131.6459494287738039
 30
0.0
 11
3586.8255594688430392
 21
131.6083309954441063
 31
0.0
  0
ARC
  5
16909
  8
0
 10
3586.8452451450912122
 20
131.6083311644694902
 30
0.0
 40
0.0196856762478257
 50
180.000491953947602
 51
269.9972694933692878
  0
LINE
  5
1690A
  8
0
 10
3586.8452442069428798
 20
131.5886454882441114
 30
0.0
 11
3587.3570551786619944
 21
131.588621097211103
 31
0.0
  0
ARC
  5
1690B
  8
0
 10
3587.357056116736203
 20
131.6083052449683919
 30
0.0
 40
0.0196841477796863
 50
269.9972694933692878
 51
0.0736732577266222
  0
LINE
  5
1690C
  8
0
 10
3587.3767402482430953
 20
131.6083305556441019
 30
0.0
 11
3587.3766897054101719
 21
131.6476377544132106
 31
0.0
  0
ARC
  5
1690D
  8
0
 10
3587.1011508160781887
 20
130.7862532545136105
 30
0.0
 40
0.8429235857268714
 50
72.1829109600658114
 51
107.8171162872819053
  0
ARC
  5
1690E
  8
0
 10
3586.8691819689061049
 20
137.1254147955735903
 30
0.0
 40
0.0323048345531288
 50
358.2968302073822997
 51
89.0853577345409917
  0
LINE
  5
1690F
  8
0
 10
3586.9014725317438206
 20
137.1244546460440858
 30
0.0
 11
3586.9015071522489961
 21
136.4525028412118104
 31
0.0
  0
ARC
  5
16910
  8
0
 10
3587.051472531671152
 20
136.4557254105309028
 30
0.0
 40
0.1499999999276262
 50
181.2310255181697016
 51
270.5000000278193966
  0
LINE
  5
16911
  8
0
 10
3587.0527815120681225
 20
136.3057311221442944
 30
0.0
 11
3587.9931254238390466
 21
136.3139373795968083
 31
0.0
  0
ARC
  5
16912
  8
0
 10
3587.993212689199936
 20
136.3039377603219009
 30
0.0
 40
0.0100000000443356
 50
359.9999955435089873
 51
90.5000000278194392
  0
LINE
  5
16913
  8
0
 10
3588.00321268924381
 20
136.3039377595441124
 30
0.0
 11
3588.0032125866969182
 21
134.9855303816441108
 31
0.0
  0
ARC
  5
16914
  8
0
 10
3587.9926033701940469
 20
134.9862696010378897
 30
0.0
 40
0.0106349386514529
 50
272.8136971620755276
 51
356.0142383120737009
  0
ARC
  5
16915
  8
0
 10
3586.4906015131869026
 20
61.5354950276698673
 30
0.0
 40
73.4555210371811569
 50
88.8279399306343436
 51
90.1797774436360697
  0
LINE
  5
16916
  8
0
 10
3588.0740788309431082
 20
134.9756474835415077
 30
0.0
 11
3588.0543937915431343
 21
134.9951277715441051
 31
0.0
  0
LINE
  5
16917
  8
0
 10
3588.0740788309431082
 20
134.9756474835415077
 30
0.0
 11
3588.0740788309431082
 21
136.3140254093441115
 31
0.0
  0
LINE
  5
16918
  8
0
 10
3588.0543937915431343
 20
134.9951277715441051
 30
0.0
 11
3588.0543937915431343
 21
136.2943403699441092
 31
0.0
  0
LINE
  5
16919
  8
0
 10
3588.0543937915431343
 20
135.0640254093441115
 30
0.0
 11
3588.0032125928019013
 21
135.0640254093441115
 31
0.0
  0
ARC
  5
1691A
  8
0
 10
3586.2603991413861877
 20
135.0226532538605966
 30
0.0
 40
0.0319999997767956
 50
183.2911440963605116
 51
269.5000061328577772
  0
ARC
  5
1691B
  8
0
 10
3598.9989367850298549
 20
135.6985222873030068
 30
0.0
 40
12.7884545324287799
 50
177.2536322405476881
 51
183.0377321285141932
  0
ARC
  5
1691C
  8
0
 10
3561.4931243983128297
 20
136.8306635635537987
 30
0.0
 40
24.7374994067928284
 50
358.7969377281185075
 51
0.002726255172137
  0
LINE
  5
1691D
  8
0
 10
3586.2306237771022097
 20
136.8318406264415898
 30
0.0
 11
3586.2305200561218044
 21
137.1200986140694056
 31
0.0
  0
ARC
  5
1691E
  8
0
 10
3586.262232838509135
 20
137.1206958649783019
 30
0.0
 40
0.0317184059403597
 50
90.8788265678857954
 51
181.0789312349373006
  0
ARC
  5
1691F
  8
0
 10
3586.9668388977988798
 20
91.1869711342069422
 30
0.0
 40
45.9708470147970019
 50
90.121072119759873
 51
90.8788267794520266
  0
LINE
  5
16920
  8
0
 10
3588.8221103269429477
 20
136.3140254093441115
 30
0.0
 11
3588.0740788309431082
 21
136.3140254093441115
 31
0.0
  0
LINE
  5
16921
  8
0
 10
3588.0740788309431082
 20
136.3140254093441115
 30
0.0
 11
3588.0543937915431343
 21
136.2943403699441092
 31
0.0
  0
LINE
  5
16922
  8
0
 10
3588.0543937915431343
 20
136.2254427321441028
 30
0.0
 11
3588.00321268924381
 21
136.2254427321441028
 31
0.0
  0
LINE
  5
16923
  8
0
 10
3588.0071496970431326
 20
133.2726868266441045
 30
0.0
 11
3588.0543937915431343
 21
133.2726868266441045
 31
0.0
  0
LINE
  5
16924
  8
0
 10
3588.0543937915431343
 20
131.7175687164441058
 30
0.0
 11
3588.0071496970431326
 21
131.7175687164441058
 31
0.0
  0
ENDSEC
  0
EOF
