  0
SECTION
  2
HEADER
  9
$ACADVER
  1
AC1009
  9
$INSBASE
 10
3186.7778116492650042
 20
193.719881325065586
 30
0.0
  9
$EXTMIN
 10
3180.5356106631038529
 20
188.2438534884599051
 30
0.0
  9
$EXTMAX
 10
3188.6528122486251959
 20
195.9336199423700009
 30
0.0
  9
$LIMMIN
 10
0.0
 20
0.0
  9
$LIMMAX
 10
11.6929133858000007
 20
8.2677165353999982
  9
$ORTHOMODE
 70
     0
  9
$REGENMODE
 70
     1
  9
$FILLMODE
 70
     1
  9
$QTEXTMODE
 70
     0
  9
$MIRRTEXT
 70
     0
  9
$DRAGMODE
 70
     2
  9
$LTSCALE
 40
0.6431102362
  9
$OSMODE
 70
  4095
  9
$ATTMODE
 70
     1
  9
$TEXTSIZE
 40
0.2
  9
$TRACEWID
 40
0.05
  9
$TEXTSTYLE
  7
STANDARD
  9
$CLAYER
  8
0
  9
$CELTYPE
  6
BYLAYER
  9
$CECOLOR
 62
   256
  9
$DIMSCALE
 40
1.0
  9
$DIMASZ
 40
0.1875
  9
$DIMEXO
 40
0.0625
  9
$DIMDLI
 40
0.4443307087
  9
$DIMRND
 40
0.0
  9
$DIMDLE
 40
0.0
  9
$DIMEXE
 40
0.125
  9
$DIMTP
 40
0.01
  9
$DIMTM
 40
0.01
  9
$DIMTXT
 40
2.0
  9
$DIMCEN
 40
0.1052362205
  9
$DIMTSZ
 40
0.0
  9
$DIMTOL
 70
     1
  9
$DIMLIM
 70
     0
  9
$DIMTIH
 70
     1
  9
$DIMTOH
 70
     1
  9
$DIMSE1
 70
     0
  9
$DIMSE2
 70
     0
  9
$DIMTAD
 70
     0
  9
$DIMZIN
 70
     0
  9
$DIMBLK
  1

  9
$DIMASO
 70
     1
  9
$DIMSHO
 70
     1
  9
$DIMPOST
  1
\X
  9
$DIMAPOST
  1

  9
$DIMALT
 70
     1
  9
$DIMALTD
 70
     2
  9
$DIMALTF
 40
25.3999999999999986
  9
$DIMLFAC
 40
1.0
  9
$DIMTOFL
 70
     0
  9
$DIMTVP
 40
0.0
  9
$DIMTIX
 70
     0
  9
$DIMSOXD
 70
     0
  9
$DIMSAH
 70
     0
  9
$DIMBLK1
  1

  9
$DIMBLK2
  1

  9
$DIMSTYLE
  2
STANDARD
  9
$DIMCLRD
 70
     0
  9
$DIMCLRE
 70
     0
  9
$DIMCLRT
 70
     0
  9
$DIMTFAC
 40
1.0
  9
$DIMGAP
 40
0.09
  9
$LUNITS
 70
     2
  9
$LUPREC
 70
     4
  9
$SKETCHINC
 40
0.1
  9
$FILLETRAD
 40
0.0
  9
$AUNITS
 70
     0
  9
$AUPREC
 70
     0
  9
$MENU
  1
.
  9
$ELEVATION
 40
0.0
  9
$PELEVATION
 40
0.0
  9
$THICKNESS
 40
0.0
  9
$LIMCHECK
 70
     0
  9
$BLIPMODE
 70
     0
  9
$CHAMFERA
 40
0.0
  9
$CHAMFERB
 40
0.0
  9
$SKPOLY
 70
     0
  9
$TDCREATE
 40
2458060.468368056230247
  9
$TDUPDATE
 40
2459545.3851273148320615
  9
$TDINDWG
 40
0.3957130787
  9
$TDUSRTIMER
 40
0.3957130787
  9
$USRTIMER
 70
     1
  9
$ANGBASE
 50
0.0
  9
$ANGDIR
 70
     0
  9
$PDMODE
 70
     0
  9
$PDSIZE
 40
0.3125
  9
$PLINEWID
 40
0.0
  9
$COORDS
 70
     1
  9
$SPLFRAME
 70
     0
  9
$SPLINETYPE
 70
     6
  9
$SPLINESEGS
 70
     8
  9
$ATTDIA
 70
     1
  9
$ATTREQ
 70
     1
  9
$HANDLING
 70
     1
  9
$HANDSEED
  5
84B1
  9
$SURFTAB1
 70
     6
  9
$SURFTAB2
 70
     6
  9
$SURFTYPE
 70
     6
  9
$SURFU
 70
     6
  9
$SURFV
 70
     6
  9
$UCSNAME
  2

  9
$UCSORG
 10
0.0
 20
0.0
 30
0.0
  9
$UCSXDIR
 10
1.0
 20
0.0
 30
0.0
  9
$UCSYDIR
 10
0.0
 20
1.0
 30
0.0
  9
$PUCSNAME
  2

  9
$PUCSORG
 10
0.0
 20
0.0
 30
0.0
  9
$PUCSXDIR
 10
1.0
 20
0.0
 30
0.0
  9
$PUCSYDIR
 10
0.0
 20
1.0
 30
0.0
  9
$USERI1
 70
     0
  9
$USERI2
 70
     0
  9
$USERI3
 70
     0
  9
$USERI4
 70
     0
  9
$USERI5
 70
     0
  9
$USERR1
 40
0.0
  9
$USERR2
 40
0.0
  9
$USERR3
 40
0.0
  9
$USERR4
 40
0.0
  9
$USERR5
 40
0.0
  9
$WORLDVIEW
 70
     1
  9
$SHADEDGE
 70
     3
  9
$SHADEDIF
 70
    70
  9
$TILEMODE
 70
     1
  9
$MAXACTVP
 70
    64
  9
$PLIMCHECK
 70
     0
  9
$PEXTMIN
 10
1.0000000000000000E+20
 20
1.0000000000000000E+20
 30
1.0000000000000000E+20
  9
$PEXTMAX
 10
-1.0000000000000000E+20
 20
-1.0000000000000000E+20
 30
-1.0000000000000000E+20
  9
$PLIMMIN
 10
0.0
 20
0.0
  9
$PLIMMAX
 10
12.0
 20
9.0
  9
$UNITMODE
 70
     0
  9
$VISRETAIN
 70
     1
  9
$PLINEGEN
 70
     0
  9
$PSLTSCALE
 70
     1
  0
ENDSEC
  0
SECTION
  2
TABLES
  0
TABLE
  2
VPORT
 70
     1
  0
VPORT
  2
*ACTIVE
 70
     0
 10
0.0
 20
0.0
 11
1.0
 21
1.0
 12
97.9258896641513985
 22
-3.6549876556024592
 13
0.0
 23
0.0
 14
1.0
 24
1.0
 15
0.0
 25
0.0
 16
0.0
 26
0.0
 36
95.5902297660485658
 17
3089.811279296875
 27
197.161570589386713
 37
0.0
 40
13.3434506713849892
 41
2.0416666666666661
 42
50.0
 43
0.0
 44
0.0
 50
0.0
 51
0.0
 71
     0
 72
   100
 73
     1
 74
     1
 75
     0
 76
     0
 77
     0
 78
     0
  0
ENDTAB
  0
TABLE
  2
LTYPE
 70
     2
  0
LTYPE
  2
CONTINUOUS
 70
     0
  3
Solid line
 72
    65
 73
     0
 40
0.0
  0
LTYPE
  2
PHANTOM2
 70
     0
  3
___ _ _ ___ _ _ ___ _ _ ___ _ _
 72
    65
 73
     6
 40
1.25
 49
0.625
 49
-0.125
 49
0.125
 49
-0.125
 49
0.125
 49
-0.125
  0
ENDTAB
  0
TABLE
  2
LAYER
 70
     2
  0
LAYER
  2
0
 70
     0
 62
   255
  6
CONTINUOUS
  0
LAYER
  2
DEFPOINTS
 70
     0
 62
     7
  6
CONTINUOUS
  0
ENDTAB
  0
TABLE
  2
STYLE
 70
     1
  0
STYLE
  2
STANDARD
 70
     0
 40
0.0
 41
0.8
 50
0.0
 71
     0
 42
0.2
  3
txt
  4

  0
ENDTAB
  0
TABLE
  2
VIEW
 70
     0
  0
ENDTAB
  0
TABLE
  2
UCS
 70
     0
  0
ENDTAB
  0
TABLE
  2
APPID
 70
     9
  0
APPID
  2
ACAD
 70
     0
  0
APPID
  2
ACAD_MLEADERVER
 70
     0
  0
APPID
  2
ACAD_EXEMPT_FROM_CAD_STANDARDS
 70
     0
  0
APPID
  2
ACAD_NAV_VCDISPLAY
 70
     0
  0
APPID
  2
ACAECLAYERSTANDARD
 70
     0
  0
APPID
  2
ACCMTRANSPARENCY
 70
     0
  0
APPID
  2
ACAD_DSTYLE_DIMJAG
 70
     0
  0
APPID
  2
ACAD_DSTYLE_DIMTALN
 70
     0
  0
APPID
  2
ACDBATTR
 70
     0
  0
ENDTAB
  0
TABLE
  2
DIMSTYLE
 70
     1
  0
DIMSTYLE
  2
STANDARD
 70
     0
  3

  4

  5

  6

  7

 40
1.0
 41
0.1875
 42
0.0625
 43
0.38
 44
0.125
 45
0.0
 46
0.0
 47
0.01
 48
0.01
140
0.15625
141
0.09
142
0.0
143
25.3999999999999986
144
1.0
145
0.0
146
1.0
147
0.09
 71
     1
 72
     0
 73
     1
 74
     1
 75
     0
 76
     0
 77
     0
 78
     4
170
     0
171
     2
172
     0
173
     0
174
     0
175
     0
176
     0
177
     0
178
     0
  0
ENDTAB
  0
ENDSEC
  0
SECTION
  2
BLOCKS
  0
BLOCK
  8
0
  2
$MODEL_SPACE
 70
     0
 10
0.0
 20
0.0
 30
0.0
  3
$MODEL_SPACE
  1

  0
ENDBLK
  5
21
  8
0
  0
BLOCK
 67
     1
  8
0
  2
$PAPER_SPACE
 70
     0
 10
0.0
 20
0.0
 30
0.0
  3
$PAPER_SPACE
  1

  0
ENDBLK
  5
1D
 67
     1
  8
0
  0
BLOCK
  8
0
  2
_FILLED
 70
     0
 10
0.0
 20
0.0
 30
0.0
  3
_FILLED
  1

  0
SOLID
  5
7E7B
  8
0
  6
BYBLOCK
 62
     0
 10
0.0
 20
0.0
 30
0.0
 11
-1.0
 21
0.1666666667
 31
0.0
 12
-1.0
 22
-0.1666666667
 32
0.0
 13
-1.0
 23
-0.1666666667
 33
0.0
  0
ENDBLK
  5
7E7C
  8
0
  6
BYBLOCK
 62
     0
  0
ENDSEC
  0
SECTION
  2
ENTITIES
  0
ATTDEF
  5
3930
  8
DEFPOINTS
 10
3186.7799953944049776
 20
193.7237447385165012
 30
0.0
 40
0.001
  1
P24423-CR
  3

  2
MODELNUMBER
 70
     0
1001
ACDBATTR
1070
     0
1070
     1
  0
ATTDEF
  5
3931
  8
DEFPOINTS
 10
3186.7799953944049776
 20
193.7220780718498077
 30
0.0
 40
0.001
  1
ONE
  3

  2
TRADENAME
 70
     0
1001
ACDBATTR
1070
     0
1070
     1
  0
ATTDEF
  5
3932
  8
DEFPOINTS
 10
3186.7799953944049776
 20
193.7204114051831993
 30
0.0
 40
0.001
  1
VALVE TRIM
  3

  2
PRODUCT
 70
     0
1001
ACDBATTR
1070
     0
1070
     1
  0
ARC
  5
8385
  8
0
 10
3186.7778416248647773
 20
193.719851525065593
 30
0.0
 40
0.9
 50
101.6954533680188035
 51
168.3045324010456056
  0
ARC
  5
8386
  8
0
 10
3186.7428001870448497
 20
193.7535584453491992
 30
0.0
 40
0.3064258159057232
 50
121.8598916451956029
 51
147.8716937525871913
  0
LINE
  5
8387
  8
0
 10
3186.5963109800359234
 20
195.1803770859056897
 30
0.0
 11
3186.5945216045711277
 21
194.0389220480020924
 31
0.0
  0
ARC
  5
8388
  8
0
 10
3186.5643415213949083
 20
194.0389480702091021
 30
0.0
 40
0.0301800943950433
 50
303.6279416378158089
 51
359.9505978079645274
  0
ARC
  5
8389
  8
0
 10
3186.4580423949842043
 20
193.9337389125286961
 30
0.0
 40
0.0305685862745613
 50
270.4321260793104216
 51
325.7185872355584024
  0
ARC
  5
838A
  8
0
 10
3185.3173932988820525
 20
193.8713822752598048
 30
0.0
 40
0.0299999938841739
 50
90.1475076753046238
 51
174.0764069371784046
  0
LINE
  5
838B
  8
0
 10
3185.3173160641449613
 20
193.9013821697236892
 30
0.0
 11
3186.4582729417747942
 21
193.9031711956529023
 31
0.0
  0
ARC
  5
838C
  8
0
 10
3186.6263108807261233
 20
195.1802998453466955
 30
0.0
 40
0.030000000124538
 50
95.9236035163289387
 51
179.8524813915547895
  0
ARC
  5
838D
  8
0
 10
3186.7778416250989721
 20
193.960378735044003
 30
0.0
 40
1.2592902023216519
 50
82.9469166878522088
 51
97.0530833312342338
  0
ARC
  5
838E
  8
0
 10
3186.7778416248647773
 20
193.719851525065593
 30
0.0
 40
0.9
 50
11.6954675989543802
 51
78.3045466319811254
  0
ARC
  5
838F
  8
0
 10
3186.8128830626851595
 20
193.7535584453491992
 30
0.0
 40
0.3064258159057232
 50
32.1283062474127519
 51
58.1401083548044113
  0
LINE
  5
8390
  8
0
 10
3186.9593722696940858
 20
195.1803770859056897
 30
0.0
 11
3186.9611616451597911
 21
194.0389220480020924
 31
0.0
  0
ARC
  5
8391
  8
0
 10
3186.9913417283360104
 20
194.0389480702091021
 30
0.0
 40
0.0301800943950433
 50
180.049402192035501
 51
236.3720583621841911
  0
ARC
  5
8392
  8
0
 10
3187.097640854745805
 20
193.9337389125286961
 30
0.0
 40
0.0305685862745613
 50
214.2814127644415123
 51
269.5678739206896921
  0
ARC
  5
8393
  8
0
 10
3188.2382899508488663
 20
193.8713822752598048
 30
0.0
 40
0.0299999938841739
 50
5.9235930628215741
 51
89.8524923246953762
  0
LINE
  5
8394
  8
0
 10
3188.2383671855859575
 20
193.9013821697236892
 30
0.0
 11
3187.0974103079552151
 21
193.9031711956529023
 31
0.0
  0
ARC
  5
8395
  8
0
 10
3186.9293723690047955
 20
195.1802998453466955
 30
0.0
 40
0.030000000124538
 50
0.1475186084451565
 51
84.0763964836710755
  0
ARC
  5
8396
  8
0
 10
3186.7778416248647773
 20
193.719851525065593
 30
0.0
 40
0.9
 50
191.6954675989543091
 51
258.3045466319811112
  0
ARC
  5
8397
  8
0
 10
3186.7428001870448497
 20
193.6861446047822142
 30
0.0
 40
0.3064258159057232
 50
212.1283062474128087
 51
238.1401083548043971
  0
LINE
  5
8398
  8
0
 10
3186.5963109800359234
 20
192.2593259642256101
 30
0.0
 11
3186.5945216045711277
 21
193.4007810021292073
 31
0.0
  0
ARC
  5
8399
  8
0
 10
3186.5643415213949083
 20
193.4007549799221977
 30
0.0
 40
0.0301800943950433
 50
0.049402192035507
 51
56.3720583621841982
  0
ARC
  5
839A
  8
0
 10
3186.4580423949842043
 20
193.5059641376026036
 30
0.0
 40
0.0305685862745613
 50
34.2814127644415692
 51
89.5678739206896637
  0
ARC
  5
839B
  8
0
 10
3185.3173932988820525
 20
193.5683207748714949
 30
0.0
 40
0.0299999938841739
 50
185.9235930628215954
 51
269.8524923246953904
  0
LINE
  5
839C
  8
0
 10
3185.3173160641449613
 20
193.5383208804076105
 30
0.0
 11
3186.4582729417747942
 21
193.5365318544785111
 31
0.0
  0
ARC
  5
839D
  8
0
 10
3186.6263108807261233
 20
192.2594032047846042
 30
0.0
 40
0.030000000124538
 50
180.1475186084450968
 51
264.0763964836709761
  0
ARC
  5
839E
  8
0
 10
3186.7778416251981071
 20
194.0736784067995018
 30
0.0
 40
1.850586295033867
 50
265.2070297191688724
 51
274.7929702617440739
  0
ARC
  5
839F
  8
0
 10
3186.7778416248647773
 20
193.719851525065593
 30
0.0
 40
0.9
 50
281.6954533680188888
 51
348.3045324010456056
  0
ARC
  5
83A0
  8
0
 10
3186.8128830626851595
 20
193.6861446047822142
 30
0.0
 40
0.3064258159057232
 50
301.8598916451954892
 51
327.871693752587305
  0
LINE
  5
83A1
  8
0
 10
3186.9593722696940858
 20
192.2593259642256101
 30
0.0
 11
3186.9611616451597911
 21
193.4007810021292073
 31
0.0
  0
ARC
  5
83A2
  8
0
 10
3186.9913417283360104
 20
193.4007549799221977
 30
0.0
 40
0.0301800943950433
 50
123.6279416378157947
 51
179.950597807964499
  0
ARC
  5
83A3
  8
0
 10
3187.097640854745805
 20
193.5059641376026036
 30
0.0
 40
0.0305685862745613
 50
90.4321260793103221
 51
145.7185872355584024
  0
ARC
  5
83A4
  8
0
 10
3188.2382899508488663
 20
193.5683207748714949
 30
0.0
 40
0.0299999938841739
 50
270.1475076753046096
 51
354.0764069371784899
  0
LINE
  5
83A5
  8
0
 10
3188.2383671855859575
 20
193.5383208804076105
 30
0.0
 11
3187.0974103079552151
 21
193.5365318544785111
 31
0.0
  0
ARC
  5
83A6
  8
0
 10
3186.9293723690047955
 20
192.2594032047846042
 30
0.0
 40
0.030000000124538
 50
275.9236035163290239
 51
359.8524813915548748
  0
ARC
  5
83A7
  8
0
 10
3186.7778416142941751
 20
193.719851525065593
 30
0.0
 40
1.4982884022290599
 50
174.0763966091338943
 51
185.9236033923901914
  0
ARC
  5
83A8
  8
0
 10
3186.7778416248647773
 20
193.719851525065593
 30
0.0
 40
1.4982884127999949
 50
354.0763966509989018
 51
5.923603346866364
  0
CIRCLE
  5
83A9
  8
0
 10
3186.7778116492650042
 20
193.719881325065586
 30
0.0
 40
1.8750005993596739
  0
ENDSEC
  0
EOF
