  0
SECTION
  2
HEADER
  9
$ACADVER
  1
AC1009
  9
$INSBASE
 10
3182.0500941562190746
 20
194.2721099544056074
 30
0.0
  9
$EXTMIN
 10
3178.9250941562199841
 20
191.0021099544055119
 30
0.0
  9
$EXTMAX
 10
3185.1750941562199841
 20
194.2816400338925007
 30
0.0
  9
$LIMMIN
 10
0.0
 20
0.0
  9
$LIMMAX
 10
11.6929133858000007
 20
8.2677165353999982
  9
$ORTHOMODE
 70
     0
  9
$REGENMODE
 70
     1
  9
$FILLMODE
 70
     1
  9
$QTEXTMODE
 70
     0
  9
$MIRRTEXT
 70
     0
  9
$DRAGMODE
 70
     2
  9
$LTSCALE
 40
0.6431102362
  9
$OSMODE
 70
  4095
  9
$ATTMODE
 70
     1
  9
$TEXTSIZE
 40
0.2
  9
$TRACEWID
 40
0.05
  9
$TEXTSTYLE
  7
STANDARD
  9
$CLAYER
  8
0
  9
$CELTYPE
  6
BYLAYER
  9
$CECOLOR
 62
   256
  9
$DIMSCALE
 40
1.0
  9
$DIMASZ
 40
0.1875
  9
$DIMEXO
 40
0.0625
  9
$DIMDLI
 40
0.4443307087
  9
$DIMRND
 40
0.0
  9
$DIMDLE
 40
0.0
  9
$DIMEXE
 40
0.125
  9
$DIMTP
 40
0.01
  9
$DIMTM
 40
0.01
  9
$DIMTXT
 40
2.0
  9
$DIMCEN
 40
0.1052362205
  9
$DIMTSZ
 40
0.0
  9
$DIMTOL
 70
     1
  9
$DIMLIM
 70
     0
  9
$DIMTIH
 70
     1
  9
$DIMTOH
 70
     1
  9
$DIMSE1
 70
     0
  9
$DIMSE2
 70
     0
  9
$DIMTAD
 70
     0
  9
$DIMZIN
 70
     0
  9
$DIMBLK
  1

  9
$DIMASO
 70
     1
  9
$DIMSHO
 70
     1
  9
$DIMPOST
  1
\X
  9
$DIMAPOST
  1

  9
$DIMALT
 70
     1
  9
$DIMALTD
 70
     2
  9
$DIMALTF
 40
25.3999999999999986
  9
$DIMLFAC
 40
1.0
  9
$DIMTOFL
 70
     0
  9
$DIMTVP
 40
0.0
  9
$DIMTIX
 70
     0
  9
$DIMSOXD
 70
     0
  9
$DIMSAH
 70
     0
  9
$DIMBLK1
  1

  9
$DIMBLK2
  1

  9
$DIMSTYLE
  2
STANDARD
  9
$DIMCLRD
 70
     0
  9
$DIMCLRE
 70
     0
  9
$DIMCLRT
 70
     0
  9
$DIMTFAC
 40
1.0
  9
$DIMGAP
 40
0.09
  9
$LUNITS
 70
     2
  9
$LUPREC
 70
     4
  9
$SKETCHINC
 40
0.1
  9
$FILLETRAD
 40
0.0
  9
$AUNITS
 70
     0
  9
$AUPREC
 70
     0
  9
$MENU
  1
.
  9
$ELEVATION
 40
0.0
  9
$PELEVATION
 40
0.0
  9
$THICKNESS
 40
0.0
  9
$LIMCHECK
 70
     0
  9
$BLIPMODE
 70
     0
  9
$CHAMFERA
 40
0.0
  9
$CHAMFERB
 40
0.0
  9
$SKPOLY
 70
     0
  9
$TDCREATE
 40
2458060.468368056230247
  9
$TDUPDATE
 40
2459545.3798148147761822
  9
$TDINDWG
 40
0.3947871528
  9
$TDUSRTIMER
 40
0.3947871528
  9
$USRTIMER
 70
     1
  9
$ANGBASE
 50
0.0
  9
$ANGDIR
 70
     0
  9
$PDMODE
 70
     0
  9
$PDSIZE
 40
0.3125
  9
$PLINEWID
 40
0.0
  9
$COORDS
 70
     1
  9
$SPLFRAME
 70
     0
  9
$SPLINETYPE
 70
     6
  9
$SPLINESEGS
 70
     8
  9
$ATTDIA
 70
     1
  9
$ATTREQ
 70
     1
  9
$HANDLING
 70
     1
  9
$HANDSEED
  5
8401
  9
$SURFTAB1
 70
     6
  9
$SURFTAB2
 70
     6
  9
$SURFTYPE
 70
     6
  9
$SURFU
 70
     6
  9
$SURFV
 70
     6
  9
$UCSNAME
  2

  9
$UCSORG
 10
0.0
 20
0.0
 30
0.0
  9
$UCSXDIR
 10
1.0
 20
0.0
 30
0.0
  9
$UCSYDIR
 10
0.0
 20
1.0
 30
0.0
  9
$PUCSNAME
  2

  9
$PUCSORG
 10
0.0
 20
0.0
 30
0.0
  9
$PUCSXDIR
 10
1.0
 20
0.0
 30
0.0
  9
$PUCSYDIR
 10
0.0
 20
1.0
 30
0.0
  9
$USERI1
 70
     0
  9
$USERI2
 70
     0
  9
$USERI3
 70
     0
  9
$USERI4
 70
     0
  9
$USERI5
 70
     0
  9
$USERR1
 40
0.0
  9
$USERR2
 40
0.0
  9
$USERR3
 40
0.0
  9
$USERR4
 40
0.0
  9
$USERR5
 40
0.0
  9
$WORLDVIEW
 70
     1
  9
$SHADEDGE
 70
     3
  9
$SHADEDIF
 70
    70
  9
$TILEMODE
 70
     1
  9
$MAXACTVP
 70
    64
  9
$PLIMCHECK
 70
     0
  9
$PEXTMIN
 10
1.0000000000000000E+20
 20
1.0000000000000000E+20
 30
1.0000000000000000E+20
  9
$PEXTMAX
 10
-1.0000000000000000E+20
 20
-1.0000000000000000E+20
 30
-1.0000000000000000E+20
  9
$PLIMMIN
 10
0.0
 20
0.0
  9
$PLIMMAX
 10
12.0
 20
9.0
  9
$UNITMODE
 70
     0
  9
$VISRETAIN
 70
     1
  9
$PLINEGEN
 70
     0
  9
$PSLTSCALE
 70
     1
  0
ENDSEC
  0
SECTION
  2
TABLES
  0
TABLE
  2
VPORT
 70
     1
  0
VPORT
  2
*ACTIVE
 70
     0
 10
0.0
 20
0.0
 11
1.0
 21
1.0
 12
84.4650138257197938
 22
2.059430888374814
 13
0.0
 23
0.0
 14
1.0
 24
1.0
 15
0.0
 25
0.0
 16
0.0
 26
0.0
 36
95.5902297660485658
 17
3089.811279296875
 27
197.161570589386713
 37
0.0
 40
20.2954597867681699
 41
2.000833333333333
 42
50.0
 43
0.0
 44
0.0
 50
0.0
 51
0.0
 71
     0
 72
   100
 73
     1
 74
     1
 75
     0
 76
     0
 77
     0
 78
     0
  0
ENDTAB
  0
TABLE
  2
LTYPE
 70
     2
  0
LTYPE
  2
CONTINUOUS
 70
     0
  3
Solid line
 72
    65
 73
     0
 40
0.0
  0
LTYPE
  2
PHANTOM2
 70
     0
  3
___ _ _ ___ _ _ ___ _ _ ___ _ _
 72
    65
 73
     6
 40
1.25
 49
0.625
 49
-0.125
 49
0.125
 49
-0.125
 49
0.125
 49
-0.125
  0
ENDTAB
  0
TABLE
  2
LAYER
 70
     2
  0
LAYER
  2
0
 70
     0
 62
   255
  6
CONTINUOUS
  0
LAYER
  2
DEFPOINTS
 70
     0
 62
     7
  6
CONTINUOUS
  0
ENDTAB
  0
TABLE
  2
STYLE
 70
     1
  0
STYLE
  2
STANDARD
 70
     0
 40
0.0
 41
0.8
 50
0.0
 71
     0
 42
0.2
  3
txt
  4

  0
ENDTAB
  0
TABLE
  2
VIEW
 70
     0
  0
ENDTAB
  0
TABLE
  2
UCS
 70
     0
  0
ENDTAB
  0
TABLE
  2
APPID
 70
     9
  0
APPID
  2
ACAD
 70
     0
  0
APPID
  2
ACAD_MLEADERVER
 70
     0
  0
APPID
  2
ACAD_EXEMPT_FROM_CAD_STANDARDS
 70
     0
  0
APPID
  2
ACAD_NAV_VCDISPLAY
 70
     0
  0
APPID
  2
ACAECLAYERSTANDARD
 70
     0
  0
APPID
  2
ACCMTRANSPARENCY
 70
     0
  0
APPID
  2
ACAD_DSTYLE_DIMJAG
 70
     0
  0
APPID
  2
ACAD_DSTYLE_DIMTALN
 70
     0
  0
APPID
  2
ACDBATTR
 70
     0
  0
ENDTAB
  0
TABLE
  2
DIMSTYLE
 70
     1
  0
DIMSTYLE
  2
STANDARD
 70
     0
  3

  4

  5

  6

  7

 40
1.0
 41
0.1875
 42
0.0625
 43
0.38
 44
0.125
 45
0.0
 46
0.0
 47
0.01
 48
0.01
140
0.15625
141
0.09
142
0.0
143
25.3999999999999986
144
1.0
145
0.0
146
1.0
147
0.09
 71
     1
 72
     0
 73
     1
 74
     1
 75
     0
 76
     0
 77
     0
 78
     4
170
     0
171
     2
172
     0
173
     0
174
     0
175
     0
176
     0
177
     0
178
     0
  0
ENDTAB
  0
ENDSEC
  0
SECTION
  2
BLOCKS
  0
BLOCK
  8
0
  2
$MODEL_SPACE
 70
     0
 10
0.0
 20
0.0
 30
0.0
  3
$MODEL_SPACE
  1

  0
ENDBLK
  5
21
  8
0
  0
BLOCK
 67
     1
  8
0
  2
$PAPER_SPACE
 70
     0
 10
0.0
 20
0.0
 30
0.0
  3
$PAPER_SPACE
  1

  0
ENDBLK
  5
1D
 67
     1
  8
0
  0
BLOCK
  8
0
  2
_FILLED
 70
     0
 10
0.0
 20
0.0
 30
0.0
  3
_FILLED
  1

  0
SOLID
  5
7E7B
  8
0
  6
BYBLOCK
 62
     0
 10
0.0
 20
0.0
 30
0.0
 11
-1.0
 21
0.1666666667
 31
0.0
 12
-1.0
 22
-0.1666666667
 32
0.0
 13
-1.0
 23
-0.1666666667
 33
0.0
  0
ENDBLK
  5
7E7C
  8
0
  6
BYBLOCK
 62
     0
  0
ENDSEC
  0
SECTION
  2
ENTITIES
  0
ATTDEF
  5
3930
  8
DEFPOINTS
 10
3182.0556307032538825
 20
194.2806400338924107
 30
0.0
 40
0.001
  1
P24421-LV
  3

  2
MODELNUMBER
 70
     0
1001
ACDBATTR
1070
     0
1070
     1
  0
ATTDEF
  5
3931
  8
DEFPOINTS
 10
3182.0556307032538825
 20
194.2789733672256887
 30
0.0
 40
0.001
  1
ONE
  3

  2
TRADENAME
 70
     0
1001
ACDBATTR
1070
     0
1070
     1
  0
ATTDEF
  5
3932
  8
DEFPOINTS
 10
3182.0556307032538825
 20
194.2773067005591088
 30
0.0
 40
0.001
  1
VALVE TRIM
  3

  2
PRODUCT
 70
     0
1001
ACDBATTR
1070
     0
1070
     1
  0
LINE
  5
82DD
  8
0
 10
3181.6950941555201098
 20
192.3021099544054948
 30
0.0
 11
3181.6950941568020426
 21
192.0221040444781124
 31
0.0
  0
LINE
  5
82DE
  8
0
 10
3181.7250941569200222
 20
191.9721099544055107
 30
0.0
 11
3182.3750941555199461
 21
191.9721099544055107
 31
0.0
  0
LINE
  5
82DF
  8
0
 10
3181.6950941569189126
 20
191.9421099544055949
 30
0.0
 11
3181.6950941569189126
 21
191.0321099544055983
 31
0.0
  0
LINE
  5
82E0
  8
0
 10
3181.7250941569200222
 20
191.0021099544055119
 30
0.0
 11
3182.3750941555199461
 21
191.0021099544055119
 31
0.0
  0
ARC
  5
82E1
  8
0
 10
3181.725094156220166
 20
192.0221099544056074
 30
0.0
 40
0.03
 50
180.0112871299920982
 51
270.0
  0
ARC
  5
82E2
  8
0
 10
3181.7250941569200222
 20
191.9421099544055949
 30
0.0
 40
0.0300000000000003
 50
90.0
 51
180.0
  0
ARC
  5
82E3
  8
0
 10
3181.7250941569200222
 20
191.0321099544055983
 30
0.0
 40
0.0299999999999994
 50
179.9999999999984084
 51
270.0
  0
LINE
  5
82E4
  8
0
 10
3182.4050941555201462
 20
191.9421099544055949
 30
0.0
 11
3182.4050941555201462
 21
191.0321099544055983
 31
0.0
  0
ARC
  5
82E5
  8
0
 10
3182.3750941555199461
 20
191.9421099544055949
 30
0.0
 40
0.0300000000000003
 50
0.0
 51
90.0
  0
ARC
  5
82E6
  8
0
 10
3182.3750941555199461
 20
191.0321099544055983
 30
0.0
 40
0.0299999999999994
 50
270.0
 51
0.0000000000016284
  0
LINE
  5
82E7
  8
0
 10
3181.7500941562198022
 20
191.9921099544056062
 30
0.0
 11
3181.7500941562198022
 21
191.9721099544055107
 31
0.0
  0
LINE
  5
82E8
  8
0
 10
3181.725094156220166
 20
191.9921099544056062
 30
0.0
 11
3182.3750941562198022
 21
191.9921099544056062
 31
0.0
  0
LINE
  5
82E9
  8
0
 10
3182.4050941569198585
 20
192.3021099544054948
 30
0.0
 11
3182.4050941556379257
 21
192.0221040444781124
 31
0.0
  0
ARC
  5
82EA
  8
0
 10
3182.3750941562198022
 20
192.0221099544056074
 30
0.0
 40
0.03
 50
270.0
 51
359.9887128700062249
  0
LINE
  5
82EB
  8
0
 10
3182.9206065190701338
 20
192.3021099544054948
 30
0.0
 11
3181.1806065190689878
 21
192.3021099544054948
 31
0.0
  0
LINE
  5
82EC
  8
0
 10
3181.1500941562189837
 20
192.3321099544056096
 30
0.0
 11
3181.1500941562189837
 21
193.5721099544055051
 31
0.0
  0
ARC
  5
82ED
  8
0
 10
3181.1809763746568933
 20
192.3330028647791892
 30
0.0
 40
0.0308951242837983
 50
181.6561552016750056
 51
269.3140771939030174
  0
LINE
  5
82EE
  8
0
 10
3182.9500941562200751
 20
192.3321099544056096
 30
0.0
 11
3182.9500941562200751
 21
193.5721099544055051
 31
0.0
  0
ARC
  5
82EF
  8
0
 10
3182.9183855803239567
 20
192.3337849746353925
 30
0.0
 40
0.0317527869348433
 50
274.0108113157418188
 51
356.9761345091471867
  0
ARC
  5
82F0
  8
0
 10
3179.0065099019161607
 20
193.6420041526920954
 30
0.0
 40
0.0698942756175594
 50
180.9147697341109904
 51
270.0852302244546763
  0
LINE
  5
82F1
  8
0
 10
3178.9366245343080664
 20
193.6408882860133076
 30
0.0
 11
3178.9250941562199841
 21
194.2721099544056074
 31
0.0
  0
LINE
  5
82F2
  8
0
 10
3179.006613872969865
 20
193.5721099544055051
 30
0.0
 11
3185.0945991651701661
 21
193.5721099544055051
 31
0.0
  0
LINE
  5
82F3
  8
0
 10
3178.9250941562199841
 20
194.2721099544056074
 30
0.0
 11
3185.1750941562199841
 21
194.2721099544056074
 31
0.0
  0
ARC
  5
82F4
  8
0
 10
3185.0945989829360769
 20
193.642110139848711
 30
0.0
 40
0.070000185443397
 50
270.0001491605456749
 51
358.9998508745056256
  0
LINE
  5
82F5
  8
0
 10
3185.1645885038319648
 20
193.6408882860056053
 30
0.0
 11
3185.1750941562199841
 21
194.2721099544056074
 31
0.0
  0
LINE
  5
82F6
  8
0
 10
3182.350094156220166
 20
191.9921099544056062
 30
0.0
 11
3182.350094156220166
 21
191.9721099544055107
 31
0.0
  0
ENDSEC
  0
EOF
