  0
SECTION
  2
HEADER
  9
$ACADVER
  1
AC1009
  9
$INSBASE
 10
468.4257889796492123
 20
-3.5586538438526718
 30
0.0
  9
$EXTMIN
 10
455.5721523801428248
 20
-3.5601044863249589
 30
-0.0000000000112498
  9
$EXTMAX
 10
470.7923939940891955
 20
34.2880145680397632
 30
0.0000000000002956
  9
$LIMMIN
 10
0.0
 20
0.0
  9
$LIMMAX
 10
11.6929133858000007
 20
8.2677165353999982
  9
$ORTHOMODE
 70
     0
  9
$REGENMODE
 70
     1
  9
$FILLMODE
 70
     1
  9
$QTEXTMODE
 70
     0
  9
$MIRRTEXT
 70
     0
  9
$DRAGMODE
 70
     2
  9
$LTSCALE
 40
0.6431102362
  9
$OSMODE
 70
  4095
  9
$ATTMODE
 70
     1
  9
$TEXTSIZE
 40
0.2
  9
$TRACEWID
 40
0.05
  9
$TEXTSTYLE
  7
STANDARD
  9
$CLAYER
  8
0
  9
$CELTYPE
  6
BYLAYER
  9
$CECOLOR
 62
   256
  9
$DIMSCALE
 40
1.0
  9
$DIMASZ
 40
0.1875
  9
$DIMEXO
 40
0.0625
  9
$DIMDLI
 40
0.4443307087
  9
$DIMRND
 40
0.0
  9
$DIMDLE
 40
0.0
  9
$DIMEXE
 40
0.125
  9
$DIMTP
 40
0.01
  9
$DIMTM
 40
0.01
  9
$DIMTXT
 40
1.0
  9
$DIMCEN
 40
0.1052362205
  9
$DIMTSZ
 40
0.0
  9
$DIMTOL
 70
     1
  9
$DIMLIM
 70
     0
  9
$DIMTIH
 70
     1
  9
$DIMTOH
 70
     1
  9
$DIMSE1
 70
     0
  9
$DIMSE2
 70
     0
  9
$DIMTAD
 70
     0
  9
$DIMZIN
 70
     0
  9
$DIMBLK
  1

  9
$DIMASO
 70
     1
  9
$DIMSHO
 70
     1
  9
$DIMPOST
  1
\X
  9
$DIMAPOST
  1

  9
$DIMALT
 70
     1
  9
$DIMALTD
 70
     2
  9
$DIMALTF
 40
25.3999999999999986
  9
$DIMLFAC
 40
1.0
  9
$DIMTOFL
 70
     0
  9
$DIMTVP
 40
0.0
  9
$DIMTIX
 70
     0
  9
$DIMSOXD
 70
     0
  9
$DIMSAH
 70
     0
  9
$DIMBLK1
  1

  9
$DIMBLK2
  1

  9
$DIMSTYLE
  2
STANDARD
  9
$DIMCLRD
 70
     0
  9
$DIMCLRE
 70
     0
  9
$DIMCLRT
 70
     0
  9
$DIMTFAC
 40
1.0
  9
$DIMGAP
 40
0.09
  9
$LUNITS
 70
     2
  9
$LUPREC
 70
     4
  9
$SKETCHINC
 40
0.1
  9
$FILLETRAD
 40
0.0
  9
$AUNITS
 70
     0
  9
$AUPREC
 70
     0
  9
$MENU
  1
.
  9
$ELEVATION
 40
0.0
  9
$PELEVATION
 40
0.0
  9
$THICKNESS
 40
0.0
  9
$LIMCHECK
 70
     0
  9
$BLIPMODE
 70
     0
  9
$CHAMFERA
 40
0.0
  9
$CHAMFERB
 40
0.0
  9
$SKPOLY
 70
     0
  9
$TDCREATE
 40
2458172.4620254631154239
  9
$TDUPDATE
 40
2459724.6307870368473232
  9
$TDINDWG
 40
0.162737419
  9
$TDUSRTIMER
 40
0.162737419
  9
$USRTIMER
 70
     1
  9
$ANGBASE
 50
0.0
  9
$ANGDIR
 70
     0
  9
$PDMODE
 70
     0
  9
$PDSIZE
 40
0.3125
  9
$PLINEWID
 40
0.0
  9
$COORDS
 70
     1
  9
$SPLFRAME
 70
     0
  9
$SPLINETYPE
 70
     6
  9
$SPLINESEGS
 70
     8
  9
$ATTDIA
 70
     1
  9
$ATTREQ
 70
     1
  9
$HANDLING
 70
     1
  9
$HANDSEED
  5
D630
  9
$SURFTAB1
 70
     6
  9
$SURFTAB2
 70
     6
  9
$SURFTYPE
 70
     6
  9
$SURFU
 70
     6
  9
$SURFV
 70
     6
  9
$UCSNAME
  2

  9
$UCSORG
 10
0.0
 20
0.0
 30
0.0
  9
$UCSXDIR
 10
1.0
 20
0.0
 30
0.0
  9
$UCSYDIR
 10
0.0
 20
1.0
 30
0.0
  9
$PUCSNAME
  2

  9
$PUCSORG
 10
0.0
 20
0.0
 30
0.0
  9
$PUCSXDIR
 10
1.0
 20
0.0
 30
0.0
  9
$PUCSYDIR
 10
0.0
 20
1.0
 30
0.0
  9
$USERI1
 70
     0
  9
$USERI2
 70
     0
  9
$USERI3
 70
     0
  9
$USERI4
 70
     0
  9
$USERI5
 70
     0
  9
$USERR1
 40
0.0
  9
$USERR2
 40
0.0
  9
$USERR3
 40
0.0
  9
$USERR4
 40
0.0
  9
$USERR5
 40
0.0
  9
$WORLDVIEW
 70
     1
  9
$SHADEDGE
 70
     3
  9
$SHADEDIF
 70
    70
  9
$TILEMODE
 70
     1
  9
$MAXACTVP
 70
    64
  9
$PLIMCHECK
 70
     0
  9
$PEXTMIN
 10
1.0000000000000000E+20
 20
1.0000000000000000E+20
 30
1.0000000000000000E+20
  9
$PEXTMAX
 10
-1.0000000000000000E+20
 20
-1.0000000000000000E+20
 30
-1.0000000000000000E+20
  9
$PLIMMIN
 10
0.0
 20
0.0
  9
$PLIMMAX
 10
12.0
 20
9.0
  9
$UNITMODE
 70
     0
  9
$VISRETAIN
 70
     1
  9
$PLINEGEN
 70
     0
  9
$PSLTSCALE
 70
     1
  0
ENDSEC
  0
SECTION
  2
TABLES
  0
TABLE
  2
VPORT
 70
     1
  0
VPORT
  2
*ACTIVE
 70
     0
 10
0.0
 20
0.0
 11
1.0
 21
1.0
 12
338.5711145870433825
 22
10.0516808704795704
 13
0.0
 23
0.0
 14
1.0
 24
1.0
 15
0.0
 25
0.0
 16
0.0
 26
0.0
 36
30.6214257250603907
 17
124.6111586000725993
 27
5.3122741703778242
 37
0.0
 40
38.0851636413440389
 41
2.005224660397074
 42
50.0
 43
0.0
 44
0.0
 50
0.0
 51
0.0
 71
     0
 72
   100
 73
     1
 74
     1
 75
     0
 76
     0
 77
     0
 78
     0
  0
ENDTAB
  0
TABLE
  2
LTYPE
 70
     2
  0
LTYPE
  2
CONTINUOUS
 70
     0
  3
Solid line
 72
    65
 73
     0
 40
0.0
  0
LTYPE
  2
PHANTOM2
 70
     0
  3
___ _ _ ___ _ _ ___ _ _ ___ _ _
 72
    65
 73
     6
 40
1.25
 49
0.625
 49
-0.125
 49
0.125
 49
-0.125
 49
0.125
 49
-0.125
  0
ENDTAB
  0
TABLE
  2
LAYER
 70
     2
  0
LAYER
  2
0
 70
     0
 62
   255
  6
CONTINUOUS
  0
LAYER
  2
DEFPOINTS
 70
     0
 62
     7
  6
CONTINUOUS
  0
ENDTAB
  0
TABLE
  2
STYLE
 70
     1
  0
STYLE
  2
STANDARD
 70
     0
 40
0.0
 41
0.8
 50
0.0
 71
     0
 42
0.2
  3
txt
  4

  0
ENDTAB
  0
TABLE
  2
VIEW
 70
     0
  0
ENDTAB
  0
TABLE
  2
UCS
 70
     0
  0
ENDTAB
  0
TABLE
  2
APPID
 70
     9
  0
APPID
  2
ACAD
 70
     0
  0
APPID
  2
ACAD_MLEADERVER
 70
     0
  0
APPID
  2
ACAD_EXEMPT_FROM_CAD_STANDARDS
 70
     0
  0
APPID
  2
ACAD_DSTYLE_DIMJAG
 70
     0
  0
APPID
  2
ACAD_DSTYLE_DIMTALN
 70
     0
  0
APPID
  2
ACAD_NAV_VCDISPLAY
 70
     0
  0
APPID
  2
ACAECLAYERSTANDARD
 70
     0
  0
APPID
  2
ACCMTRANSPARENCY
 70
     0
  0
APPID
  2
ACDBATTR
 70
     0
  0
ENDTAB
  0
TABLE
  2
DIMSTYLE
 70
     1
  0
DIMSTYLE
  2
STANDARD
 70
     0
  3

  4

  5

  6

  7

 40
1.0
 41
0.1875
 42
0.0625
 43
0.38
 44
0.125
 45
0.0
 46
0.0
 47
0.01
 48
0.01
140
0.15625
141
0.09
142
0.0
143
25.3999999999999986
144
1.0
145
0.0
146
1.0
147
0.09
 71
     1
 72
     0
 73
     1
 74
     1
 75
     0
 76
     0
 77
     0
 78
     4
170
     0
171
     2
172
     0
173
     0
174
     0
175
     0
176
     0
177
     0
178
     0
  0
ENDTAB
  0
ENDSEC
  0
SECTION
  2
BLOCKS
  0
BLOCK
  8
0
  2
$MODEL_SPACE
 70
     0
 10
0.0
 20
0.0
 30
0.0
  3
$MODEL_SPACE
  1

  0
ENDBLK
  5
21
  8
0
  0
BLOCK
 67
     1
  8
0
  2
$PAPER_SPACE
 70
     0
 10
0.0
 20
0.0
 30
0.0
  3
$PAPER_SPACE
  1

  0
ENDBLK
  5
1D
 67
     1
  8
0
  0
ENDSEC
  0
SECTION
  2
ENTITIES
  0
ATTDEF
  5
7EBB
  8
DEFPOINTS
 10
468.4211889742834956
 20
-3.5537366361267302
 30
0.0
 40
0.001
  1
P24418-00
  3

  2
MODELNUMBER
 70
     0
1001
ACDBATTR
1070
     0
1070
     1
  0
ATTDEF
  5
7EBC
  8
DEFPOINTS
 10
468.4211889742834956
 20
-3.5554033027933949
 30
0.0
 40
0.001
  1
ONE
  3

  2
TRADENAME
 70
     0
1001
ACDBATTR
1070
     0
1070
     1
  0
ATTDEF
  5
7EBD
  8
DEFPOINTS
 10
468.4211889742834956
 20
-3.55706996946006
 30
0.0
 40
0.001
  1
BATH FILLER
  3

  2
PRODUCT
 70
     0
1001
ACDBATTR
1070
     0
1070
     1
  0
ARC
  5
D505
  8
0
 10
468.4257889796492123
 20
23.1972398569473306
 30
0.0
 40
0.9054999999999999
 50
105.7973164460261017
 51
74.2026835481927662
  0
ARC
  5
D506
  8
0
 10
468.145332297749178
 20
24.1885299706767682
 30
0.0
 40
0.1247
 50
285.7973164460261728
 51
0.0
  0
ARC
  5
D507
  8
0
 10
468.7062456616491772
 20
24.1885299706484815
 30
0.0
 40
0.1247
 50
180.0
 51
254.2026835481960063
  0
LINE
  5
D508
  8
0
 10
466.063584255249225
 20
-3.5586538438526718
 30
0.0
 11
470.7879937040491996
 21
-3.5586538438526718
 31
0.0
  0
LINE
  5
D509
  8
0
 10
466.063584255249225
 20
-2.807000300552672
 30
0.0
 11
466.063584255249225
 21
-3.5586538438526718
 31
0.0
  0
LINE
  5
D50A
  8
0
 10
466.0835842552492068
 20
-2.7870003005526729
 30
0.0
 11
470.7679937040492177
 21
-2.7870003005526729
 31
0.0
  0
ARC
  5
D50B
  8
0
 10
466.0835842552492068
 20
-2.8070003005526711
 30
0.0
 40
0.02
 50
89.9999999999967457
 51
180.0000000000050875
  0
LINE
  5
D50C
  8
0
 10
467.6383874048490839
 20
-2.7870003005526729
 30
0.0
 11
467.6383874048490839
 21
22.7501056377217417
 31
0.0
  0
LINE
  5
D50D
  8
0
 10
467.6383874048490839
 20
26.3665431719473311
 30
0.0
 11
468.2700322977491965
 21
26.3665431719473311
 31
0.0
  0
LINE
  5
D50E
  8
0
 10
468.5815456616492156
 20
26.3665431719473418
 30
0.0
 11
469.213190554449227
 21
26.3665431719473311
 31
0.0
  0
LINE
  5
D50F
  8
0
 10
467.8322889796492063
 20
26.3665431719473311
 30
0.0
 11
467.8322889796492063
 21
32.2058073845473274
 31
0.0
  0
LINE
  5
D510
  8
0
 10
467.6383874048490839
 20
23.6443740761729195
 30
0.0
 11
467.6383874048490839
 21
26.3665431719473311
 31
0.0
  0
LINE
  5
D511
  8
0
 10
470.7879937040491996
 20
-2.807000300552672
 30
0.0
 11
470.7879937040491996
 21
-3.5586538438526718
 31
0.0
  0
ARC
  5
D512
  8
0
 10
470.7679937040492177
 20
-2.8070003005526711
 30
0.0
 40
0.02
 50
359.9999999999948841
 51
90.0000000000032543
  0
LINE
  5
D513
  8
0
 10
469.213190554449227
 20
-2.7870003005526729
 30
0.0
 11
469.213190554449227
 21
22.7501056377217417
 31
0.0
  0
LINE
  5
D514
  8
0
 10
469.0192889796492182
 20
26.3665431719473311
 30
0.0
 11
469.0192889796492182
 21
32.2108073845473299
 31
0.0
  0
LINE
  5
D515
  8
0
 10
469.213190554449227
 20
23.6443740761729018
 30
0.0
 11
469.213190554449227
 21
26.3665431719473311
 31
0.0
  0
LINE
  5
D516
  8
0
 10
468.2900322977491783
 20
27.5292516679473316
 30
0.0
 11
468.561545661649177
 21
27.5292516679473316
 31
0.0
  0
LINE
  5
D517
  8
0
 10
468.2700322977491965
 20
24.1885299706767682
 30
0.0
 11
468.2700322977491965
 21
27.5092516679473285
 31
0.0
  0
LINE
  5
D518
  8
0
 10
468.5815456616492156
 20
24.1885299706484815
 30
0.0
 11
468.5815456616492156
 21
27.5092516679473285
 31
0.0
  0
ARC
  5
D519
  8
0
 10
468.4257889795246115
 20
22.8632387809808684
 30
0.0
 40
0.599987703134137
 50
252.5933473811014949
 51
287.4066526444700003
  0
ARC
  5
D51A
  8
0
 10
468.2507889796490872
 20
22.3050402384694912
 30
0.0
 40
0.015
 50
180.0
 51
252.5933473810979137
  0
ARC
  5
D51B
  8
0
 10
468.6007889796492236
 20
22.3050402385475905
 30
0.0
 40
0.015
 50
287.4066526444735246
 51
359.9999999999321858
  0
LINE
  5
D51C
  8
0
 10
468.61578897964921
 20
22.3050402385475692
 30
0.0
 11
468.61578897964921
 21
22.311897973830991
 31
0.0
  0
LINE
  5
D51D
  8
0
 10
468.2357889796492145
 20
22.3050402384694912
 30
0.0
 11
468.2357889796492145
 21
22.3118979738309804
 31
0.0
  0
LINE
  5
D51E
  8
0
 10
455.5822889796492063
 20
31.6503073845473288
 30
0.0
 11
456.7692889796492182
 21
31.6503073845473288
 31
0.0
  0
LINE
  5
D51F
  8
0
 10
466.94228897964922
 20
34.2878073845473281
 30
0.0
 11
457.6592889796492045
 21
34.2878073845473281
 31
0.0
  0
LINE
  5
D520
  8
0
 10
455.5822889796492063
 20
32.2108073845473299
 30
0.0
 11
455.5822889796492063
 21
31.6503073845473288
 31
0.0
  0
LINE
  5
D521
  8
0
 10
456.7692889796492182
 20
32.2058073845473274
 30
0.0
 11
456.7692889796492182
 21
31.6503073845473288
 31
0.0
  0
LINE
  5
D522
  8
0
 10
466.9372889796492245
 20
33.1008073845473305
 30
0.0
 11
457.6642889796492
 21
33.1008073845473305
 31
0.0
  0
ARC
  5
D523
  8
0
 10
466.9372889796492245
 20
32.2058073845473416
 30
0.0
 40
0.8949999999999999
 50
359.9999999999996021
 51
90.0
  0
ARC
  5
D524
  8
0
 10
457.6642889796492
 20
32.2058073845473416
 30
0.0
 40
0.8949999999999999
 50
90.0
 51
180.000000000000199
  0
ARC
  5
D525
  8
0
 10
466.94228897964922
 20
32.2108073845473299
 30
0.0
 40
2.0769999999999991
 50
0.0
 51
90.0
  0
ARC
  5
D526
  8
0
 10
457.6592889796492045
 20
32.2108073845473299
 30
0.0
 40
2.0769999999999991
 50
90.0
 51
179.999999999999801
  0
ARC
  5
D527
  8
0
 10
468.2900322977491783
 20
27.5092516679473285
 30
0.0
 40
0.02
 50
90.0000000000195257
 51
179.9999999999897966
  0
ARC
  5
D528
  8
0
 10
468.561545661649177
 20
27.5092516679473285
 30
0.0
 40
0.02
 50
359.999999999989825
 51
90.0000000000195257
  0
ENDSEC
  0
EOF
