  0
SECTION
  2
HEADER
  9
$ACADVER
  1
AC1009
  9
$INSBASE
 10
3154.4498082476779928
 20
195.0659464541930106
 30
0.0
  9
$EXTMIN
 10
3151.3248082476770833
 20
191.745946454192989
 30
0.0
  9
$EXTMAX
 10
3167.8700119649820408
 20
201.9066728371427928
 30
0.0
  9
$LIMMIN
 10
0.0
 20
0.0
  9
$LIMMAX
 10
11.6929133858000007
 20
8.2677165353999982
  9
$ORTHOMODE
 70
     0
  9
$REGENMODE
 70
     1
  9
$FILLMODE
 70
     1
  9
$QTEXTMODE
 70
     0
  9
$MIRRTEXT
 70
     0
  9
$DRAGMODE
 70
     2
  9
$LTSCALE
 40
0.6431102362
  9
$OSMODE
 70
  4095
  9
$ATTMODE
 70
     1
  9
$TEXTSIZE
 40
0.2
  9
$TRACEWID
 40
0.05
  9
$TEXTSTYLE
  7
STANDARD
  9
$CLAYER
  8
0
  9
$CELTYPE
  6
BYLAYER
  9
$CECOLOR
 62
   256
  9
$DIMSCALE
 40
1.0
  9
$DIMASZ
 40
0.1875
  9
$DIMEXO
 40
0.0625
  9
$DIMDLI
 40
0.4443307087
  9
$DIMRND
 40
0.0
  9
$DIMDLE
 40
0.0
  9
$DIMEXE
 40
0.125
  9
$DIMTP
 40
0.01
  9
$DIMTM
 40
0.01
  9
$DIMTXT
 40
2.0
  9
$DIMCEN
 40
0.1052362205
  9
$DIMTSZ
 40
0.0
  9
$DIMTOL
 70
     1
  9
$DIMLIM
 70
     0
  9
$DIMTIH
 70
     1
  9
$DIMTOH
 70
     1
  9
$DIMSE1
 70
     0
  9
$DIMSE2
 70
     0
  9
$DIMTAD
 70
     0
  9
$DIMZIN
 70
     0
  9
$DIMBLK
  1

  9
$DIMASO
 70
     1
  9
$DIMSHO
 70
     1
  9
$DIMPOST
  1
\X
  9
$DIMAPOST
  1

  9
$DIMALT
 70
     1
  9
$DIMALTD
 70
     2
  9
$DIMALTF
 40
25.3999999999999986
  9
$DIMLFAC
 40
1.0
  9
$DIMTOFL
 70
     0
  9
$DIMTVP
 40
0.0
  9
$DIMTIX
 70
     0
  9
$DIMSOXD
 70
     0
  9
$DIMSAH
 70
     0
  9
$DIMBLK1
  1

  9
$DIMBLK2
  1

  9
$DIMSTYLE
  2
STANDARD
  9
$DIMCLRD
 70
     0
  9
$DIMCLRE
 70
     0
  9
$DIMCLRT
 70
     0
  9
$DIMTFAC
 40
1.0
  9
$DIMGAP
 40
0.09
  9
$LUNITS
 70
     2
  9
$LUPREC
 70
     4
  9
$SKETCHINC
 40
0.1
  9
$FILLETRAD
 40
0.0
  9
$AUNITS
 70
     0
  9
$AUPREC
 70
     0
  9
$MENU
  1
.
  9
$ELEVATION
 40
0.0
  9
$PELEVATION
 40
0.0
  9
$THICKNESS
 40
0.0
  9
$LIMCHECK
 70
     0
  9
$BLIPMODE
 70
     0
  9
$CHAMFERA
 40
0.0
  9
$CHAMFERB
 40
0.0
  9
$SKPOLY
 70
     0
  9
$TDCREATE
 40
2458060.468368056230247
  9
$TDUPDATE
 40
2459485.0171990739181638
  9
$TDINDWG
 40
0.3880394676
  9
$TDUSRTIMER
 40
0.3880394676
  9
$USRTIMER
 70
     1
  9
$ANGBASE
 50
0.0
  9
$ANGDIR
 70
     0
  9
$PDMODE
 70
     0
  9
$PDSIZE
 40
0.3125
  9
$PLINEWID
 40
0.0
  9
$COORDS
 70
     1
  9
$SPLFRAME
 70
     0
  9
$SPLINETYPE
 70
     6
  9
$SPLINESEGS
 70
     8
  9
$ATTDIA
 70
     1
  9
$ATTREQ
 70
     1
  9
$HANDLING
 70
     1
  9
$HANDSEED
  5
80AC
  9
$SURFTAB1
 70
     6
  9
$SURFTAB2
 70
     6
  9
$SURFTYPE
 70
     6
  9
$SURFU
 70
     6
  9
$SURFV
 70
     6
  9
$UCSNAME
  2

  9
$UCSORG
 10
0.0
 20
0.0
 30
0.0
  9
$UCSXDIR
 10
1.0
 20
0.0
 30
0.0
  9
$UCSYDIR
 10
0.0
 20
1.0
 30
0.0
  9
$PUCSNAME
  2

  9
$PUCSORG
 10
0.0
 20
0.0
 30
0.0
  9
$PUCSXDIR
 10
1.0
 20
0.0
 30
0.0
  9
$PUCSYDIR
 10
0.0
 20
1.0
 30
0.0
  9
$USERI1
 70
     0
  9
$USERI2
 70
     0
  9
$USERI3
 70
     0
  9
$USERI4
 70
     0
  9
$USERI5
 70
     0
  9
$USERR1
 40
0.0
  9
$USERR2
 40
0.0
  9
$USERR3
 40
0.0
  9
$USERR4
 40
0.0
  9
$USERR5
 40
0.0
  9
$WORLDVIEW
 70
     1
  9
$SHADEDGE
 70
     3
  9
$SHADEDIF
 70
    70
  9
$TILEMODE
 70
     1
  9
$MAXACTVP
 70
    64
  9
$PLIMCHECK
 70
     0
  9
$PEXTMIN
 10
1.0000000000000000E+20
 20
1.0000000000000000E+20
 30
1.0000000000000000E+20
  9
$PEXTMAX
 10
-1.0000000000000000E+20
 20
-1.0000000000000000E+20
 30
-1.0000000000000000E+20
  9
$PLIMMIN
 10
0.0
 20
0.0
  9
$PLIMMAX
 10
12.0
 20
9.0
  9
$UNITMODE
 70
     0
  9
$VISRETAIN
 70
     1
  9
$PLINEGEN
 70
     0
  9
$PSLTSCALE
 70
     1
  0
ENDSEC
  0
SECTION
  2
TABLES
  0
TABLE
  2
VPORT
 70
     1
  0
VPORT
  2
*ACTIVE
 70
     0
 10
0.0
 20
0.0
 11
1.0
 21
1.0
 12
89.8856815580389821
 22
-11.3994339062104704
 13
0.0
 23
0.0
 14
1.0
 24
1.0
 15
0.0
 25
0.0
 16
0.0
 26
0.0
 36
95.5902297660485658
 17
3089.811279296875
 27
197.161570589386713
 37
0.0
 40
52.7090101428915716
 41
2.000833333333333
 42
50.0
 43
0.0
 44
0.0
 50
0.0
 51
0.0
 71
     0
 72
   100
 73
     1
 74
     1
 75
     0
 76
     0
 77
     0
 78
     0
  0
ENDTAB
  0
TABLE
  2
LTYPE
 70
     2
  0
LTYPE
  2
CONTINUOUS
 70
     0
  3
Solid line
 72
    65
 73
     0
 40
0.0
  0
LTYPE
  2
PHANTOM2
 70
     0
  3
___ _ _ ___ _ _ ___ _ _ ___ _ _
 72
    65
 73
     6
 40
1.25
 49
0.625
 49
-0.125
 49
0.125
 49
-0.125
 49
0.125
 49
-0.125
  0
ENDTAB
  0
TABLE
  2
LAYER
 70
     2
  0
LAYER
  2
0
 70
     0
 62
   255
  6
CONTINUOUS
  0
LAYER
  2
DEFPOINTS
 70
     0
 62
     7
  6
CONTINUOUS
  0
ENDTAB
  0
TABLE
  2
STYLE
 70
     1
  0
STYLE
  2
STANDARD
 70
     0
 40
0.0
 41
0.8
 50
0.0
 71
     0
 42
0.2
  3
txt
  4

  0
ENDTAB
  0
TABLE
  2
VIEW
 70
     0
  0
ENDTAB
  0
TABLE
  2
UCS
 70
     0
  0
ENDTAB
  0
TABLE
  2
APPID
 70
     9
  0
APPID
  2
ACAD
 70
     0
  0
APPID
  2
ACAD_MLEADERVER
 70
     0
  0
APPID
  2
ACAD_EXEMPT_FROM_CAD_STANDARDS
 70
     0
  0
APPID
  2
ACAD_NAV_VCDISPLAY
 70
     0
  0
APPID
  2
ACAECLAYERSTANDARD
 70
     0
  0
APPID
  2
ACCMTRANSPARENCY
 70
     0
  0
APPID
  2
ACAD_DSTYLE_DIMJAG
 70
     0
  0
APPID
  2
ACAD_DSTYLE_DIMTALN
 70
     0
  0
APPID
  2
ACDBATTR
 70
     0
  0
ENDTAB
  0
TABLE
  2
DIMSTYLE
 70
     1
  0
DIMSTYLE
  2
STANDARD
 70
     0
  3

  4

  5

  6

  7

 40
1.0
 41
0.1875
 42
0.0625
 43
0.38
 44
0.125
 45
0.0
 46
0.0
 47
0.01
 48
0.01
140
0.15625
141
0.09
142
0.0
143
25.3999999999999986
144
1.0
145
0.0
146
1.0
147
0.09
 71
     1
 72
     0
 73
     1
 74
     1
 75
     0
 76
     0
 77
     0
 78
     4
170
     0
171
     2
172
     0
173
     0
174
     0
175
     0
176
     0
177
     0
178
     0
  0
ENDTAB
  0
ENDSEC
  0
SECTION
  2
BLOCKS
  0
BLOCK
  8
0
  2
$MODEL_SPACE
 70
     0
 10
0.0
 20
0.0
 30
0.0
  3
$MODEL_SPACE
  1

  0
ENDBLK
  5
21
  8
0
  0
BLOCK
 67
     1
  8
0
  2
$PAPER_SPACE
 70
     0
 10
0.0
 20
0.0
 30
0.0
  3
$PAPER_SPACE
  1

  0
ENDBLK
  5
1D
 67
     1
  8
0
  0
BLOCK
  8
0
  2
_FILLED
 70
     0
 10
0.0
 20
0.0
 30
0.0
  3
_FILLED
  1

  0
SOLID
  5
7E7B
  8
0
  6
BYBLOCK
 62
     0
 10
0.0
 20
0.0
 30
0.0
 11
-1.0
 21
0.1666666667
 31
0.0
 12
-1.0
 22
-0.1666666667
 32
0.0
 13
-1.0
 23
-0.1666666667
 33
0.0
  0
ENDBLK
  5
7E7C
  8
0
  6
BYBLOCK
 62
     0
  0
ENDSEC
  0
SECTION
  2
ENTITIES
  0
ATTDEF
  5
3930
  8
DEFPOINTS
 10
3154.4517687882130303
 20
195.07018582413221
 30
0.0
 40
0.001
  1
P24416-LV
  3

  2
MODELNUMBER
 70
     0
1001
ACDBATTR
1070
     0
1070
     1
  0
ATTDEF
  5
3931
  8
DEFPOINTS
 10
3154.4517687882130303
 20
195.068519157465488
 30
0.0
 40
0.001
  1
ONE
  3

  2
TRADENAME
 70
     0
1001
ACDBATTR
1070
     0
1070
     1
  0
ATTDEF
  5
3932
  8
DEFPOINTS
 10
3154.4517687882130303
 20
195.0668524907987944
 30
0.0
 40
0.001
  1
VALVE TRIM
  3

  2
PRODUCT
 70
     0
1001
ACDBATTR
1070
     0
1070
     1
  0
LINE
  5
7FC5
  8
0
 10
3151.3248082476770833
 20
194.0759464541930015
 30
0.0
 11
3151.3248082476770833
 21
195.0659464541930106
 31
0.0
  0
LINE
  5
7FC6
  8
0
 10
3151.3248082476770833
 20
195.0659464541930106
 30
0.0
 11
3157.5748082476770833
 21
195.0659464541930106
 31
0.0
  0
LINE
  5
7FC7
  8
0
 10
3157.5748082476770833
 20
195.0659464541930106
 30
0.0
 11
3157.5748082476770833
 21
194.0759464541930015
 31
0.0
  0
LINE
  5
7FC8
  8
0
 10
3151.3948082476781565
 20
194.0059464541930083
 30
0.0
 11
3157.5048082490779962
 21
194.0059464541930083
 31
0.0
  0
LINE
  5
7FC9
  8
0
 10
3153.6628082476781856
 20
193.945946454193006
 30
0.0
 11
3153.6628082476781856
 21
193.2259464541930072
 31
0.0
  0
LINE
  5
7FCA
  8
0
 10
3153.6728082476770396
 20
193.2159464541929879
 30
0.0
 11
3155.226808249674832
 21
193.2159464541929879
 31
0.0
  0
LINE
  5
7FCB
  8
0
 10
3154.0948082476779746
 20
193.2009464541930015
 30
0.0
 11
3154.0948082476779746
 21
192.7259464541930072
 31
0.0
  0
LINE
  5
7FCC
  8
0
 10
3154.1048082476781929
 20
192.7159464541929879
 30
0.0
 11
3154.7948082491288915
 21
192.7159464541929879
 31
0.0
  0
LINE
  5
7FCD
  8
0
 10
3154.0948082476779746
 20
192.6859464541929867
 30
0.0
 11
3154.0948082476779746
 21
191.7759464541929901
 31
0.0
  0
LINE
  5
7FCE
  8
0
 10
3154.1248082476781747
 20
191.745946454192989
 30
0.0
 11
3154.774808249077978
 21
191.745946454192989
 31
0.0
  0
LINE
  5
7FCF
  8
0
 10
3153.4498082476779928
 20
193.995946454192989
 30
0.0
 11
3153.4498082476779928
 21
193.9759464541930072
 31
0.0
  0
LINE
  5
7FD0
  8
0
 10
3153.4798082476781929
 20
193.945946454193006
 30
0.0
 11
3155.4198082490779598
 21
193.945946454193006
 31
0.0
  0
ARC
  5
7FD1
  8
0
 10
3151.3948082476190393
 20
194.0759464541343959
 30
0.0
 40
0.0699999999414511
 50
179.9999999520765073
 51
270.0000000479153073
  0
ARC
  5
7FD2
  8
0
 10
3153.459808247678211
 20
193.995946454192989
 30
0.0
 40
0.0099999999999998
 50
90.0
 51
180.0
  0
ARC
  5
7FD3
  8
0
 10
3153.4798082476781929
 20
193.9759464541930072
 30
0.0
 40
0.0299999999999976
 50
180.0
 51
270.0
  0
ARC
  5
7FD4
  8
0
 10
3153.6728082476770396
 20
193.2259464541930072
 30
0.0
 40
0.0099999999999998
 50
180.0
 51
269.999996574301008
  0
ARC
  5
7FD5
  8
0
 10
3154.0798082476781019
 20
193.2009464541930015
 30
0.0
 40
0.0149999999999988
 50
0.0
 51
90.0
  0
ARC
  5
7FD6
  8
0
 10
3154.1248082476781747
 20
192.6859464541929867
 30
0.0
 40
0.0299999999999958
 50
90.0
 51
180.0000000000032117
  0
ARC
  5
7FD7
  8
0
 10
3154.1048082476781929
 20
192.7259464541930072
 30
0.0
 40
0.0099999999999998
 50
180.0000000000098055
 51
269.9999997071927282
  0
ARC
  5
7FD8
  8
0
 10
3154.1248082476781747
 20
191.7759464541929901
 30
0.0
 40
0.0299999999999985
 50
180.0
 51
270.0
  0
LINE
  5
7FD9
  8
0
 10
3155.236808249077967
 20
193.945946454193006
 30
0.0
 11
3155.236808249077967
 21
193.2259464541930072
 31
0.0
  0
LINE
  5
7FDA
  8
0
 10
3154.8048082490781781
 20
193.2009464541930015
 30
0.0
 11
3154.8048082490781781
 21
192.7259464541930072
 31
0.0
  0
LINE
  5
7FDB
  8
0
 10
3154.8048082490781781
 20
192.6859464541929867
 30
0.0
 11
3154.8048082490781781
 21
191.7759464541929901
 31
0.0
  0
LINE
  5
7FDC
  8
0
 10
3155.4498082490781599
 20
193.995946454192989
 30
0.0
 11
3155.4498082490781599
 21
193.9759464541930072
 31
0.0
  0
ARC
  5
7FDD
  8
0
 10
3157.5048106565641319
 20
194.075940642006401
 30
0.0
 40
0.0699941878547994
 50
269.9980292818528937
 51
0.0047577345014481
  0
ARC
  5
7FDE
  8
0
 10
3155.4398082490779416
 20
193.995946454192989
 30
0.0
 40
0.0099999999999998
 50
0.0
 51
90.0
  0
ARC
  5
7FDF
  8
0
 10
3155.4198082490779598
 20
193.9759464541930072
 30
0.0
 40
0.0299999999999976
 50
270.0
 51
0.0
  0
ARC
  5
7FE0
  8
0
 10
3155.2268082490782035
 20
193.2259464541930072
 30
0.0
 40
0.0099999999999998
 50
270.000003425698992
 51
0.0
  0
ARC
  5
7FE1
  8
0
 10
3154.8198082490780507
 20
193.2009464541930015
 30
0.0
 40
0.0149999999999988
 50
90.0
 51
180.0
  0
ARC
  5
7FE2
  8
0
 10
3154.774808249077978
 20
192.6859464541929867
 30
0.0
 40
0.0299999999999958
 50
359.9999999999968168
 51
90.0
  0
ARC
  5
7FE3
  8
0
 10
3154.7948082490779598
 20
192.7259464541930072
 30
0.0
 40
0.0099999999999998
 50
270.0000002928072718
 51
359.9999999999902229
  0
ARC
  5
7FE4
  8
0
 10
3154.774808249077978
 20
191.7759464541929901
 30
0.0
 40
0.0299999999999985
 50
270.0
 51
0.0
  0
LINE
  5
7FE6
  8
0
 10
3153.6628082476781856
 20
193.5059464541930083
 30
0.0
 11
3155.236808249077967
 21
193.5059464541930083
 31
0.0
  0
ENDSEC
  0
EOF
