  0
SECTION
  2
HEADER
  9
$ACADVER
  1
AC1009
  9
$INSBASE
 10
3177.6186159951321315
 20
200.2527449412916951
 30
0.0
  9
$EXTMIN
 10
3168.9138473173961756
 20
190.3545804152334995
 30
0.0
  9
$EXTMAX
 10
3183.2035272485691166
 20
203.3777449412916951
 30
0.0
  9
$LIMMIN
 10
0.0
 20
0.0
  9
$LIMMAX
 10
11.6929133858000007
 20
8.2677165353999982
  9
$ORTHOMODE
 70
     0
  9
$REGENMODE
 70
     1
  9
$FILLMODE
 70
     1
  9
$QTEXTMODE
 70
     0
  9
$MIRRTEXT
 70
     0
  9
$DRAGMODE
 70
     2
  9
$LTSCALE
 40
0.6431102362
  9
$OSMODE
 70
  4095
  9
$ATTMODE
 70
     1
  9
$TEXTSIZE
 40
0.2
  9
$TRACEWID
 40
0.05
  9
$TEXTSTYLE
  7
STANDARD
  9
$CLAYER
  8
0
  9
$CELTYPE
  6
BYLAYER
  9
$CECOLOR
 62
   256
  9
$DIMSCALE
 40
1.0
  9
$DIMASZ
 40
0.1875
  9
$DIMEXO
 40
0.0625
  9
$DIMDLI
 40
0.4443307087
  9
$DIMRND
 40
0.0
  9
$DIMDLE
 40
0.0
  9
$DIMEXE
 40
0.125
  9
$DIMTP
 40
0.01
  9
$DIMTM
 40
0.01
  9
$DIMTXT
 40
2.0
  9
$DIMCEN
 40
0.1052362205
  9
$DIMTSZ
 40
0.0
  9
$DIMTOL
 70
     1
  9
$DIMLIM
 70
     0
  9
$DIMTIH
 70
     1
  9
$DIMTOH
 70
     1
  9
$DIMSE1
 70
     0
  9
$DIMSE2
 70
     0
  9
$DIMTAD
 70
     0
  9
$DIMZIN
 70
     0
  9
$DIMBLK
  1

  9
$DIMASO
 70
     1
  9
$DIMSHO
 70
     1
  9
$DIMPOST
  1
\X
  9
$DIMAPOST
  1

  9
$DIMALT
 70
     1
  9
$DIMALTD
 70
     2
  9
$DIMALTF
 40
25.3999999999999986
  9
$DIMLFAC
 40
1.0
  9
$DIMTOFL
 70
     0
  9
$DIMTVP
 40
0.0
  9
$DIMTIX
 70
     0
  9
$DIMSOXD
 70
     0
  9
$DIMSAH
 70
     0
  9
$DIMBLK1
  1

  9
$DIMBLK2
  1

  9
$DIMSTYLE
  2
STANDARD
  9
$DIMCLRD
 70
     0
  9
$DIMCLRE
 70
     0
  9
$DIMCLRT
 70
     0
  9
$DIMTFAC
 40
1.0
  9
$DIMGAP
 40
0.09
  9
$LUNITS
 70
     2
  9
$LUPREC
 70
     4
  9
$SKETCHINC
 40
0.1
  9
$FILLETRAD
 40
0.0
  9
$AUNITS
 70
     0
  9
$AUPREC
 70
     0
  9
$MENU
  1
.
  9
$ELEVATION
 40
0.0
  9
$PELEVATION
 40
0.0
  9
$THICKNESS
 40
0.0
  9
$LIMCHECK
 70
     0
  9
$BLIPMODE
 70
     0
  9
$CHAMFERA
 40
0.0
  9
$CHAMFERB
 40
0.0
  9
$SKPOLY
 70
     0
  9
$TDCREATE
 40
2458060.468368056230247
  9
$TDUPDATE
 40
2459545.3774305558763444
  9
$TDINDWG
 40
0.3899954861
  9
$TDUSRTIMER
 40
0.3899954861
  9
$USRTIMER
 70
     1
  9
$ANGBASE
 50
0.0
  9
$ANGDIR
 70
     0
  9
$PDMODE
 70
     0
  9
$PDSIZE
 40
0.3125
  9
$PLINEWID
 40
0.0
  9
$COORDS
 70
     1
  9
$SPLFRAME
 70
     0
  9
$SPLINETYPE
 70
     6
  9
$SPLINESEGS
 70
     8
  9
$ATTDIA
 70
     1
  9
$ATTREQ
 70
     1
  9
$HANDLING
 70
     1
  9
$HANDSEED
  5
838E
  9
$SURFTAB1
 70
     6
  9
$SURFTAB2
 70
     6
  9
$SURFTYPE
 70
     6
  9
$SURFU
 70
     6
  9
$SURFV
 70
     6
  9
$UCSNAME
  2

  9
$UCSORG
 10
0.0
 20
0.0
 30
0.0
  9
$UCSXDIR
 10
1.0
 20
0.0
 30
0.0
  9
$UCSYDIR
 10
0.0
 20
1.0
 30
0.0
  9
$PUCSNAME
  2

  9
$PUCSORG
 10
0.0
 20
0.0
 30
0.0
  9
$PUCSXDIR
 10
1.0
 20
0.0
 30
0.0
  9
$PUCSYDIR
 10
0.0
 20
1.0
 30
0.0
  9
$USERI1
 70
     0
  9
$USERI2
 70
     0
  9
$USERI3
 70
     0
  9
$USERI4
 70
     0
  9
$USERI5
 70
     0
  9
$USERR1
 40
0.0
  9
$USERR2
 40
0.0
  9
$USERR3
 40
0.0
  9
$USERR4
 40
0.0
  9
$USERR5
 40
0.0
  9
$WORLDVIEW
 70
     1
  9
$SHADEDGE
 70
     3
  9
$SHADEDIF
 70
    70
  9
$TILEMODE
 70
     1
  9
$MAXACTVP
 70
    64
  9
$PLIMCHECK
 70
     0
  9
$PEXTMIN
 10
1.0000000000000000E+20
 20
1.0000000000000000E+20
 30
1.0000000000000000E+20
  9
$PEXTMAX
 10
-1.0000000000000000E+20
 20
-1.0000000000000000E+20
 30
-1.0000000000000000E+20
  9
$PLIMMIN
 10
0.0
 20
0.0
  9
$PLIMMAX
 10
12.0
 20
9.0
  9
$UNITMODE
 70
     0
  9
$VISRETAIN
 70
     1
  9
$PLINEGEN
 70
     0
  9
$PSLTSCALE
 70
     1
  0
ENDSEC
  0
SECTION
  2
TABLES
  0
TABLE
  2
VPORT
 70
     1
  0
VPORT
  2
*ACTIVE
 70
     0
 10
0.0
 20
0.0
 11
1.0
 21
1.0
 12
90.5419778750896569
 22
1.265070015372316
 13
0.0
 23
0.0
 14
1.0
 24
1.0
 15
0.0
 25
0.0
 16
0.0
 26
0.0
 36
95.5902297660485658
 17
3089.811279296875
 27
197.161570589386713
 37
0.0
 40
34.6581587603023706
 41
2.000833333333333
 42
50.0
 43
0.0
 44
0.0
 50
0.0
 51
0.0
 71
     0
 72
   100
 73
     1
 74
     1
 75
     0
 76
     0
 77
     0
 78
     0
  0
ENDTAB
  0
TABLE
  2
LTYPE
 70
     2
  0
LTYPE
  2
CONTINUOUS
 70
     0
  3
Solid line
 72
    65
 73
     0
 40
0.0
  0
LTYPE
  2
PHANTOM2
 70
     0
  3
___ _ _ ___ _ _ ___ _ _ ___ _ _
 72
    65
 73
     6
 40
1.25
 49
0.625
 49
-0.125
 49
0.125
 49
-0.125
 49
0.125
 49
-0.125
  0
ENDTAB
  0
TABLE
  2
LAYER
 70
     2
  0
LAYER
  2
0
 70
     0
 62
   255
  6
CONTINUOUS
  0
LAYER
  2
DEFPOINTS
 70
     0
 62
     7
  6
CONTINUOUS
  0
ENDTAB
  0
TABLE
  2
STYLE
 70
     1
  0
STYLE
  2
STANDARD
 70
     0
 40
0.0
 41
0.8
 50
0.0
 71
     0
 42
0.2
  3
txt
  4

  0
ENDTAB
  0
TABLE
  2
VIEW
 70
     0
  0
ENDTAB
  0
TABLE
  2
UCS
 70
     0
  0
ENDTAB
  0
TABLE
  2
APPID
 70
     9
  0
APPID
  2
ACAD
 70
     0
  0
APPID
  2
ACAD_MLEADERVER
 70
     0
  0
APPID
  2
ACAD_EXEMPT_FROM_CAD_STANDARDS
 70
     0
  0
APPID
  2
ACAD_NAV_VCDISPLAY
 70
     0
  0
APPID
  2
ACAECLAYERSTANDARD
 70
     0
  0
APPID
  2
ACCMTRANSPARENCY
 70
     0
  0
APPID
  2
ACAD_DSTYLE_DIMJAG
 70
     0
  0
APPID
  2
ACAD_DSTYLE_DIMTALN
 70
     0
  0
APPID
  2
ACDBATTR
 70
     0
  0
ENDTAB
  0
TABLE
  2
DIMSTYLE
 70
     1
  0
DIMSTYLE
  2
STANDARD
 70
     0
  3

  4

  5

  6

  7

 40
1.0
 41
0.1875
 42
0.0625
 43
0.38
 44
0.125
 45
0.0
 46
0.0
 47
0.01
 48
0.01
140
0.15625
141
0.09
142
0.0
143
25.3999999999999986
144
1.0
145
0.0
146
1.0
147
0.09
 71
     1
 72
     0
 73
     1
 74
     1
 75
     0
 76
     0
 77
     0
 78
     4
170
     0
171
     2
172
     0
173
     0
174
     0
175
     0
176
     0
177
     0
178
     0
  0
ENDTAB
  0
ENDSEC
  0
SECTION
  2
BLOCKS
  0
BLOCK
  8
0
  2
$MODEL_SPACE
 70
     0
 10
0.0
 20
0.0
 30
0.0
  3
$MODEL_SPACE
  1

  0
ENDBLK
  5
21
  8
0
  0
BLOCK
 67
     1
  8
0
  2
$PAPER_SPACE
 70
     0
 10
0.0
 20
0.0
 30
0.0
  3
$PAPER_SPACE
  1

  0
ENDBLK
  5
1D
 67
     1
  8
0
  0
BLOCK
  8
0
  2
_FILLED
 70
     0
 10
0.0
 20
0.0
 30
0.0
  3
_FILLED
  1

  0
SOLID
  5
7E7B
  8
0
  6
BYBLOCK
 62
     0
 10
0.0
 20
0.0
 30
0.0
 11
-1.0
 21
0.1666666667
 31
0.0
 12
-1.0
 22
-0.1666666667
 32
0.0
 13
-1.0
 23
-0.1666666667
 33
0.0
  0
ENDBLK
  5
7E7C
  8
0
  6
BYBLOCK
 62
     0
  0
ENDSEC
  0
SECTION
  2
ENTITIES
  0
ATTDEF
  5
3930
  8
DEFPOINTS
 10
3177.6210316358851742
 20
200.2570443154783959
 30
0.0
 40
0.001
  1
P24416-CR
  3

  2
MODELNUMBER
 70
     0
1001
ACDBATTR
1070
     0
1070
     1
  0
ATTDEF
  5
3931
  8
DEFPOINTS
 10
3177.6210316358851742
 20
200.2553776488117876
 30
0.0
 40
0.001
  1
ONE
  3

  2
TRADENAME
 70
     0
1001
ACDBATTR
1070
     0
1070
     1
  0
ATTDEF
  5
3932
  8
DEFPOINTS
 10
3177.6210316358851742
 20
200.253710982145094
 30
0.0
 40
0.001
  1
VALVE TRIM
  3

  2
PRODUCT
 70
     0
1001
ACDBATTR
1070
     0
1070
     1
  0
LINE
  5
828C
  8
0
 10
3175.7686159951322225
 20
199.476769109091606
 30
0.0
 11
3175.7686159951322225
 21
201.0297363384916878
 31
0.0
  0
LINE
  5
828D
  8
0
 10
3175.778615995131986
 20
201.0397449412917013
 30
0.0
 11
3176.4986159951317859
 21
201.0397449412917013
 31
0.0
  0
ARC
  5
828E
  8
0
 10
3175.7786159977449643
 20
201.0297449349839951
 30
0.0
 40
0.0100000063077318
 50
90.0000149699078946
 51
180.0492542475535913
  0
LINE
  5
828F
  8
0
 10
3175.278615995131986
 20
200.6077449412917133
 30
0.0
 11
3175.753615995131895
 21
200.6077449412917133
 31
0.0
  0
LINE
  5
8290
  8
0
 10
3175.2686159951322225
 20
201.6695409885205947
 30
0.0
 11
3175.2686159951322225
 21
198.8359512996626961
 31
0.0
  0
LINE
  5
8291
  8
0
 10
3174.3558486000320045
 20
201.7505212701917117
 30
0.0
 11
3175.240366126131903
 21
201.6994898957040903
 31
0.0
  0
ARC
  5
8292
  8
0
 10
3175.2386159951320224
 20
201.6695409885205947
 30
0.0
 40
0.0299999999999976
 50
359.9999999999951115
 51
86.6555971811049091
  0
ARC
  5
8293
  8
0
 10
3175.2386154554260429
 20
198.8361381777382917
 30
0.0
 40
0.0300011217466409
 50
273.3453101153680791
 51
359.6431002031465027
  0
ARC
  5
8294
  8
0
 10
3174.3538480708821226
 20
200.405262050105307
 30
0.0
 40
0.0279705821332179
 50
91.4014298273627048
 51
181.5064703534939099
  0
ARC
  5
8295
  8
0
 10
3174.3196037567818166
 20
200.4042181064673969
 30
0.0
 40
0.0306541952762093
 50
84.9286070333780856
 51
176.0554333734461068
  0
ARC
  5
8296
  8
0
 10
3174.3198172592110495
 20
200.5163018735910896
 30
0.0
 40
0.0305111303574754
 50
88.8548071658648269
 51
169.0045198916299114
  0
ARC
  5
8297
  8
0
 10
3175.2386157129071762
 20
200.3593305354129939
 30
0.0
 40
0.0300002822255398
 50
0.0002057044643355
 51
87.0787469138872865
  0
ARC
  5
8298
  8
0
 10
3175.2397593442460675
 20
200.5425031707611083
 30
0.0
 40
0.0289148392616303
 50
3.6575787249328289
 51
92.2664548696989755
  0
ARC
  5
8299
  8
0
 10
3177.5893102165359778
 20
95.6353127255315627
 30
0.0
 40
104.9624085520774059
 50
91.2832796905865536
 51
91.7846722541179076
  0
LINE
  5
829A
  8
0
 10
3174.322313494932132
 20
200.4347523005322955
 30
0.0
 11
3175.2401446292319633
 21
200.3892918329206054
 31
0.0
  0
ARC
  5
829B
  8
0
 10
3174.3581963922051727
 20
201.7179579332814967
 30
0.0
 40
0.03264786423052
 50
94.1238469506764517
 51
171.7406082660457969
  0
ARC
  5
829C
  8
0
 10
3203.2886159962840793
 20
200.2528390518127139
 30
0.0
 40
29.000000001152511
 50
179.4679669462379081
 51
179.6967502063648965
  0
ARC
  5
829D
  8
0
 10
3203.2886165374229677
 20
200.2528390305201924
 30
0.0
 40
29.0000005427047114
 50
177.0948295613478933
 51
177.9693565102537036
  0
ARC
  5
829E
  8
0
 10
3203.2886159951449372
 20
200.2528390518205015
 30
0.0
 40
29.0000000000131308
 50
177.9693565143473961
 51
179.4679669462312859
  0
LINE
  5
829F
  8
0
 10
3174.3558352797199404
 20
198.7539444445916104
 30
0.0
 11
3175.240366126131903
 21
198.806188178437111
 31
0.0
  0
ARC
  5
82A0
  8
0
 10
3174.3558699675791104
 20
200.1012925348074987
 30
0.0
 40
0.02998314347859
 50
180.2697649046639015
 51
264.3939358489296865
  0
ARC
  5
82A1
  8
0
 10
3174.3236514118461855
 20
200.1049559789366015
 30
0.0
 40
0.0350798663313396
 50
189.1936176985556983
 51
267.8142565284301782
  0
ARC
  5
82A2
  8
0
 10
3174.3198172592110495
 20
199.9893762005501117
 30
0.0
 40
0.0305111303574754
 50
190.995480108368497
 51
271.1451928341351731
  0
ARC
  5
82A3
  8
0
 10
3175.2386157129071762
 20
200.1463475387282074
 30
0.0
 40
0.0300002822255398
 50
272.9212530861126993
 51
359.9997942955341159
  0
ARC
  5
82A4
  8
0
 10
3175.2397593442460675
 20
199.9631749033800929
 30
0.0
 40
0.0289148392616303
 50
267.7335451303010245
 51
356.3424212750671245
  0
ARC
  5
82A5
  8
0
 10
3177.5893102165359778
 20
304.8703653486098233
 30
0.0
 40
104.9624085520774059
 50
268.2153277458821208
 51
268.7167203094134038
  0
LINE
  5
82A6
  8
0
 10
3174.322313494932132
 20
200.0699016354089963
 30
0.0
 11
3175.2401446292319633
 21
200.1163862412205958
 31
0.0
  0
ARC
  5
82A7
  8
0
 10
3174.356956643758167
 20
198.785059969425788
 30
0.0
 40
0.0311357245460402
 50
183.7379734627953098
 51
267.9360260465202259
  0
ARC
  5
82A8
  8
0
 10
3203.2886159962840793
 20
200.2528390223284873
 30
0.0
 40
29.000000001152511
 50
180.3032497936349898
 51
180.5320330537620919
  0
ARC
  5
82A9
  8
0
 10
3203.2886165374120537
 20
200.252839043620412
 30
0.0
 40
29.0000005426939502
 50
182.0306434897462111
 51
182.9051704386521067
  0
ARC
  5
82AA
  8
0
 10
3203.2886159951449372
 20
200.2528390223206998
 30
0.0
 40
29.0000000000131308
 50
180.5320330537670088
 51
182.0306434856526039
  0
LINE
  5
82AB
  8
0
 10
3174.289022179074891
 20
200.0993512257225859
 30
0.0
 11
3174.2890221790758005
 21
200.4063268485070068
 31
0.0
  0
LINE
  5
82AC
  8
0
 10
3174.3258871564321453
 20
200.1011513661206038
 30
0.0
 11
3174.3258871564321453
 21
200.404526708026907
 31
0.0
  0
ARC
  5
82AD
  8
0
 10
3175.278615995131986
 20
200.597744941291694
 30
0.0
 40
0.0099999999999989
 50
90.0
 51
179.9999997072056885
  0
ARC
  5
82AE
  8
0
 10
3175.753615995131895
 20
200.6227449412916997
 30
0.0
 40
0.0150000000000006
 50
270.0
 51
0.0000000000065138
  0
ARC
  5
82AF
  8
0
 10
3176.5486159951319678
 20
201.2437691090916871
 30
0.0
 40
0.0100000000000017
 50
0.0000098228002445
 51
90.0
  0
ARC
  5
82B0
  8
0
 10
3176.528615995131986
 20
201.2237691090917053
 30
0.0
 40
0.0300000000000078
 50
90.0
 51
180.0000343774526073
  0
LINE
  5
82B1
  8
0
 10
3176.5486159951319678
 20
201.2537691090917065
 30
0.0
 11
3176.528615995131986
 21
201.2537691090917065
 31
0.0
  0
LINE
  5
82B2
  8
0
 10
3176.4986159951317859
 20
201.2237690910916967
 30
0.0
 11
3176.4986159951317859
 21
199.2837691270916025
 31
0.0
  0
LINE
  5
82B3
  8
0
 10
3176.628615995131895
 20
203.3777449412916951
 30
0.0
 11
3177.6186159951321315
 21
203.3777449412916951
 31
0.0
  0
LINE
  5
82B4
  8
0
 10
3177.6186159951321315
 20
203.3777449412916951
 30
0.0
 11
3177.6186159951321315
 21
197.1277449412916098
 31
0.0
  0
LINE
  5
82B5
  8
0
 10
3176.5586159951321861
 20
203.3087691090917133
 30
0.0
 11
3176.5586159951321861
 21
197.198769109091586
 31
0.0
  0
ARC
  5
82B6
  8
0
 10
3176.6292433817320671
 20
203.3071006355918087
 30
0.0
 40
0.070647091530806
 50
90.5088259972877154
 51
178.6467188296608981
  0
LINE
  5
82B7
  8
0
 10
3176.0106159951319569
 20
199.465744941291689
 30
0.0
 11
3176.4986159951317859
 21
199.465744941291689
 31
0.0
  0
ARC
  5
82B8
  8
0
 10
3175.7786475611178503
 20
199.4758211483257924
 30
0.0
 40
0.0100762564778154
 50
174.6017096617646871
 51
269.8205086658442156
  0
ARC
  5
82B9
  8
0
 10
3176.5486159951319678
 20
199.2637691090916121
 30
0.0
 40
0.0100000000000017
 50
270.0
 51
359.999990177199777
  0
ARC
  5
82BA
  8
0
 10
3176.528615995131986
 20
199.2837691090917076
 30
0.0
 40
0.0300000000000078
 50
179.9999656225473075
 51
270.0
  0
LINE
  5
82BB
  8
0
 10
3176.5486159951319678
 20
199.2537691090915928
 30
0.0
 11
3176.528615995131986
 21
199.2537691090915928
 31
0.0
  0
LINE
  5
82BC
  8
0
 10
3175.278615995131986
 20
199.8977449412917053
 30
0.0
 11
3175.753615995131895
 21
199.8977449412917053
 31
0.0
  0
ARC
  5
82BD
  8
0
 10
3175.278615995131986
 20
199.907744941291611
 30
0.0
 40
0.0099999999999989
 50
180.0000002927941978
 51
270.0
  0
ARC
  5
82BE
  8
0
 10
3175.753615995131895
 20
199.8827449412916053
 30
0.0
 40
0.0150000000000006
 50
359.9999999999935199
 51
90.0
  0
LINE
  5
82BF
  8
0
 10
3176.628615995131895
 20
197.1277449412916098
 30
0.0
 11
3177.6186159951321315
 21
197.1277449412916098
 31
0.0
  0
ARC
  5
82C0
  8
0
 10
3176.630396942164225
 20
197.1995075913301889
 30
0.0
 40
0.0717847456837768
 50
180.5894380688976923
 51
268.5783717928661076
  0
ARC
  5
82C1
  8
0
 10
3175.9136190822860044
 20
198.6847954844857895
 30
0.0
 40
0.7869500970118807
 50
82.9199034740081373
 51
97.080542660323232
  0
LINE
  5
82C2
  8
0
 10
3175.778615995131986
 20
199.465744941291689
 30
0.0
 11
3175.8166160885511999
 21
199.4657441859978917
 31
0.0
  0
ARC
  5
82C3
  8
0
 10
3176.0686159951319496
 20
198.2427449412917042
 30
0.0
 40
0.0099999999999991
 50
90.0
 51
180.0000000000048885
  0
LINE
  5
82C4
  8
0
 10
3176.0686159951319496
 20
198.2527449412916098
 30
0.0
 11
3176.5586159951321861
 21
198.2527449412916098
 31
0.0
  0
ARC
  5
82C5
  8
0
 10
3176.0686159951319496
 20
197.6627449412916064
 30
0.0
 40
0.0099999999999991
 50
179.9999999999951115
 51
270.0
  0
LINE
  5
82C6
  8
0
 10
3176.0686159951319496
 20
197.6527449412915871
 30
0.0
 11
3176.5586159951321861
 21
197.6527449412915871
 31
0.0
  0
LINE
  5
82C7
  8
0
 10
3176.0586159951321861
 20
198.2427449412917042
 30
0.0
 11
3176.0586159951321861
 21
197.6627449412916064
 31
0.0
  0
ENDSEC
  0
EOF
