  0
SECTION
  2
HEADER
  9
$ACADVER
  1
AC1009
  9
$INSBASE
 10
3179.5456590872640845
 20
196.9278809061013931
 30
0.0
  9
$EXTMIN
 10
3169.0379599652342222
 20
193.5982870900442947
 30
0.0
  9
$EXTMAX
 10
3185.8520226852510859
 20
206.4699715512134901
 30
0.0
  9
$LIMMIN
 10
0.0
 20
0.0
  9
$LIMMAX
 10
11.6929133858000007
 20
8.2677165353999982
  9
$ORTHOMODE
 70
     0
  9
$REGENMODE
 70
     1
  9
$FILLMODE
 70
     1
  9
$QTEXTMODE
 70
     0
  9
$MIRRTEXT
 70
     0
  9
$DRAGMODE
 70
     2
  9
$LTSCALE
 40
0.6431102362
  9
$OSMODE
 70
  4095
  9
$ATTMODE
 70
     1
  9
$TEXTSIZE
 40
0.2
  9
$TRACEWID
 40
0.05
  9
$TEXTSTYLE
  7
STANDARD
  9
$CLAYER
  8
0
  9
$CELTYPE
  6
BYLAYER
  9
$CECOLOR
 62
   256
  9
$DIMSCALE
 40
1.0
  9
$DIMASZ
 40
0.1875
  9
$DIMEXO
 40
0.0625
  9
$DIMDLI
 40
0.4443307087
  9
$DIMRND
 40
0.0
  9
$DIMDLE
 40
0.0
  9
$DIMEXE
 40
0.125
  9
$DIMTP
 40
0.01
  9
$DIMTM
 40
0.01
  9
$DIMTXT
 40
2.0
  9
$DIMCEN
 40
0.1052362205
  9
$DIMTSZ
 40
0.0
  9
$DIMTOL
 70
     1
  9
$DIMLIM
 70
     0
  9
$DIMTIH
 70
     1
  9
$DIMTOH
 70
     1
  9
$DIMSE1
 70
     0
  9
$DIMSE2
 70
     0
  9
$DIMTAD
 70
     0
  9
$DIMZIN
 70
     0
  9
$DIMBLK
  1

  9
$DIMASO
 70
     1
  9
$DIMSHO
 70
     1
  9
$DIMPOST
  1
\X
  9
$DIMAPOST
  1

  9
$DIMALT
 70
     1
  9
$DIMALTD
 70
     2
  9
$DIMALTF
 40
25.3999999999999986
  9
$DIMLFAC
 40
1.0
  9
$DIMTOFL
 70
     0
  9
$DIMTVP
 40
0.0
  9
$DIMTIX
 70
     0
  9
$DIMSOXD
 70
     0
  9
$DIMSAH
 70
     0
  9
$DIMBLK1
  1

  9
$DIMBLK2
  1

  9
$DIMSTYLE
  2
STANDARD
  9
$DIMCLRD
 70
     0
  9
$DIMCLRE
 70
     0
  9
$DIMCLRT
 70
     0
  9
$DIMTFAC
 40
1.0
  9
$DIMGAP
 40
0.09
  9
$LUNITS
 70
     2
  9
$LUPREC
 70
     4
  9
$SKETCHINC
 40
0.1
  9
$FILLETRAD
 40
0.0
  9
$AUNITS
 70
     0
  9
$AUPREC
 70
     0
  9
$MENU
  1
.
  9
$ELEVATION
 40
0.0
  9
$PELEVATION
 40
0.0
  9
$THICKNESS
 40
0.0
  9
$LIMCHECK
 70
     0
  9
$BLIPMODE
 70
     0
  9
$CHAMFERA
 40
0.0
  9
$CHAMFERB
 40
0.0
  9
$SKPOLY
 70
     0
  9
$TDCREATE
 40
2458060.468368056230247
  9
$TDUPDATE
 40
2459545.3774999999441206
  9
$TDINDWG
 40
0.3897292824
  9
$TDUSRTIMER
 40
0.3897292824
  9
$USRTIMER
 70
     1
  9
$ANGBASE
 50
0.0
  9
$ANGDIR
 70
     0
  9
$PDMODE
 70
     0
  9
$PDSIZE
 40
0.3125
  9
$PLINEWID
 40
0.0
  9
$COORDS
 70
     1
  9
$SPLFRAME
 70
     0
  9
$SPLINETYPE
 70
     6
  9
$SPLINESEGS
 70
     8
  9
$ATTDIA
 70
     1
  9
$ATTREQ
 70
     1
  9
$HANDLING
 70
     1
  9
$HANDSEED
  5
82AF
  9
$SURFTAB1
 70
     6
  9
$SURFTAB2
 70
     6
  9
$SURFTYPE
 70
     6
  9
$SURFU
 70
     6
  9
$SURFV
 70
     6
  9
$UCSNAME
  2

  9
$UCSORG
 10
0.0
 20
0.0
 30
0.0
  9
$UCSXDIR
 10
1.0
 20
0.0
 30
0.0
  9
$UCSYDIR
 10
0.0
 20
1.0
 30
0.0
  9
$PUCSNAME
  2

  9
$PUCSORG
 10
0.0
 20
0.0
 30
0.0
  9
$PUCSXDIR
 10
1.0
 20
0.0
 30
0.0
  9
$PUCSYDIR
 10
0.0
 20
1.0
 30
0.0
  9
$USERI1
 70
     0
  9
$USERI2
 70
     0
  9
$USERI3
 70
     0
  9
$USERI4
 70
     0
  9
$USERI5
 70
     0
  9
$USERR1
 40
0.0
  9
$USERR2
 40
0.0
  9
$USERR3
 40
0.0
  9
$USERR4
 40
0.0
  9
$USERR5
 40
0.0
  9
$WORLDVIEW
 70
     1
  9
$SHADEDGE
 70
     3
  9
$SHADEDIF
 70
    70
  9
$TILEMODE
 70
     1
  9
$MAXACTVP
 70
    64
  9
$PLIMCHECK
 70
     0
  9
$PEXTMIN
 10
1.0000000000000000E+20
 20
1.0000000000000000E+20
 30
1.0000000000000000E+20
  9
$PEXTMAX
 10
-1.0000000000000000E+20
 20
-1.0000000000000000E+20
 30
-1.0000000000000000E+20
  9
$PLIMMIN
 10
0.0
 20
0.0
  9
$PLIMMAX
 10
12.0
 20
9.0
  9
$UNITMODE
 70
     0
  9
$VISRETAIN
 70
     1
  9
$PLINEGEN
 70
     0
  9
$PSLTSCALE
 70
     1
  0
ENDSEC
  0
SECTION
  2
TABLES
  0
TABLE
  2
VPORT
 70
     1
  0
VPORT
  2
*ACTIVE
 70
     0
 10
0.0
 20
0.0
 11
1.0
 21
1.0
 12
88.2025846115740961
 22
-2.3857078845876671
 13
0.0
 23
0.0
 14
1.0
 24
1.0
 15
0.0
 25
0.0
 16
0.0
 26
0.0
 36
95.5902297660485658
 17
3089.811279296875
 27
197.161570589386713
 37
0.0
 40
55.2772909053410686
 41
2.000833333333333
 42
50.0
 43
0.0
 44
0.0
 50
0.0
 51
0.0
 71
     0
 72
   100
 73
     1
 74
     1
 75
     0
 76
     0
 77
     0
 78
     0
  0
ENDTAB
  0
TABLE
  2
LTYPE
 70
     2
  0
LTYPE
  2
CONTINUOUS
 70
     0
  3
Solid line
 72
    65
 73
     0
 40
0.0
  0
LTYPE
  2
PHANTOM2
 70
     0
  3
___ _ _ ___ _ _ ___ _ _ ___ _ _
 72
    65
 73
     6
 40
1.25
 49
0.625
 49
-0.125
 49
0.125
 49
-0.125
 49
0.125
 49
-0.125
  0
ENDTAB
  0
TABLE
  2
LAYER
 70
     2
  0
LAYER
  2
0
 70
     0
 62
   255
  6
CONTINUOUS
  0
LAYER
  2
DEFPOINTS
 70
     0
 62
     7
  6
CONTINUOUS
  0
ENDTAB
  0
TABLE
  2
STYLE
 70
     1
  0
STYLE
  2
STANDARD
 70
     0
 40
0.0
 41
0.8
 50
0.0
 71
     0
 42
0.2
  3
txt
  4

  0
ENDTAB
  0
TABLE
  2
VIEW
 70
     0
  0
ENDTAB
  0
TABLE
  2
UCS
 70
     0
  0
ENDTAB
  0
TABLE
  2
APPID
 70
     9
  0
APPID
  2
ACAD
 70
     0
  0
APPID
  2
ACAD_MLEADERVER
 70
     0
  0
APPID
  2
ACAD_EXEMPT_FROM_CAD_STANDARDS
 70
     0
  0
APPID
  2
ACAD_NAV_VCDISPLAY
 70
     0
  0
APPID
  2
ACAECLAYERSTANDARD
 70
     0
  0
APPID
  2
ACCMTRANSPARENCY
 70
     0
  0
APPID
  2
ACAD_DSTYLE_DIMJAG
 70
     0
  0
APPID
  2
ACAD_DSTYLE_DIMTALN
 70
     0
  0
APPID
  2
ACDBATTR
 70
     0
  0
ENDTAB
  0
TABLE
  2
DIMSTYLE
 70
     1
  0
DIMSTYLE
  2
STANDARD
 70
     0
  3

  4

  5

  6

  7

 40
1.0
 41
0.1875
 42
0.0625
 43
0.38
 44
0.125
 45
0.0
 46
0.0
 47
0.01
 48
0.01
140
0.15625
141
0.09
142
0.0
143
25.3999999999999986
144
1.0
145
0.0
146
1.0
147
0.09
 71
     1
 72
     0
 73
     1
 74
     1
 75
     0
 76
     0
 77
     0
 78
     4
170
     0
171
     2
172
     0
173
     0
174
     0
175
     0
176
     0
177
     0
178
     0
  0
ENDTAB
  0
ENDSEC
  0
SECTION
  2
BLOCKS
  0
BLOCK
  8
0
  2
$MODEL_SPACE
 70
     0
 10
0.0
 20
0.0
 30
0.0
  3
$MODEL_SPACE
  1

  0
ENDBLK
  5
21
  8
0
  0
BLOCK
 67
     1
  8
0
  2
$PAPER_SPACE
 70
     0
 10
0.0
 20
0.0
 30
0.0
  3
$PAPER_SPACE
  1

  0
ENDBLK
  5
1D
 67
     1
  8
0
  0
BLOCK
  8
0
  2
_FILLED
 70
     0
 10
0.0
 20
0.0
 30
0.0
  3
_FILLED
  1

  0
SOLID
  5
7E7B
  8
0
  6
BYBLOCK
 62
     0
 10
0.0
 20
0.0
 30
0.0
 11
-1.0
 21
0.1666666667
 31
0.0
 12
-1.0
 22
-0.1666666667
 32
0.0
 13
-1.0
 23
-0.1666666667
 33
0.0
  0
ENDBLK
  5
7E7C
  8
0
  6
BYBLOCK
 62
     0
  0
ENDSEC
  0
SECTION
  2
ENTITIES
  0
ATTDEF
  5
3930
  8
DEFPOINTS
 10
3179.5471731949010064
 20
196.931838552679892
 30
0.0
 40
0.001
  1
P24416-CR
  3

  2
MODELNUMBER
 70
     0
1001
ACDBATTR
1070
     0
1070
     1
  0
ATTDEF
  5
3931
  8
DEFPOINTS
 10
3179.5471731949010064
 20
196.9301718860131984
 30
0.0
 40
0.001
  1
ONE
  3

  2
TRADENAME
 70
     0
1001
ACDBATTR
1070
     0
1070
     1
  0
ATTDEF
  5
3932
  8
DEFPOINTS
 10
3179.5471731949010064
 20
196.9285052193465049
 30
0.0
 40
0.001
  1
VALVE TRIM
  3

  2
PRODUCT
 70
     0
1001
ACDBATTR
1070
     0
1070
     1
  0
LINE
  5
81F5
  8
0
 10
3180.3221470033640799
 20
195.0778809061013135
 30
0.0
 11
3178.7691797739639696
 21
195.0778809061013988
 31
0.0
  0
LINE
  5
81F6
  8
0
 10
3178.7591711711638709
 20
195.0878809061013897
 30
0.0
 11
3178.7591711711638709
 21
195.8078809061013885
 31
0.0
  0
ARC
  5
81F7
  8
0
 10
3178.7691711774718897
 20
195.0878809087141121
 30
0.0
 40
0.0100000063077318
 50
180.0000149699191923
 51
270.0492542475569735
  0
LINE
  5
81F8
  8
0
 10
3179.1911711711641146
 20
194.5878809061013897
 30
0.0
 11
3179.1911711711641146
 21
195.0628809061014124
 31
0.0
  0
LINE
  5
81F9
  8
0
 10
3178.1293751239350058
 20
194.5778809061013988
 30
0.0
 11
3180.9629648127929613
 21
194.5778809061013988
 31
0.0
  0
LINE
  5
81FA
  8
0
 10
3178.0483948422652247
 20
193.6651135110014081
 30
0.0
 11
3178.0994262167519082
 21
194.5496310371013919
 31
0.0
  0
ARC
  5
81FB
  8
0
 10
3178.1293751239350058
 20
194.5478809061013976
 30
0.0
 40
0.0299999999999976
 50
90.0
 51
176.6555971810981021
  0
ARC
  5
81FC
  8
0
 10
3180.9627779347179057
 20
194.5478803663955034
 30
0.0
 40
0.0300011217466405
 50
3.3453101153777451
 51
89.6431002031448969
  0
ARC
  5
81FD
  8
0
 10
3179.3936540623508336
 20
193.6631129818514978
 30
0.0
 40
0.0279705821332179
 50
181.4014298273611985
 51
271.5064703534854971
  0
ARC
  5
81FE
  8
0
 10
3179.3946980059881753
 20
193.6288686677517035
 30
0.0
 40
0.0306541952762093
 50
174.9286070333754139
 51
266.0554333734468742
  0
ARC
  5
81FF
  8
0
 10
3179.2826142388648805
 20
193.6290821701799132
 30
0.0
 40
0.0305111303574754
 50
178.854807165874405
 51
259.0045198916254776
  0
ARC
  5
8200
  8
0
 10
3179.4395855770430899
 20
194.5478806238760114
 30
0.0
 40
0.0300002822255398
 50
90.0002057044724637
 51
177.0787469138869028
  0
ARC
  5
8201
  8
0
 10
3179.2564129416950891
 20
194.549024255214988
 30
0.0
 40
0.0289148392616303
 50
93.6575787249353056
 51
182.2664548697107989
  0
ARC
  5
8202
  8
0
 10
3284.1636033869240237
 20
196.898575127505211
 30
0.0
 40
104.9624085520774059
 50
181.2832796905800024
 51
181.7846722541081874
  0
LINE
  5
8203
  8
0
 10
3179.3641638119238451
 20
193.6315784059013936
 30
0.0
 11
3179.4096242795349099
 21
194.5494095402013954
 31
0.0
  0
ARC
  5
8204
  8
0
 10
3178.0809581791750134
 20
193.6674613031746901
 30
0.0
 40
0.03264786423052
 50
184.1238469506849924
 51
261.7406082660565971
  0
ARC
  5
8205
  8
0
 10
3179.5460770606428014
 20
222.5978809072539093
 30
0.0
 40
29.000000001152511
 50
269.467966946246122
 51
269.696750206373224
  0
ARC
  5
8206
  8
0
 10
3179.5460770819358913
 20
222.5978814483918882
 30
0.0
 40
29.0000005427047114
 50
267.0948295613442269
 51
267.9693565102589901
  0
ARC
  5
8207
  8
0
 10
3179.5460770606350707
 20
222.5978809061145114
 30
0.0
 40
29.0000000000131308
 50
267.9693565143522278
 51
269.4679669462200877
  0
LINE
  5
8208
  8
0
 10
3181.044971667864047
 20
193.6651001906892873
 30
0.0
 11
3180.992727934019058
 21
194.5496310371013919
 31
0.0
  0
ARC
  5
8209
  8
0
 10
3179.6976235776492103
 20
193.6651348785480877
 30
0.0
 40
0.02998314347859
 50
270.2697649046672836
 51
354.3939358489204778
  0
ARC
  5
820A
  8
0
 10
3179.6939601335188854
 20
193.6329163228147934
 30
0.0
 40
0.0350798663313396
 50
279.1936176985632869
 51
357.8142565284287002
  0
ARC
  5
820B
  8
0
 10
3179.8095399119060858
 20
193.6290821701799132
 30
0.0
 40
0.0305111303574754
 50
280.9954801083745224
 51
1.1451928341255899
  0
ARC
  5
820C
  8
0
 10
3179.6525685737278764
 20
194.5478806238760114
 30
0.0
 40
0.0300002822255398
 50
2.9212530861130439
 51
89.9997942955275221
  0
ARC
  5
820D
  8
0
 10
3179.8357412090758771
 20
194.549024255214988
 30
0.0
 40
0.0289148392616303
 50
357.7335451302892011
 51
86.3424212750647371
  0
ARC
  5
820E
  8
0
 10
3074.9285507638460331
 20
196.8985751275052962
 30
0.0
 40
104.9624085520774059
 50
358.2153277458917842
 51
358.7167203094199976
  0
LINE
  5
820F
  8
0
 10
3179.7290144770468032
 20
193.6315784059013936
 30
0.0
 11
3179.6825298712351469
 21
194.5494095402013954
 31
0.0
  0
ARC
  5
8210
  8
0
 10
3181.0138561430298978
 20
193.6662215547270023
 30
0.0
 40
0.0311357245460402
 50
273.7379734627884886
 51
357.9360260465119836
  0
ARC
  5
8211
  8
0
 10
3179.5460770901268006
 20
222.5978809072539093
 30
0.0
 40
29.000000001152511
 50
270.303249793626776
 51
270.5320330537538212
  0
ARC
  5
8212
  8
0
 10
3179.5460770688350749
 20
222.5978814483810879
 30
0.0
 40
29.0000005426939502
 50
272.0306434897408963
 51
272.9051704386557731
  0
ARC
  5
8213
  8
0
 10
3179.5460770901349861
 20
222.5978809061145114
 30
0.0
 40
29.0000000000131308
 50
270.5320330537797986
 51
272.0306434856477154
  0
LINE
  5
8214
  8
0
 10
3179.6995648867341515
 20
193.5982870900442947
 30
0.0
 11
3179.3925892639490485
 21
193.5982870900448063
 31
0.0
  0
LINE
  5
8215
  8
0
 10
3179.6977647463349967
 20
193.6351520674014068
 30
0.0
 11
3179.3943894044291483
 21
193.6351520674014068
 31
0.0
  0
ARC
  5
8216
  8
0
 10
3179.2011711711638782
 20
194.5878809061013897
 30
0.0
 40
0.0099999999999989
 50
179.9999999999901945
 51
269.9999997071927282
  0
ARC
  5
8217
  8
0
 10
3179.1761711711637872
 20
195.0628809061014124
 30
0.0
 40
0.0150000000000006
 50
0.0000000000065138
 51
90.0
  0
ARC
  5
8218
  8
0
 10
3178.5551470033637997
 20
195.8578809061012862
 30
0.0
 40
0.0100000000000017
 50
90.0000098228002656
 51
179.9999999999901945
  0
ARC
  5
8219
  8
0
 10
3178.5751470033637816
 20
195.8378809061013897
 30
0.0
 40
0.0300000000000078
 50
180.0000000000032117
 51
270.000034377442887
  0
LINE
  5
821A
  8
0
 10
3178.5451470033640362
 20
195.8578809061012862
 30
0.0
 11
3178.5451470033640362
 21
195.8378809061013897
 31
0.0
  0
LINE
  5
821B
  8
0
 10
3178.5751470213640459
 20
195.8078809061013885
 30
0.0
 11
3180.5151469853640265
 21
195.8078809061013885
 31
0.0
  0
LINE
  5
821C
  8
0
 10
3176.420659087264994
 20
195.9378809061012987
 30
0.0
 11
3176.420659087264994
 21
196.9278809061013931
 31
0.0
  0
LINE
  5
821D
  8
0
 10
3176.420659087264994
 20
196.9278809061013931
 30
0.0
 11
3182.670659087264994
 21
196.9278809061013931
 31
0.0
  0
LINE
  5
821E
  8
0
 10
3176.4901470033641999
 20
195.8678809061013908
 30
0.0
 11
3182.6001470033638725
 21
195.8678809061013908
 31
0.0
  0
ARC
  5
821F
  8
0
 10
3176.4922099796908697
 20
195.9394185799276897
 30
0.0
 40
0.0715674133094895
 50
181.231132946545813
 51
268.3481838109763089
  0
LINE
  5
8220
  8
0
 10
3180.33317117116394
 20
195.0878809061013897
 30
0.0
 11
3180.33317117116394
 21
195.8078809061013885
 31
0.0
  0
ARC
  5
8221
  8
0
 10
3180.3230949641301777
 20
195.0879124720871118
 30
0.0
 40
0.0100762564778154
 50
264.6017096617766242
 51
359.8205086658311984
  0
ARC
  5
8222
  8
0
 10
3180.5351470033638179
 20
195.8578809061012862
 30
0.0
 40
0.0100000000000017
 50
0.0000000000097707
 51
89.9999901771997486
  0
ARC
  5
8223
  8
0
 10
3180.5151470033638361
 20
195.8378809061013897
 30
0.0
 40
0.0300000000000078
 50
269.999965622557113
 51
359.9999999999968168
  0
LINE
  5
8224
  8
0
 10
3180.5451470033640362
 20
195.8578809061012862
 30
0.0
 11
3180.5451470033640362
 21
195.8378809061013897
 31
0.0
  0
LINE
  5
8225
  8
0
 10
3179.901171171164151
 20
194.5878809061013897
 30
0.0
 11
3179.901171171164151
 21
195.0628809061014124
 31
0.0
  0
ARC
  5
8226
  8
0
 10
3179.8911711711639327
 20
194.5878809061013897
 30
0.0
 40
0.0099999999999989
 50
270.0000002927811806
 51
0.0000000000097707
  0
ARC
  5
8227
  8
0
 10
3179.9161711711640237
 20
195.0628809061014124
 30
0.0
 40
0.0150000000000006
 50
90.0
 51
179.9999999999934914
  0
LINE
  5
8228
  8
0
 10
3182.670659087264994
 20
195.9378809061012987
 30
0.0
 11
3182.670659087264994
 21
196.9278809061013931
 31
0.0
  0
ARC
  5
8229
  8
0
 10
3182.5997817001980366
 20
195.9387628386087101
 30
0.0
 40
0.0708828738298947
 50
270.2952817969893999
 51
359.2871012192319995
  0
ENDSEC
  0
EOF
