  0
SECTION
  2
HEADER
  9
$ACADVER
  1
AC1009
  9
$INSBASE
 10
5445.7945432001070003
 20
-15.59641348941771
 30
0.0
  9
$EXTMIN
 10
5444.676043200107415
 20
-22.5251134894177092
 30
0.0
  9
$EXTMAX
 10
5448.4642147695467429
 20
-14.4779134894177108
 30
0.0
  9
$LIMMIN
 10
0.0
 20
0.0
  9
$LIMMAX
 10
11.6929133858000007
 20
8.2677165353999982
  9
$ORTHOMODE
 70
     0
  9
$REGENMODE
 70
     1
  9
$FILLMODE
 70
     1
  9
$QTEXTMODE
 70
     0
  9
$MIRRTEXT
 70
     0
  9
$DRAGMODE
 70
     2
  9
$LTSCALE
 40
0.6431102362
  9
$OSMODE
 70
  4095
  9
$ATTMODE
 70
     1
  9
$TEXTSIZE
 40
0.2
  9
$TRACEWID
 40
0.05
  9
$TEXTSTYLE
  7
STANDARD
  9
$CLAYER
  8
0
  9
$CELTYPE
  6
BYLAYER
  9
$CECOLOR
 62
   256
  9
$DIMSCALE
 40
1.0
  9
$DIMASZ
 40
0.1875
  9
$DIMEXO
 40
0.0625
  9
$DIMDLI
 40
0.4443307087
  9
$DIMRND
 40
0.0
  9
$DIMDLE
 40
0.0
  9
$DIMEXE
 40
0.125
  9
$DIMTP
 40
0.01
  9
$DIMTM
 40
0.01
  9
$DIMTXT
 40
2.0
  9
$DIMCEN
 40
0.1052362205
  9
$DIMTSZ
 40
0.0
  9
$DIMTOL
 70
     1
  9
$DIMLIM
 70
     0
  9
$DIMTIH
 70
     1
  9
$DIMTOH
 70
     1
  9
$DIMSE1
 70
     0
  9
$DIMSE2
 70
     0
  9
$DIMTAD
 70
     0
  9
$DIMZIN
 70
     0
  9
$DIMBLK
  1

  9
$DIMASO
 70
     1
  9
$DIMSHO
 70
     1
  9
$DIMPOST
  1
\X
  9
$DIMAPOST
  1

  9
$DIMALT
 70
     1
  9
$DIMALTD
 70
     2
  9
$DIMALTF
 40
25.3999999999999986
  9
$DIMLFAC
 40
1.0
  9
$DIMTOFL
 70
     0
  9
$DIMTVP
 40
0.0
  9
$DIMTIX
 70
     0
  9
$DIMSOXD
 70
     0
  9
$DIMSAH
 70
     0
  9
$DIMBLK1
  1

  9
$DIMBLK2
  1

  9
$DIMSTYLE
  2
STANDARD
  9
$DIMCLRD
 70
     0
  9
$DIMCLRE
 70
     0
  9
$DIMCLRT
 70
     0
  9
$DIMTFAC
 40
1.0
  9
$DIMGAP
 40
0.09
  9
$LUNITS
 70
     2
  9
$LUPREC
 70
     4
  9
$SKETCHINC
 40
0.1
  9
$FILLETRAD
 40
0.0
  9
$AUNITS
 70
     0
  9
$AUPREC
 70
     0
  9
$MENU
  1
.
  9
$ELEVATION
 40
0.0
  9
$PELEVATION
 40
0.0
  9
$THICKNESS
 40
0.0
  9
$LIMCHECK
 70
     0
  9
$BLIPMODE
 70
     0
  9
$CHAMFERA
 40
0.0
  9
$CHAMFERB
 40
0.0
  9
$SKPOLY
 70
     0
  9
$TDCREATE
 40
2458060.468368056230247
  9
$TDUPDATE
 40
2460140.4898032411001623
  9
$TDINDWG
 40
0.6275417824
  9
$TDUSRTIMER
 40
0.6275417824
  9
$USRTIMER
 70
     1
  9
$ANGBASE
 50
0.0
  9
$ANGDIR
 70
     0
  9
$PDMODE
 70
     0
  9
$PDSIZE
 40
0.3125
  9
$PLINEWID
 40
0.0
  9
$COORDS
 70
     1
  9
$SPLFRAME
 70
     0
  9
$SPLINETYPE
 70
     6
  9
$SPLINESEGS
 70
     8
  9
$ATTDIA
 70
     1
  9
$ATTREQ
 70
     1
  9
$HANDLING
 70
     1
  9
$HANDSEED
  5
23D63
  9
$SURFTAB1
 70
     6
  9
$SURFTAB2
 70
     6
  9
$SURFTYPE
 70
     6
  9
$SURFU
 70
     6
  9
$SURFV
 70
     6
  9
$UCSNAME
  2

  9
$UCSORG
 10
0.0
 20
0.0
 30
0.0
  9
$UCSXDIR
 10
1.0
 20
0.0
 30
0.0
  9
$UCSYDIR
 10
0.0
 20
1.0
 30
0.0
  9
$PUCSNAME
  2

  9
$PUCSORG
 10
0.0
 20
0.0
 30
0.0
  9
$PUCSXDIR
 10
1.0
 20
0.0
 30
0.0
  9
$PUCSYDIR
 10
0.0
 20
1.0
 30
0.0
  9
$USERI1
 70
     0
  9
$USERI2
 70
     0
  9
$USERI3
 70
     0
  9
$USERI4
 70
     0
  9
$USERI5
 70
     0
  9
$USERR1
 40
0.0
  9
$USERR2
 40
0.0
  9
$USERR3
 40
0.0
  9
$USERR4
 40
0.0
  9
$USERR5
 40
0.0
  9
$WORLDVIEW
 70
     1
  9
$SHADEDGE
 70
     3
  9
$SHADEDIF
 70
    70
  9
$TILEMODE
 70
     1
  9
$MAXACTVP
 70
    64
  9
$PLIMCHECK
 70
     0
  9
$PEXTMIN
 10
1.0000000000000000E+20
 20
1.0000000000000000E+20
 30
1.0000000000000000E+20
  9
$PEXTMAX
 10
-1.0000000000000000E+20
 20
-1.0000000000000000E+20
 30
-1.0000000000000000E+20
  9
$PLIMMIN
 10
0.0
 20
0.0
  9
$PLIMMAX
 10
12.0
 20
9.0
  9
$UNITMODE
 70
     0
  9
$VISRETAIN
 70
     1
  9
$PLINEGEN
 70
     0
  9
$PSLTSCALE
 70
     1
  0
ENDSEC
  0
SECTION
  2
TABLES
  0
TABLE
  2
VPORT
 70
     1
  0
VPORT
  2
*ACTIVE
 70
     0
 10
0.0
 20
0.0
 11
1.0
 21
1.0
 12
1654.212218828577079
 22
-138.682169922523201
 13
0.0
 23
0.0
 14
1.0
 24
1.0
 15
0.0
 25
0.0
 16
0.0
 26
0.0
 36
5.1040778033513332
 17
3792.35791015625
 27
120.1806564331053977
 37
0.0
 40
8.1193721973094455
 41
2.8398203592814371
 42
50.0
 43
0.0
 44
0.0
 50
0.0
 51
0.0
 71
     0
 72
   100
 73
     1
 74
     1
 75
     0
 76
     0
 77
     0
 78
     0
  0
ENDTAB
  0
TABLE
  2
LTYPE
 70
     2
  0
LTYPE
  2
CONTINUOUS
 70
     0
  3
Solid line
 72
    65
 73
     0
 40
0.0
  0
LTYPE
  2
PHANTOM2
 70
     0
  3
___ _ _ ___ _ _ ___ _ _ ___ _ _
 72
    65
 73
     6
 40
1.25
 49
0.625
 49
-0.125
 49
0.125
 49
-0.125
 49
0.125
 49
-0.125
  0
ENDTAB
  0
TABLE
  2
LAYER
 70
     2
  0
LAYER
  2
0
 70
     0
 62
   255
  6
CONTINUOUS
  0
LAYER
  2
DEFPOINTS
 70
     0
 62
     7
  6
CONTINUOUS
  0
ENDTAB
  0
TABLE
  2
STYLE
 70
     1
  0
STYLE
  2
STANDARD
 70
     0
 40
0.0
 41
0.8
 50
0.0
 71
     0
 42
0.2
  3
txt
  4

  0
ENDTAB
  0
TABLE
  2
VIEW
 70
     0
  0
ENDTAB
  0
TABLE
  2
UCS
 70
     0
  0
ENDTAB
  0
TABLE
  2
APPID
 70
     9
  0
APPID
  2
ACAD
 70
     0
  0
APPID
  2
ACAD_MLEADERVER
 70
     0
  0
APPID
  2
ACAD_EXEMPT_FROM_CAD_STANDARDS
 70
     0
  0
APPID
  2
ACAD_NAV_VCDISPLAY
 70
     0
  0
APPID
  2
ACAECLAYERSTANDARD
 70
     0
  0
APPID
  2
ACCMTRANSPARENCY
 70
     0
  0
APPID
  2
ACAD_DSTYLE_DIMJAG
 70
     0
  0
APPID
  2
ACAD_DSTYLE_DIMTALN
 70
     0
  0
APPID
  2
ACDBATTR
 70
     0
  0
ENDTAB
  0
TABLE
  2
DIMSTYLE
 70
     1
  0
DIMSTYLE
  2
STANDARD
 70
     0
  3

  4

  5

  6

  7

 40
1.0
 41
0.1875
 42
0.0625
 43
0.38
 44
0.125
 45
0.0
 46
0.0
 47
0.01
 48
0.01
140
0.15625
141
0.09
142
0.0
143
25.3999999999999986
144
1.0
145
0.0
146
1.0
147
0.09
 71
     1
 72
     0
 73
     1
 74
     1
 75
     0
 76
     0
 77
     0
 78
     4
170
     0
171
     2
172
     0
173
     0
174
     0
175
     0
176
     0
177
     0
178
     0
  0
ENDTAB
  0
ENDSEC
  0
SECTION
  2
BLOCKS
  0
BLOCK
  8
0
  2
$MODEL_SPACE
 70
     0
 10
0.0
 20
0.0
 30
0.0
  3
$MODEL_SPACE
  1

  0
ENDBLK
  5
21
  8
0
  0
BLOCK
 67
     1
  8
0
  2
$PAPER_SPACE
 70
     0
 10
0.0
 20
0.0
 30
0.0
  3
$PAPER_SPACE
  1

  0
ENDBLK
  5
1D
 67
     1
  8
0
  0
BLOCK
  8
0
  2
_FILLED
 70
     0
 10
0.0
 20
0.0
 30
0.0
  3
_FILLED
  1

  0
SOLID
  5
1CA7B
  8
0
  6
BYBLOCK
 62
     0
 10
0.0
 20
0.0
 30
0.0
 11
-1.0
 21
0.1666666667
 31
0.0
 12
-1.0
 22
-0.1666666667
 32
0.0
 13
-1.0
 23
-0.1666666667
 33
0.0
  0
ENDBLK
  5
1CA7C
  8
0
  6
BYBLOCK
 62
     0
  0
ENDSEC
  0
SECTION
  2
ENTITIES
  0
ATTDEF
  5
3930
  8
DEFPOINTS
 10
5445.7842632174133541
 20
-15.5925106165760798
 30
0.0
 40
0.001
  1
P24409-00
  3

  2
MODELNUMBER
 70
     0
1001
ACDBATTR
1070
     0
1070
     1
  0
ATTDEF
  5
3931
  8
DEFPOINTS
 10
5445.7842632174133541
 20
-15.5941772832427397
 30
0.0
 40
0.001
  1
ONE
  3

  2
TRADENAME
 70
     0
1001
ACDBATTR
1070
     0
1070
     1
  0
ATTDEF
  5
3932
  8
DEFPOINTS
 10
5445.7842632174133541
 20
-15.5958439499094101
 30
0.0
 40
0.001
  1
KITCHEN SINK FAUCET
  3

  2
PRODUCT
 70
     0
1001
ACDBATTR
1070
     0
1070
     1
  0
LINE
  5
238FA
  8
0
 10
5445.2632932001070003
 20
-21.9938634894178193
 30
0.0
 11
5445.2632932001070003
 21
-15.59641348941771
 31
0.0
  0
LINE
  5
238FB
  8
0
 10
5447.4129526489068667
 20
-16.0651930170176414
 30
0.0
 11
5447.4129526489068667
 21
-14.6551930170177105
 31
0.0
  0
ARC
  5
238FC
  8
0
 10
5447.3929526489073396
 20
-16.0651930170176414
 30
0.0
 40
0.02
 50
270.0
 51
0.0
  0
LINE
  5
238FD
  8
0
 10
5447.5493105230070796
 20
-15.4451735988490508
 30
0.0
 11
5447.5493105230070796
 21
-15.2752124350863792
 31
0.0
  0
LINE
  5
238FE
  8
0
 10
5447.5300703655084362
 20
-16.0651767073093517
 30
0.0
 11
5447.5300703655084362
 21
-14.6552093265778005
 31
0.0
  0
ARC
  5
238FF
  8
0
 10
5445.7945432001070003
 20
-15.59641348941771
 30
0.0
 40
0.5312499999998295
 50
0.0
 51
179.9999999999996021
  0
ARC
  5
23900
  8
0
 10
5445.7945432001070003
 20
-15.59641348941771
 30
0.0
 40
1.1185
 50
298.3571671083063279
 51
334.0876577613423137
  0
ARC
  5
23901
  8
0
 10
5445.7945432001070003
 20
-15.59641348941771
 30
0.0
 40
1.1185
 50
59.2474353914285672
 51
241.6428328916937005
  0
LINE
  5
23902
  8
0
 10
5446.3257932001070003
 20
-21.9938634894178193
 30
0.0
 11
5446.3257932001070003
 21
-15.59641348941771
 31
0.0
  0
LINE
  5
23903
  8
0
 10
5445.5583227277065816
 20
-14.6941930170177102
 30
0.0
 11
5445.5583227277065816
 21
-15.1205706047184307
 31
0.0
  0
LINE
  5
23904
  8
0
 10
5445.6173227277067781
 20
-14.6351930170177091
 30
0.0
 11
5447.3929526489073396
 21
-14.6351930170177091
 31
0.0
  0
LINE
  5
23905
  8
0
 10
5446.3257932001070003
 20
-16.0851930170177688
 30
0.0
 11
5447.3929526489073396
 21
-16.0851930170176409
 31
0.0
  0
ARC
  5
23906
  8
0
 10
5445.6173227277067781
 20
-14.6941930170177102
 30
0.0
 40
0.059
 50
90.0
 51
180.0000000000034106
  0
ARC
  5
23907
  8
0
 10
5447.3929526489073396
 20
-14.6551930170177105
 30
0.0
 40
0.02
 50
0.0
 51
90.0
  0
LINE
  5
23908
  8
0
 10
5448.4143616544042743
 20
-14.6502925406893691
 30
0.0
 11
5447.5504194136383376
 21
-14.6352123726747099
 31
0.0
  0
LINE
  5
23909
  8
0
 10
5448.4438380822075487
 20
-16.0400980624366305
 30
0.0
 11
5448.4438380822075487
 21
-14.6802879715440096
 31
0.0
  0
LINE
  5
2390A
  8
0
 10
5448.4143616544006363
 20
-16.07009349329131
 30
0.0
 11
5447.5504194136356091
 21
-16.0851736612124689
 31
0.0
  0
ARC
  5
2390B
  8
0
 10
5448.4138380822059844
 20
-16.0400980624366305
 30
0.0
 40
0.03
 50
271.0000000009658834
 51
0.0
  0
ARC
  5
2390C
  8
0
 10
5448.4138380822059844
 20
-14.6802879715440096
 30
0.0
 40
0.03
 50
0.0000000000067173
 51
88.999999992831988
  0
ARC
  5
2390D
  8
0
 10
5447.5500703655070538
 20
-14.6552093265778005
 30
0.0
 40
0.02
 50
88.999999992831988
 51
179.9999999999897966
  0
ARC
  5
2390E
  8
0
 10
5447.5500703655070538
 20
-16.0651767073093517
 30
0.0
 40
0.02
 50
180.0
 51
271.0000000009658834
  0
ARC
  5
2390F
  8
0
 10
5447.0629526489083219
 20
-15.3601930170179806
 30
0.0
 40
0.8050621094003046
 50
54.5335820787156678
 51
62.4844716225956773
  0
ARC
  5
23910
  8
0
 10
5447.4279526489071941
 20
-14.6594982641405593
 30
0.0
 40
0.015
 50
62.484471622596331
 51
180.0
  0
ARC
  5
23911
  8
0
 10
5447.0657641238340148
 20
-15.3645211941642508
 30
0.0
 40
0.7999027684010408
 50
297.4803133247377787
 51
305.4824351895205155
  0
ARC
  5
23912
  8
0
 10
5447.4279526489071941
 20
-16.0608629408298498
 30
0.0
 40
0.015
 50
180.0
 51
297.4803133247374944
  0
LINE
  5
23913
  8
0
 10
5447.5793253689962512
 20
-15.2457169280792595
 30
0.0
 11
5448.4148529281974334
 21
-15.2603011158562492
 31
0.0
  0
LINE
  5
23914
  8
0
 10
5447.5793253689953417
 20
-15.4746691058561794
 30
0.0
 11
5448.4148529281956144
 21
-15.4600849181018294
 31
0.0
  0
ARC
  5
23915
  8
0
 10
5447.5788105230076326
 20
-15.2752124350863898
 30
0.0
 40
0.0295
 50
89.0000000012751258
 51
179.9999999999861018
  0
ARC
  5
23916
  8
0
 10
5447.5788105230076326
 20
-15.4451735988490402
 30
0.0
 40
0.0295
 50
180.0000000000069065
 51
270.9999999972134788
  0
ARC
  5
23917
  8
0
 10
5448.4143380822069958
 20
-15.2897966228633795
 30
0.0
 40
0.0295
 50
0.0000000000069209
 51
89.0000000012230146
  0
ARC
  5
23918
  8
0
 10
5448.4143380822069958
 20
-15.4305894110946902
 30
0.0
 40
0.0295
 50
270.9999999972134788
 51
0.0
  0
ARC
  5
23919
  8
0
 10
5437.1108953487137114
 20
-15.3601930169903405
 30
0.0
 40
11.3533194208321806
 50
356.5667299159532035
 51
3.433270084047054
  0
ARC
  5
2391A
  8
0
 10
5445.7945432001070003
 20
-21.9938634894178193
 30
0.0
 40
0.531249999999897
 50
179.9999999999994031
 51
0.0000000000006107
  0
ARC
  5
2391B
  8
0
 10
5445.7955719042438432
 20
-21.9287763631859711
 30
0.0
 40
0.5362433709415404
 50
186.9715275689819975
 51
269.8900863959028129
  0
ARC
  5
2391C
  8
0
 10
5445.7935144959710669
 20
-21.9287763631859711
 30
0.0
 40
0.5362433709415404
 50
270.1099136040971871
 51
353.0284724310176898
  0
ENDSEC
  0
EOF
