  0
SECTION
  2
HEADER
  9
$ACADVER
  1
AC1009
  9
$INSBASE
 10
5839.5734350886323227
 20
-6.8116955997426523
 30
0.0
  9
$EXTMIN
 10
5838.4549350886309185
 20
-6.8166250509950137
 30
0.0
  9
$EXTMAX
 10
5842.243137389857111
 20
3.5479426361573512
 30
0.0
  9
$LIMMIN
 10
0.0
 20
0.0
  9
$LIMMAX
 10
11.6929133858000007
 20
8.2677165353999982
  9
$ORTHOMODE
 70
     0
  9
$REGENMODE
 70
     1
  9
$FILLMODE
 70
     1
  9
$QTEXTMODE
 70
     0
  9
$MIRRTEXT
 70
     0
  9
$DRAGMODE
 70
     2
  9
$LTSCALE
 40
0.6431102362
  9
$OSMODE
 70
  4095
  9
$ATTMODE
 70
     1
  9
$TEXTSIZE
 40
0.2
  9
$TRACEWID
 40
0.05
  9
$TEXTSTYLE
  7
STANDARD
  9
$CLAYER
  8
0
  9
$CELTYPE
  6
BYLAYER
  9
$CECOLOR
 62
   256
  9
$DIMSCALE
 40
1.0
  9
$DIMASZ
 40
0.1875
  9
$DIMEXO
 40
0.0625
  9
$DIMDLI
 40
0.4443307087
  9
$DIMRND
 40
0.0
  9
$DIMDLE
 40
0.0
  9
$DIMEXE
 40
0.125
  9
$DIMTP
 40
0.01
  9
$DIMTM
 40
0.01
  9
$DIMTXT
 40
2.0
  9
$DIMCEN
 40
0.1052362205
  9
$DIMTSZ
 40
0.0
  9
$DIMTOL
 70
     1
  9
$DIMLIM
 70
     0
  9
$DIMTIH
 70
     1
  9
$DIMTOH
 70
     1
  9
$DIMSE1
 70
     0
  9
$DIMSE2
 70
     0
  9
$DIMTAD
 70
     0
  9
$DIMZIN
 70
     0
  9
$DIMBLK
  1

  9
$DIMASO
 70
     1
  9
$DIMSHO
 70
     1
  9
$DIMPOST
  1
\X
  9
$DIMAPOST
  1

  9
$DIMALT
 70
     1
  9
$DIMALTD
 70
     2
  9
$DIMALTF
 40
25.3999999999999986
  9
$DIMLFAC
 40
1.0
  9
$DIMTOFL
 70
     0
  9
$DIMTVP
 40
0.0
  9
$DIMTIX
 70
     0
  9
$DIMSOXD
 70
     0
  9
$DIMSAH
 70
     0
  9
$DIMBLK1
  1

  9
$DIMBLK2
  1

  9
$DIMSTYLE
  2
STANDARD
  9
$DIMCLRD
 70
     0
  9
$DIMCLRE
 70
     0
  9
$DIMCLRT
 70
     0
  9
$DIMTFAC
 40
1.0
  9
$DIMGAP
 40
0.09
  9
$LUNITS
 70
     2
  9
$LUPREC
 70
     4
  9
$SKETCHINC
 40
0.1
  9
$FILLETRAD
 40
0.0
  9
$AUNITS
 70
     0
  9
$AUPREC
 70
     0
  9
$MENU
  1
.
  9
$ELEVATION
 40
0.0
  9
$PELEVATION
 40
0.0
  9
$THICKNESS
 40
0.0
  9
$LIMCHECK
 70
     0
  9
$BLIPMODE
 70
     0
  9
$CHAMFERA
 40
0.0
  9
$CHAMFERB
 40
0.0
  9
$SKPOLY
 70
     0
  9
$TDCREATE
 40
2458060.468368056230247
  9
$TDUPDATE
 40
2460140.4896527780219913
  9
$TDINDWG
 40
0.6223450230999999
  9
$TDUSRTIMER
 40
0.6223450230999999
  9
$USRTIMER
 70
     1
  9
$ANGBASE
 50
0.0
  9
$ANGDIR
 70
     0
  9
$PDMODE
 70
     0
  9
$PDSIZE
 40
0.3125
  9
$PLINEWID
 40
0.0
  9
$COORDS
 70
     1
  9
$SPLFRAME
 70
     0
  9
$SPLINETYPE
 70
     6
  9
$SPLINESEGS
 70
     8
  9
$ATTDIA
 70
     1
  9
$ATTREQ
 70
     1
  9
$HANDLING
 70
     1
  9
$HANDSEED
  5
2528C
  9
$SURFTAB1
 70
     6
  9
$SURFTAB2
 70
     6
  9
$SURFTYPE
 70
     6
  9
$SURFU
 70
     6
  9
$SURFV
 70
     6
  9
$UCSNAME
  2

  9
$UCSORG
 10
0.0
 20
0.0
 30
0.0
  9
$UCSXDIR
 10
1.0
 20
0.0
 30
0.0
  9
$UCSYDIR
 10
0.0
 20
1.0
 30
0.0
  9
$PUCSNAME
  2

  9
$PUCSORG
 10
0.0
 20
0.0
 30
0.0
  9
$PUCSXDIR
 10
1.0
 20
0.0
 30
0.0
  9
$PUCSYDIR
 10
0.0
 20
1.0
 30
0.0
  9
$USERI1
 70
     0
  9
$USERI2
 70
     0
  9
$USERI3
 70
     0
  9
$USERI4
 70
     0
  9
$USERI5
 70
     0
  9
$USERR1
 40
0.0
  9
$USERR2
 40
0.0
  9
$USERR3
 40
0.0
  9
$USERR4
 40
0.0
  9
$USERR5
 40
0.0
  9
$WORLDVIEW
 70
     1
  9
$SHADEDGE
 70
     3
  9
$SHADEDIF
 70
    70
  9
$TILEMODE
 70
     1
  9
$MAXACTVP
 70
    64
  9
$PLIMCHECK
 70
     0
  9
$PEXTMIN
 10
1.0000000000000000E+20
 20
1.0000000000000000E+20
 30
1.0000000000000000E+20
  9
$PEXTMAX
 10
-1.0000000000000000E+20
 20
-1.0000000000000000E+20
 30
-1.0000000000000000E+20
  9
$PLIMMIN
 10
0.0
 20
0.0
  9
$PLIMMAX
 10
12.0
 20
9.0
  9
$UNITMODE
 70
     0
  9
$VISRETAIN
 70
     1
  9
$PLINEGEN
 70
     0
  9
$PSLTSCALE
 70
     1
  0
ENDSEC
  0
SECTION
  2
TABLES
  0
TABLE
  2
VPORT
 70
     1
  0
VPORT
  2
*ACTIVE
 70
     0
 10
0.0
 20
0.0
 11
1.0
 21
1.0
 12
2047.9911260829949242
 22
-121.8149976405242967
 13
0.0
 23
0.0
 14
1.0
 24
1.0
 15
0.0
 25
0.0
 16
0.0
 26
0.0
 36
5.1040778033513332
 17
3792.35791015625
 27
120.1806564331053977
 37
0.0
 40
10.4575234511627002
 41
2.8398203592814371
 42
50.0
 43
0.0
 44
0.0
 50
0.0
 51
0.0
 71
     0
 72
   100
 73
     1
 74
     1
 75
     0
 76
     0
 77
     0
 78
     0
  0
ENDTAB
  0
TABLE
  2
LTYPE
 70
     2
  0
LTYPE
  2
CONTINUOUS
 70
     0
  3
Solid line
 72
    65
 73
     0
 40
0.0
  0
LTYPE
  2
PHANTOM2
 70
     0
  3
___ _ _ ___ _ _ ___ _ _ ___ _ _
 72
    65
 73
     6
 40
1.25
 49
0.625
 49
-0.125
 49
0.125
 49
-0.125
 49
0.125
 49
-0.125
  0
ENDTAB
  0
TABLE
  2
LAYER
 70
     2
  0
LAYER
  2
0
 70
     0
 62
   255
  6
CONTINUOUS
  0
LAYER
  2
DEFPOINTS
 70
     0
 62
     7
  6
CONTINUOUS
  0
ENDTAB
  0
TABLE
  2
STYLE
 70
     1
  0
STYLE
  2
STANDARD
 70
     0
 40
0.0
 41
0.8
 50
0.0
 71
     0
 42
0.2
  3
txt
  4

  0
ENDTAB
  0
TABLE
  2
VIEW
 70
     0
  0
ENDTAB
  0
TABLE
  2
UCS
 70
     0
  0
ENDTAB
  0
TABLE
  2
APPID
 70
     9
  0
APPID
  2
ACAD
 70
     0
  0
APPID
  2
ACAD_MLEADERVER
 70
     0
  0
APPID
  2
ACAD_EXEMPT_FROM_CAD_STANDARDS
 70
     0
  0
APPID
  2
ACAD_NAV_VCDISPLAY
 70
     0
  0
APPID
  2
ACAECLAYERSTANDARD
 70
     0
  0
APPID
  2
ACCMTRANSPARENCY
 70
     0
  0
APPID
  2
ACAD_DSTYLE_DIMJAG
 70
     0
  0
APPID
  2
ACAD_DSTYLE_DIMTALN
 70
     0
  0
APPID
  2
ACDBATTR
 70
     0
  0
ENDTAB
  0
TABLE
  2
DIMSTYLE
 70
     1
  0
DIMSTYLE
  2
STANDARD
 70
     0
  3

  4

  5

  6

  7

 40
1.0
 41
0.1875
 42
0.0625
 43
0.38
 44
0.125
 45
0.0
 46
0.0
 47
0.01
 48
0.01
140
0.15625
141
0.09
142
0.0
143
25.3999999999999986
144
1.0
145
0.0
146
1.0
147
0.09
 71
     1
 72
     0
 73
     1
 74
     1
 75
     0
 76
     0
 77
     0
 78
     4
170
     0
171
     2
172
     0
173
     0
174
     0
175
     0
176
     0
177
     0
178
     0
  0
ENDTAB
  0
ENDSEC
  0
SECTION
  2
BLOCKS
  0
BLOCK
  8
0
  2
$MODEL_SPACE
 70
     0
 10
0.0
 20
0.0
 30
0.0
  3
$MODEL_SPACE
  1

  0
ENDBLK
  5
21
  8
0
  0
BLOCK
 67
     1
  8
0
  2
$PAPER_SPACE
 70
     0
 10
0.0
 20
0.0
 30
0.0
  3
$PAPER_SPACE
  1

  0
ENDBLK
  5
1D
 67
     1
  8
0
  0
BLOCK
  8
0
  2
_FILLED
 70
     0
 10
0.0
 20
0.0
 30
0.0
  3
_FILLED
  1

  0
SOLID
  5
1D213
  8
0
  6
BYBLOCK
 62
     0
 10
0.0
 20
0.0
 30
0.0
 11
-1.0
 21
0.1666666667
 31
0.0
 12
-1.0
 22
-0.1666666667
 32
0.0
 13
-1.0
 23
-0.1666666667
 33
0.0
  0
ENDBLK
  5
1D214
  8
0
  6
BYBLOCK
 62
     0
  0
ENDSEC
  0
SECTION
  2
ENTITIES
  0
ATTDEF
  5
3930
  8
DEFPOINTS
 10
5839.5738314757745684
 20
-6.8132917176616843
 30
0.0
 40
0.001
  1
P24409-00
  3

  2
MODELNUMBER
 70
     0
1001
ACDBATTR
1070
     0
1070
     1
  0
ATTDEF
  5
3931
  8
DEFPOINTS
 10
5839.5738314757745684
 20
-6.8149583843283494
 30
0.0
 40
0.001
  1
ONE
  3

  2
TRADENAME
 70
     0
1001
ACDBATTR
1070
     0
1070
     1
  0
ATTDEF
  5
3932
  8
DEFPOINTS
 10
5839.5738314757745684
 20
-6.8166250509950137
 30
0.0
 40
0.001
  1
KITCHEN SINK FAUCET
  3

  2
PRODUCT
 70
     0
1001
ACDBATTR
1070
     0
1070
     1
  0
LINE
  5
24C7F
  8
0
 10
5840.6919350886309985
 20
-6.8116955997426523
 30
0.0
 11
5838.4549350886309185
 21
-6.8116955997426523
 31
0.0
  0
LINE
  5
24C80
  8
0
 10
5840.6169350886320899
 20
-6.4376798516426517
 30
0.0
 11
5838.5299350886316461
 21
-6.4376798516426517
 31
0.0
  0
LINE
  5
24C81
  8
0
 10
5840.0946850886321045
 20
-5.3349239997426521
 30
0.0
 11
5839.0521850886316315
 21
-5.3349239997426521
 31
0.0
  0
LINE
  5
24C82
  8
0
 10
5840.0655350886318047
 20
-5.3175855603417723
 30
0.0
 11
5839.0813350886319313
 21
-5.3175855603416897
 31
0.0
  0
LINE
  5
24C83
  8
0
 10
5840.0946850886321045
 20
-5.2979005603426543
 30
0.0
 11
5839.0521850886316315
 21
-5.2979005603426543
 31
0.0
  0
LINE
  5
24C84
  8
0
 10
5840.0946850886321045
 20
-3.3153575603426511
 30
0.0
 11
5839.0521850886316315
 21
-3.3153575603426511
 31
0.0
  0
ARC
  5
24C85
  8
0
 10
5840.0946850886321045
 20
-3.3253575603426522
 30
0.0
 40
0.01
 50
0.0000000000008142
 51
90.0
  0
LINE
  5
24C86
  8
0
 10
5840.0946850886321045
 20
-3.295357560342651
 30
0.0
 11
5839.0521850886316315
 21
-3.295357560342651
 31
0.0
  0
ARC
  5
24C87
  8
0
 10
5840.0946850886321045
 20
-3.285357560342653
 30
0.0
 40
0.01
 50
270.0
 51
0.0000000000008142
  0
LINE
  5
24C88
  8
0
 10
5838.4549350886309185
 20
-6.512679851642651
 30
0.0
 11
5838.4549350886309185
 21
-6.8116955997426523
 31
0.0
  0
ARC
  5
24C89
  8
0
 10
5838.5299350886316461
 20
-6.512679851642651
 30
0.0
 40
0.075
 50
90.0
 51
180.0
  0
LINE
  5
24C8A
  8
0
 10
5839.0421850886332322
 20
-6.4376798516426517
 30
0.0
 11
5839.0421850886332322
 21
-5.3449239997426536
 31
0.0
  0
LINE
  5
24C8B
  8
0
 10
5839.0421850886332322
 20
-5.2879005603426519
 30
0.0
 11
5839.0421850886332322
 21
-3.3253575603426522
 31
0.0
  0
LINE
  5
24C8C
  8
0
 10
5839.0421850886332322
 20
-3.285357560342653
 30
0.0
 11
5839.0421850886332322
 21
3.0166926361574431
 31
0.0
  0
ARC
  5
24C8D
  8
0
 10
5839.0521850886316315
 20
-5.2879005603426519
 30
0.0
 40
0.01
 50
180.0000000000036096
 51
270.0
  0
ARC
  5
24C8E
  8
0
 10
5839.0521850886316315
 20
-5.3449239997426501
 30
0.0
 40
0.01
 50
90.0
 51
180.0000000000023874
  0
LINE
  5
24C8F
  8
0
 10
5839.0813350886319313
 20
-5.3175855603416897
 30
0.0
 11
5839.0813350886319313
 21
-5.2979005603426543
 31
0.0
  0
LINE
  5
24C90
  8
0
 10
5839.1015850886324188
 20
-5.3175855603416897
 30
0.0
 11
5839.1015850886324188
 21
-5.3349239997426521
 31
0.0
  0
LINE
  5
24C91
  8
0
 10
5839.0809350886320317
 20
-3.295357560342651
 30
0.0
 11
5839.0809350886320317
 21
-3.3153575603426511
 31
0.0
  0
ARC
  5
24C92
  8
0
 10
5839.0521850886316315
 20
-3.285357560342649
 30
0.0
 40
0.01
 50
180.0000000000048885
 51
270.0
  0
ARC
  5
24C93
  8
0
 10
5839.0521850886316315
 20
-3.3253575603426522
 30
0.0
 40
0.01
 50
90.0
 51
179.9999999999947136
  0
ARC
  5
24C94
  8
0
 10
5839.5734350886323227
 20
3.0166926361574431
 30
0.0
 40
0.5312499999999077
 50
0.0000000000008142
 51
179.9999999999992042
  0
LINE
  5
24C95
  8
0
 10
5840.1046850886332322
 20
-3.285357560342653
 30
0.0
 11
5840.1046850886332322
 21
3.0166926361574431
 31
0.0
  0
LINE
  5
24C96
  8
0
 10
5840.1046850886332322
 20
-6.4376798516426517
 30
0.0
 11
5840.1046850886332322
 21
-5.3449239997426536
 31
0.0
  0
LINE
  5
24C97
  8
0
 10
5840.1046850886332322
 20
-5.2879005603426519
 30
0.0
 11
5840.1046850886332322
 21
-5.0639856523314917
 31
0.0
  0
LINE
  5
24C98
  8
0
 10
5840.1046850886332322
 20
-3.5313080055187172
 30
0.0
 11
5840.1046850886332322
 21
-3.3253575603426522
 31
0.0
  0
LINE
  5
24C99
  8
0
 10
5840.0659350886307948
 20
-3.295357560342651
 30
0.0
 11
5840.0659350886307948
 21
-3.3153575603426511
 31
0.0
  0
ARC
  5
24C9A
  8
0
 10
5840.0946850886321045
 20
-5.2879005603426519
 30
0.0
 40
0.01
 50
270.0
 51
359.9999999999959073
  0
ARC
  5
24C9B
  8
0
 10
5840.0946850886321045
 20
-5.3449239997426501
 30
0.0
 40
0.01
 50
359.9999999999972147
 51
90.0
  0
LINE
  5
24C9C
  8
0
 10
5840.0655350886318047
 20
-5.3175855603416897
 30
0.0
 11
5840.0655350886318047
 21
-5.2979005603426543
 31
0.0
  0
LINE
  5
24C9D
  8
0
 10
5840.0452850886322267
 20
-5.3175855603416897
 30
0.0
 11
5840.0452850886322267
 21
-5.3349239997426521
 31
0.0
  0
LINE
  5
24C9E
  8
0
 10
5840.6919350886309985
 20
-6.512679851642651
 30
0.0
 11
5840.6919350886309985
 21
-6.8116955997426523
 31
0.0
  0
ARC
  5
24C9F
  8
0
 10
5840.6169350886320899
 20
-6.512679851642651
 30
0.0
 40
0.075
 50
0.0
 51
90.0
  0
LINE
  5
24CA0
  8
0
 10
5840.1382890160575698
 20
-3.5727040170426529
 30
0.0
 11
5841.1718445374317525
 21
-3.5727040170426529
 31
0.0
  0
LINE
  5
24CA1
  8
0
 10
5841.1918445374330986
 20
-3.5927040170426521
 30
0.0
 11
5841.1918445374330986
 21
-5.0027040170426531
 31
0.0
  0
LINE
  5
24CA2
  8
0
 10
5840.1380314409179846
 20
-5.0227040170426518
 30
0.0
 11
5841.1718445374317525
 21
-5.0227040170426518
 31
0.0
  0
ARC
  5
24CA3
  8
0
 10
5840.154232265700557
 20
-3.5254245187004472
 30
0.0
 40
0.0498952720472717
 50
186.7718857685958938
 51
251.3652377666967084
  0
ARC
  5
24CA4
  8
0
 10
5840.1545544957525635
 20
-5.0701599839659997
 30
0.0
 40
0.0502501754992144
 50
109.196918968997096
 51
172.9421260948963948
  0
ARC
  5
24CA5
  8
0
 10
5841.1718445374317525
 20
-3.5927040170426521
 30
0.0
 40
0.02
 50
359.9999999999988063
 51
90.0
  0
ARC
  5
24CA6
  8
0
 10
5841.1718445374317525
 20
-5.0027040170426531
 30
0.0
 40
0.02
 50
270.0
 51
0.0000000000040711
  0
LINE
  5
24CA7
  8
0
 10
5842.1932299707323182
 20
-1.5677040170426539
 30
0.0
 11
5841.357702411531136
 21
-1.5677040170426499
 31
0.0
  0
LINE
  5
24CA8
  8
0
 10
5841.328202411532402
 20
-1.5972040170426529
 30
0.0
 11
5841.328202411532402
 21
-3.5533673643837171
 31
0.0
  0
ARC
  5
24CA9
  8
0
 10
5841.357702411531136
 20
-1.5972040170426529
 30
0.0
 40
0.0295
 50
90.0
 51
179.9999999999963052
  0
LINE
  5
24CAA
  8
0
 10
5841.3089622540319397
 20
-3.5925547655362631
 30
0.0
 11
5841.3089622540319397
 21
-4.9923278543492691
 31
0.0
  0
ARC
  5
24CAB
  8
0
 10
5841.2986748525672738
 20
-3.5533673643837171
 30
0.0
 40
0.029527558960168
 50
307.6999414076262269
 51
0.0
  0
ARC
  5
24CAC
  8
0
 10
5841.3289622540323762
 20
-3.5925547655362671
 30
0.0
 40
0.02
 50
127.6999414076311012
 51
179.9999999999947136
  0
LINE
  5
24CAD
  8
0
 10
5842.2227299707319617
 20
-1.5972040170426529
 30
0.0
 11
5842.2227299707319617
 21
-4.9776090624616032
 31
0.0
  0
ARC
  5
24CAE
  8
0
 10
5842.1932299707323182
 20
-3.6564209785425059
 30
0.0
 40
0.0295
 50
0.0
 51
89.2416217275861356
  0
ARC
  5
24CAF
  8
0
 10
5842.1932299707323182
 20
-1.5972040170426529
 30
0.0
 40
0.0295
 50
0.0000000000032569
 51
90.0
  0
LINE
  5
24CB0
  8
0
 10
5842.1932535429268682
 20
-5.0076044933162791
 30
0.0
 11
5841.560701973506184
 21
-5.0186457220529297
 31
0.0
  0
ARC
  5
24CB1
  8
0
 10
5842.1927299707322163
 20
-4.9776090624616032
 30
0.0
 40
0.03
 50
271.000000002008278
 51
359.9999999999984084
  0
ARC
  5
24CB2
  8
0
 10
5830.293426921100945
 20
-4.279533825004374
 30
0.0
 40
11.9497104687558302
 50
356.6510026286736093
 51
3.3489973713263832
  0
ARC
  5
24CB3
  8
0
 10
6246.407518317631002
 20
-45685.8758821264418657
 30
0.0
 40
45682.6595507394667948
 50
90.5079178778811269
 51
90.5080611737657961
  0
ARC
  5
24CB4
  8
0
 10
5841.4573028439262998
 20
-5.7245057558410037
 30
0.0
 40
0.7133273953705285
 50
81.7308830861552167
 51
91.1178383468207045
  0
ARC
  5
24CB5
  8
0
 10
5841.5606147114740452
 20
-5.013646483577471
 30
0.0
 40
0.005
 50
261.7308830857339217
 51
271.0000000021647111
  0
ARC
  5
24CB6
  8
0
 10
5841.3289622540160053
 20
-4.9923278543558167
 30
0.0
 40
0.02
 50
179.9999999812436045
 51
270.5080612292131832
  0
ARC
  5
24CB7
  8
0
 10
5840.8418446623081763
 20
-4.2977042067944806
 30
0.0
 40
0.8050618823628344
 50
297.5155267430287154
 51
305.4664185204093201
  0
ARC
  5
24CB8
  8
0
 10
5841.2068445374306975
 20
-4.9983987687275109
 30
0.0
 40
0.015
 50
180.0
 51
297.515526743028488
  0
ARC
  5
24CB9
  8
0
 10
5840.8419147529848487
 20
-4.2977467686451192
 30
0.0
 40
0.8050618823628344
 50
54.5397059649057709
 51
62.4902044208245684
  0
ARC
  5
24CBA
  8
0
 10
5841.2068445374306975
 20
-3.5970157001273249
 30
0.0
 40
0.015
 50
62.4902044208249308
 51
180.0
  0
LINE
  5
24CBB
  8
0
 10
5841.358245300130875
 20
-3.615865726442653
 30
0.0
 11
5842.193620427166934
 21
-3.6269235626595382
 31
0.0
  0
LINE
  5
24CBC
  8
0
 10
5841.3166583170323065
 20
-3.5767872947720711
 30
0.0
 11
5841.3166583170323065
 21
-3.58768581103763
 31
0.0
  0
LINE
  5
24CBD
  8
0
 10
5841.3289908445940455
 20
-3.6016255895336471
 30
0.0
 11
5841.358245300130875
 21
-3.615865726442653
 31
0.0
  0
ARC
  5
24CBE
  8
0
 10
5841.3244799652802612
 20
-3.5875312599449698
 30
0.0
 40
0.0078231750752476
 50
181.1320043104211948
 51
239.4568222379427027
  0
ARC
  5
24CBF
  8
0
 10
5841.2666417224527322
 20
-3.664977322408471
 30
0.0
 40
0.088886754299969
 50
45.4569908882491802
 51
52.7014093810813335
  0
ARC
  5
24CC0
  8
0
 10
5839.5961045194017061
 20
-3.4181777228669921
 30
0.0
 40
0.5210111863015142
 50
329.2049913344789047
 51
347.4591282890253865
  0
ARC
  5
24CC1
  8
0
 10
5856.3481439110555584
 20
-13.1949783281698707
 30
0.0
 40
18.8753165676459282
 50
149.7459017992242991
 51
150.7641244814197137
  0
ARC
  5
24CC2
  8
0
 10
5840.8435878769114424
 20
-4.5297731636123251
 30
0.0
 40
1.1137022657977911
 50
150.1920366235038955
 51
161.5075733396714952
  0
ARC
  5
24CC3
  8
0
 10
5840.1779235752683235
 20
-4.3002545623546524
 30
0.0
 40
0.4096626872675583
 50
162.4212676074531885
 51
180.9299533210017046
  0
ARC
  5
24CC4
  8
0
 10
5839.2622559880428526
 20
-5.3632146327738957
 30
0.0
 40
0.8939937204781218
 50
19.55492744237986
 51
29.0666941540621302
  0
ARC
  5
24CC5
  8
0
 10
5856.3481439110555584
 20
4.5811715241845681
 30
0.0
 40
18.8753165676459282
 50
209.2358755185802011
 51
210.2540982007755019
  0
ARC
  5
24CC6
  8
0
 10
5840.8435878769114424
 20
-4.0840336403729793
 30
0.0
 40
1.1137022657977911
 50
198.4924266603283058
 51
209.8079633764959055
  0
ARC
  5
24CC7
  8
0
 10
5840.1779235752683235
 20
-4.313552241630652
 30
0.0
 40
0.4096626872675583
 50
179.0700466789982954
 51
197.5787323925466126
  0
LINE
  5
24CC8
  8
0
 10
5839.2833410515322612
 20
-0.5641117906008973
 30
0.0
 11
5839.2833410515322612
 21
-0.554087351237186
 31
0.0
  0
LINE
  5
24CC9
  8
0
 10
5839.2755296105169691
 20
-0.5725838556693043
 30
0.0
 11
5839.2349425530419467
 21
-0.5758825299476769
 31
0.0
  0
ARC
  5
24CCA
  8
0
 10
5839.2748410515323485
 20
-0.5641117906008973
 30
0.0
 40
0.0085
 50
274.6464469846637257
 51
0.0000000000061067
  0
ARC
  5
24CCB
  8
0
 10
5839.319579268238158
 20
0.4143536943875788
 30
0.0
 40
0.9938466448828046
 50
260.6344423368882985
 51
265.1147319222902183
  0
ARC
  5
24CCC
  8
0
 10
5839.3868841083403822
 20
0.5072831956985553
 30
0.0
 40
1.0855932354317861
 50
259.8470097281341964
 51
264.1125422869715749
  0
ARC
  5
24CCD
  8
0
 10
5839.3853563672128075
 20
0.5414058599719453
 30
0.0
 40
1.1102145740177829
 50
261.962075924679425
 51
264.727772524432396
  0
ARC
  5
24CCE
  8
0
 10
5850.7178964023451044
 20
-381.8532287258580027
 30
0.0
 40
381.4723911877230194
 50
91.6740961506842638
 51
91.7054099797003346
  0
ARC
  5
24CCF
  8
0
 10
5839.4935854728164486
 20
-3.7867000088307061
 30
0.0
 40
3.2394424382469338
 50
92.2741737340234209
 51
94.3069629343201257
  0
ARC
  5
24CD0
  8
0
 10
5839.3240857553946626
 20
-1.6889963684211251
 30
0.0
 40
1.1349913661465689
 50
93.7272416795696444
 51
100.1894345132767938
  0
ARC
  5
24CD1
  8
0
 10
5839.1565012903711249
 20
-0.7427036083841579
 30
0.0
 40
0.1739944700617209
 50
100.9998273622275065
 51
109.8056085875086012
  0
ARC
  5
24CD2
  8
0
 10
5839.1076950797341851
 20
-0.6083493241513231
 30
0.0
 40
0.031053078396771
 50
109.075040129879099
 51
129.8339369413677105
  0
ARC
  5
24CD3
  8
0
 10
5839.0907301519591783
 20
-0.588300505051052
 30
0.0
 40
0.0047939382101864
 50
127.6238126971774989
 51
241.0618307808707925
  0
ARC
  5
24CD4
  8
0
 10
5839.1149665431930771
 20
-0.5548533737677026
 30
0.0
 40
0.0460671286562584
 50
234.7978221540973038
 51
254.3056159516540902
  0
ARC
  5
24CD5
  8
0
 10
5839.2394977230123914
 20
-0.0729382025953385
 30
0.0
 40
0.5438029574568084
 50
255.4090849542878914
 51
264.9106486310004129
  0
ARC
  5
24CD6
  8
0
 10
5839.4447579779016451
 20
1.827016520099185
 30
0.0
 40
2.4547383492492179
 50
264.0725031388907951
 51
267.3625268164747126
  0
ARC
  5
24CD7
  8
0
 10
5839.5592832163756611
 20
4.0927211733814977
 30
0.0
 40
4.7233238386617176
 50
267.2394700011606119
 51
269.386076864524
  0
ARC
  5
24CD8
  8
0
 10
5839.9121478268325518
 20
63.1903140298940613
 30
0.0
 40
63.8219209214317971
 50
269.637781049713908
 51
269.6959210692884881
  0
ARC
  5
24CD9
  8
0
 10
5839.661270861029152
 20
-8.5421801541024394
 30
0.0
 40
8.0206668431764712
 50
90.6274689804165945
 51
93.0190153963982738
  0
ARC
  5
24CDA
  8
0
 10
5839.34556559995508
 20
-2.1930559474166058
 30
0.0
 40
1.663837066621485
 50
93.677604658781064
 51
98.1544407266414254
  0
ARC
  5
24CDB
  8
0
 10
5839.1645961161220839
 20
-0.9301018193264845
 30
0.0
 40
0.3879832020512555
 50
98.1544407266414254
 51
104.1786237359547016
  0
ARC
  5
24CDC
  8
0
 10
5839.1007736068322629
 20
-0.6774814379871898
 30
0.0
 40
0.1274253970250574
 50
104.1786237359547016
 51
112.636934000661995
  0
ARC
  5
24CDD
  8
0
 10
5839.0611070579716397
 20
-0.5823615473030231
 30
0.0
 40
0.0243660514898844
 50
112.6369340006618955
 51
140.9476841375187917
  0
ARC
  5
24CDE
  8
0
 10
5839.0699057964184249
 20
-0.5667906008293571
 30
0.0
 40
0.0280575633041412
 50
188.8873023179056929
 51
236.6121490967067018
  0
ARC
  5
24CDF
  8
0
 10
5839.1001590125861185
 20
-0.5168417229175546
 30
0.0
 40
0.0864402479508889
 50
238.0882438246825927
 51
256.3662061666628915
  0
ARC
  5
24CE0
  8
0
 10
5839.2613036429320346
 20
0.1995402120984551
 30
0.0
 40
0.8207118879440889
 50
257.2220178489627074
 51
265.8242263177601217
  0
ARC
  5
24CE1
  8
0
 10
5839.4912650240912626
 20
2.7482094494138058
 30
0.0
 40
3.3796436872225022
 50
265.0822360240890134
 51
268.2323169022590719
  0
ARC
  5
24CE2
  8
0
 10
5839.5915105472604409
 20
6.2196403038463179
 30
0.0
 40
6.8525182833148319
 50
268.2898875894712774
 51
269.8488659715579843
  0
LINE
  5
24CE3
  8
0
 10
5839.4676018170321186
 20
-0.5467691553140241
 30
0.0
 11
5839.4676018170321186
 21
-0.5827089275479623
 31
0.0
  0
LINE
  5
24CE4
  8
0
 10
5839.4842074559319371
 20
-0.5765619468512462
 30
0.0
 11
5839.4842074559319371
 21
-0.5462795744762446
 31
0.0
  0
LINE
  5
24CE5
  8
0
 10
5839.4828086949064527
 20
-0.582584513943278
 30
0.0
 11
5839.4692919827912192
 21
-0.5876872484301999
 31
0.0
  0
ARC
  5
24CE6
  8
0
 10
5839.4635959424113025
 20
-0.5749485719804746
 30
0.0
 40
0.0206745608929045
 50
338.3250819280912083
 51
355.5242749103849746
  0
ARC
  5
24CE7
  8
0
 10
5839.4888657339542988
 20
-0.5806960489117792
 30
0.0
 40
0.0213589757067412
 50
185.4076023920381999
 51
195.5987372834026132
  0
ARC
  5
24CE8
  8
0
 10
5839.4700428395017298
 20
-0.5860629449974973
 30
0.0
 40
0.0017894545095142
 50
192.1458342043758023
 51
245.1906072146412896
  0
ARC
  5
24CE9
  8
0
 10
5839.5686424852083292
 20
4.317366279715201
 30
0.0
 40
4.906059583443926
 50
268.8396484968520781
 51
270.055970782274585
  0
ARC
  5
24CEA
  8
0
 10
5839.5685219468086871
 20
2.9201505530797141
 30
0.0
 40
3.5037836279234371
 50
268.5982303530561808
 51
270.0803423991761179
  0
ARC
  5
24CEB
  8
0
 10
5839.5734350886323227
 20
3.917878773365266
 30
0.0
 40
4.4929780815079221
 50
268.8620681462742255
 51
270.0
  0
ARC
  5
24CEC
  8
0
 10
5839.1478128732705954
 20
-0.4978749069888693
 30
0.0
 40
0.096471456361634
 50
237.7400859251351903
 51
262.0644218825862026
  0
ARC
  5
24CED
  8
0
 10
5839.3417345265079348
 20
0.5903567216424577
 30
0.0
 40
1.201782826647781
 50
260.0700402528291875
 51
266.5819639935024838
  0
ARC
  5
24CEE
  8
0
 10
5839.6151605161949192
 20
10.4388537963956995
 30
0.0
 40
11.0535298050196502
 50
268.211008655734588
 51
269.783716458233414
  0
LINE
  5
24CEF
  8
0
 10
5839.8635291257323843
 20
-0.5641117906008973
 30
0.0
 11
5839.8635291257323843
 21
-0.554087351237186
 31
0.0
  0
LINE
  5
24CF0
  8
0
 10
5839.8713405667467669
 20
-0.5725838556693043
 30
0.0
 11
5839.9119276242226988
 21
-0.5758825299476769
 31
0.0
  0
ARC
  5
24CF1
  8
0
 10
5839.872029125732297
 20
-0.5641117906008973
 30
0.0
 40
0.0085
 50
179.9999999999938893
 51
265.3535530153362743
  0
ARC
  5
24CF2
  8
0
 10
5839.8272909090283065
 20
0.4143536943875788
 30
0.0
 40
0.9938466448828046
 50
274.8852680777097817
 51
279.3655576631117015
  0
ARC
  5
24CF3
  8
0
 10
5839.7599860689233537
 20
0.5072831956985553
 30
0.0
 40
1.0855932354317861
 50
275.8874577130284251
 51
280.1529902718656899
  0
ARC
  5
24CF4
  8
0
 10
5839.7615138100518379
 20
0.5414058599719453
 30
0.0
 40
1.1102145740177829
 50
275.2722274755677176
 51
278.037924075320575
  0
ARC
  5
24CF5
  8
0
 10
5828.4289737749186315
 20
-381.8532287258580027
 30
0.0
 40
381.4723911877230194
 50
88.2945900202996654
 51
88.3259038493156936
  0
ARC
  5
24CF6
  8
0
 10
5839.6532847044472874
 20
-3.7867000088307061
 30
0.0
 40
3.2394424382469338
 50
85.6930370656798459
 51
87.7258262659765933
  0
ARC
  5
24CF7
  8
0
 10
5839.8227844218690734
 20
-1.6889963684211251
 30
0.0
 40
1.1349913661465689
 50
79.8105654867232204
 51
86.2727583204303556
  0
ARC
  5
24CF8
  8
0
 10
5839.9903688868917015
 20
-0.7427036083841579
 30
0.0
 40
0.1739944700617209
 50
70.1943914124914414
 51
79.0001726377724367
  0
ARC
  5
24CF9
  8
0
 10
5840.0391750975295508
 20
-0.6083493241513231
 30
0.0
 40
0.031053078396771
 50
50.1660630586322398
 51
70.9249598701208726
  0
ARC
  5
24CFA
  8
0
 10
5840.0561400253045576
 20
-0.588300505051052
 30
0.0
 40
0.0047939382101864
 50
298.9381692191291791
 51
52.3761873028224585
  0
ARC
  5
24CFB
  8
0
 10
5840.0319036340697494
 20
-0.5548533737677026
 30
0.0
 40
0.0460671286562584
 50
285.6943840483456825
 51
305.2021778459027246
  0
ARC
  5
24CFC
  8
0
 10
5839.9073724542531636
 20
-0.0729382025953385
 30
0.0
 40
0.5438029574568084
 50
275.0893513689995871
 51
284.5909150457121086
  0
ARC
  5
24CFD
  8
0
 10
5839.7021121993611814
 20
1.827016520099185
 30
0.0
 40
2.4547383492492179
 50
272.6374731835254011
 51
275.9274968611092049
  0
ARC
  5
24CFE
  8
0
 10
5839.5875869608880748
 20
4.0927211733814977
 30
0.0
 40
4.7233238386617176
 50
270.613923135476
 51
272.7605299988395018
  0
ARC
  5
24CFF
  8
0
 10
5839.2347223504320937
 20
63.1903140298940613
 30
0.0
 40
63.8219209214317971
 50
270.3040789307116256
 51
270.3622189502859783
  0
ARC
  5
24D00
  8
0
 10
5839.4855993162373125
 20
-8.5421801541024394
 30
0.0
 40
8.0206668431764712
 50
86.9809846036017262
 51
89.3725310195834197
  0
ARC
  5
24D01
  8
0
 10
5839.801304577308656
 20
-2.1930559474166058
 30
0.0
 40
1.663837066621485
 50
81.845559273358603
 51
86.322395341218936
  0
ARC
  5
24D02
  8
0
 10
5839.9822740611416521
 20
-0.9301018193264845
 30
0.0
 40
0.3879832020512555
 50
75.8213762640453268
 51
81.845559273358603
  0
ARC
  5
24D03
  8
0
 10
5840.0460965704323826
 20
-0.6774814379871898
 30
0.0
 40
0.1274253970250574
 50
67.3630659993379908
 51
75.8213762640453695
  0
ARC
  5
24D04
  8
0
 10
5840.0857631192911867
 20
-0.5823615473030231
 30
0.0
 40
0.0243660514898844
 50
39.0523158624811515
 51
67.363065999338076
  0
ARC
  5
24D05
  8
0
 10
5840.0769643808453111
 20
-0.5667906008293571
 30
0.0
 40
0.0280575633041412
 50
303.3878509032933266
 51
351.1126976820938808
  0
ARC
  5
24D06
  8
0
 10
5840.0467111646776175
 20
-0.5168417229175546
 30
0.0
 40
0.0864402479508889
 50
283.6337938333372222
 51
301.9117561753172936
  0
ARC
  5
24D07
  8
0
 10
5839.8855665343317014
 20
0.1995402120984551
 30
0.0
 40
0.8207118879440889
 50
274.1757736822398783
 51
282.7779821510372926
  0
ARC
  5
24D08
  8
0
 10
5839.6556051531733829
 20
2.7482094494138058
 30
0.0
 40
3.3796436872225022
 50
271.7676830977409281
 51
274.9177639759111003
  0
ARC
  5
24D09
  8
0
 10
5839.555359630005114
 20
6.2196403038463179
 30
0.0
 40
6.8525182833148319
 50
270.1511340284420157
 51
271.7101124105287226
  0
LINE
  5
24D0A
  8
0
 10
5839.6792683602316174
 20
-0.5467691553140241
 30
0.0
 11
5839.6792683602316174
 21
-0.5827089275479623
 31
0.0
  0
LINE
  5
24D0B
  8
0
 10
5839.6626627213317988
 20
-0.5765619468512462
 30
0.0
 11
5839.6626627213317988
 21
-0.5462795744762446
 31
0.0
  0
LINE
  5
24D0C
  8
0
 10
5839.6640614823581927
 20
-0.582584513943278
 30
0.0
 11
5839.6775781944716073
 21
-0.5876872484301999
 31
0.0
  0
ARC
  5
24D0D
  8
0
 10
5839.6832742348542524
 20
-0.5749485719804746
 30
0.0
 40
0.0206745608929045
 50
184.4757250896149117
 51
201.6749180719087917
  0
ARC
  5
24D0E
  8
0
 10
5839.6580044433112562
 20
-0.5806960489117792
 30
0.0
 40
0.0213589757067412
 50
344.4012627165973868
 51
354.5923976079614022
  0
ARC
  5
24D0F
  8
0
 10
5839.6768273377620062
 20
-0.5860629449974973
 30
0.0
 40
0.0017894545095142
 50
294.809392785358682
 51
347.8541657956238282
  0
ARC
  5
24D10
  8
0
 10
5839.5782276920563163
 20
4.317366279715201
 30
0.0
 40
4.906059583443926
 50
269.944029217725415
 51
271.1603515031479219
  0
ARC
  5
24D11
  8
0
 10
5839.5783482304550489
 20
2.9201505530797141
 30
0.0
 40
3.5037836279234371
 50
269.9196576008238821
 51
271.4017696469438192
  0
ARC
  5
24D12
  8
0
 10
5839.5734350886323227
 20
3.917878773365266
 30
0.0
 40
4.4929780815079221
 50
270.0
 51
271.1379318537257745
  0
ARC
  5
24D13
  8
0
 10
5839.999057303992231
 20
-0.4978749069888693
 30
0.0
 40
0.096471456361634
 50
277.9355781174137974
 51
302.2599140748649234
  0
ARC
  5
24D14
  8
0
 10
5839.8051356507558012
 20
0.5903567216424577
 30
0.0
 40
1.201782826647781
 50
273.4180360064975162
 51
279.9299597471708125
  0
ARC
  5
24D15
  8
0
 10
5839.5317096610697263
 20
10.4388537963956995
 30
0.0
 40
11.0535298050196502
 50
270.216283541766586
 51
271.7889913442652983
  0
ENDSEC
  0
EOF
