  0
SECTION
  2
HEADER
  9
$ACADVER
  1
AC1009
  9
$INSBASE
 10
3187.1508469594818962
 20
197.2125824688899911
 30
0.0
  9
$EXTMIN
 10
3166.0111395716007792
 20
193.3107674406514036
 30
0.0
  9
$EXTMAX
 10
3193.880151979034963
 20
200.2265820735374859
 30
0.0
  9
$LIMMIN
 10
0.0
 20
0.0
  9
$LIMMAX
 10
11.6929133858000007
 20
8.2677165353999982
  9
$ORTHOMODE
 70
     0
  9
$REGENMODE
 70
     1
  9
$FILLMODE
 70
     1
  9
$QTEXTMODE
 70
     0
  9
$MIRRTEXT
 70
     0
  9
$DRAGMODE
 70
     2
  9
$LTSCALE
 40
0.6431102362
  9
$OSMODE
 70
  4095
  9
$ATTMODE
 70
     1
  9
$TEXTSIZE
 40
0.2
  9
$TRACEWID
 40
0.05
  9
$TEXTSTYLE
  7
STANDARD
  9
$CLAYER
  8
0
  9
$CELTYPE
  6
BYLAYER
  9
$CECOLOR
 62
   256
  9
$DIMSCALE
 40
1.0
  9
$DIMASZ
 40
0.1875
  9
$DIMEXO
 40
0.0625
  9
$DIMDLI
 40
0.4443307087
  9
$DIMRND
 40
0.0
  9
$DIMDLE
 40
0.0
  9
$DIMEXE
 40
0.125
  9
$DIMTP
 40
0.01
  9
$DIMTM
 40
0.01
  9
$DIMTXT
 40
2.0
  9
$DIMCEN
 40
0.1052362205
  9
$DIMTSZ
 40
0.0
  9
$DIMTOL
 70
     1
  9
$DIMLIM
 70
     0
  9
$DIMTIH
 70
     1
  9
$DIMTOH
 70
     1
  9
$DIMSE1
 70
     0
  9
$DIMSE2
 70
     0
  9
$DIMTAD
 70
     0
  9
$DIMZIN
 70
     0
  9
$DIMBLK
  1

  9
$DIMASO
 70
     1
  9
$DIMSHO
 70
     1
  9
$DIMPOST
  1
\X
  9
$DIMAPOST
  1

  9
$DIMALT
 70
     1
  9
$DIMALTD
 70
     2
  9
$DIMALTF
 40
25.3999999999999986
  9
$DIMLFAC
 40
1.0
  9
$DIMTOFL
 70
     0
  9
$DIMTVP
 40
0.0
  9
$DIMTIX
 70
     0
  9
$DIMSOXD
 70
     0
  9
$DIMSAH
 70
     0
  9
$DIMBLK1
  1

  9
$DIMBLK2
  1

  9
$DIMSTYLE
  2
STANDARD
  9
$DIMCLRD
 70
     0
  9
$DIMCLRE
 70
     0
  9
$DIMCLRT
 70
     0
  9
$DIMTFAC
 40
1.0
  9
$DIMGAP
 40
0.09
  9
$LUNITS
 70
     2
  9
$LUPREC
 70
     4
  9
$SKETCHINC
 40
0.1
  9
$FILLETRAD
 40
0.0
  9
$AUNITS
 70
     0
  9
$AUPREC
 70
     0
  9
$MENU
  1
.
  9
$ELEVATION
 40
0.0
  9
$PELEVATION
 40
0.0
  9
$THICKNESS
 40
0.0
  9
$LIMCHECK
 70
     0
  9
$BLIPMODE
 70
     0
  9
$CHAMFERA
 40
0.0
  9
$CHAMFERB
 40
0.0
  9
$SKPOLY
 70
     0
  9
$TDCREATE
 40
2458060.468368056230247
  9
$TDUPDATE
 40
2459513.281111110933125
  9
$TDINDWG
 40
0.3904237269
  9
$TDUSRTIMER
 40
0.3904237269
  9
$USRTIMER
 70
     1
  9
$ANGBASE
 50
0.0
  9
$ANGDIR
 70
     0
  9
$PDMODE
 70
     0
  9
$PDSIZE
 40
0.3125
  9
$PLINEWID
 40
0.0
  9
$COORDS
 70
     1
  9
$SPLFRAME
 70
     0
  9
$SPLINETYPE
 70
     6
  9
$SPLINESEGS
 70
     8
  9
$ATTDIA
 70
     1
  9
$ATTREQ
 70
     1
  9
$HANDLING
 70
     1
  9
$HANDSEED
  5
854E
  9
$SURFTAB1
 70
     6
  9
$SURFTAB2
 70
     6
  9
$SURFTYPE
 70
     6
  9
$SURFU
 70
     6
  9
$SURFV
 70
     6
  9
$UCSNAME
  2

  9
$UCSORG
 10
0.0
 20
0.0
 30
0.0
  9
$UCSXDIR
 10
1.0
 20
0.0
 30
0.0
  9
$UCSYDIR
 10
0.0
 20
1.0
 30
0.0
  9
$PUCSNAME
  2

  9
$PUCSORG
 10
0.0
 20
0.0
 30
0.0
  9
$PUCSXDIR
 10
1.0
 20
0.0
 30
0.0
  9
$PUCSYDIR
 10
0.0
 20
1.0
 30
0.0
  9
$USERI1
 70
     0
  9
$USERI2
 70
     0
  9
$USERI3
 70
     0
  9
$USERI4
 70
     0
  9
$USERI5
 70
     0
  9
$USERR1
 40
0.0
  9
$USERR2
 40
0.0
  9
$USERR3
 40
0.0
  9
$USERR4
 40
0.0
  9
$USERR5
 40
0.0
  9
$WORLDVIEW
 70
     1
  9
$SHADEDGE
 70
     3
  9
$SHADEDIF
 70
    70
  9
$TILEMODE
 70
     1
  9
$MAXACTVP
 70
    64
  9
$PLIMCHECK
 70
     0
  9
$PEXTMIN
 10
1.0000000000000000E+20
 20
1.0000000000000000E+20
 30
1.0000000000000000E+20
  9
$PEXTMAX
 10
-1.0000000000000000E+20
 20
-1.0000000000000000E+20
 30
-1.0000000000000000E+20
  9
$PLIMMIN
 10
0.0
 20
0.0
  9
$PLIMMAX
 10
12.0
 20
9.0
  9
$UNITMODE
 70
     0
  9
$VISRETAIN
 70
     1
  9
$PLINEGEN
 70
     0
  9
$PSLTSCALE
 70
     1
  0
ENDSEC
  0
SECTION
  2
TABLES
  0
TABLE
  2
VPORT
 70
     1
  0
VPORT
  2
*ACTIVE
 70
     0
 10
0.0
 20
0.0
 11
1.0
 21
1.0
 12
109.2413400423826033
 22
3.4713917539051802
 13
0.0
 23
0.0
 14
1.0
 24
1.0
 15
0.0
 25
0.0
 16
0.0
 26
0.0
 36
95.5902297660485658
 17
3089.811279296875
 27
197.161570589386713
 37
0.0
 40
39.2436724340487402
 41
2.000833333333333
 42
50.0
 43
0.0
 44
0.0
 50
0.0
 51
0.0
 71
     0
 72
   100
 73
     1
 74
     1
 75
     0
 76
     0
 77
     0
 78
     0
  0
ENDTAB
  0
TABLE
  2
LTYPE
 70
     2
  0
LTYPE
  2
CONTINUOUS
 70
     0
  3
Solid line
 72
    65
 73
     0
 40
0.0
  0
LTYPE
  2
PHANTOM2
 70
     0
  3
___ _ _ ___ _ _ ___ _ _ ___ _ _
 72
    65
 73
     6
 40
1.25
 49
0.625
 49
-0.125
 49
0.125
 49
-0.125
 49
0.125
 49
-0.125
  0
ENDTAB
  0
TABLE
  2
LAYER
 70
     2
  0
LAYER
  2
0
 70
     0
 62
   255
  6
CONTINUOUS
  0
LAYER
  2
DEFPOINTS
 70
     0
 62
     7
  6
CONTINUOUS
  0
ENDTAB
  0
TABLE
  2
STYLE
 70
     1
  0
STYLE
  2
STANDARD
 70
     0
 40
0.0
 41
0.8
 50
0.0
 71
     0
 42
0.2
  3
txt
  4

  0
ENDTAB
  0
TABLE
  2
VIEW
 70
     0
  0
ENDTAB
  0
TABLE
  2
UCS
 70
     0
  0
ENDTAB
  0
TABLE
  2
APPID
 70
     9
  0
APPID
  2
ACAD
 70
     0
  0
APPID
  2
ACAD_MLEADERVER
 70
     0
  0
APPID
  2
ACAD_EXEMPT_FROM_CAD_STANDARDS
 70
     0
  0
APPID
  2
ACAD_NAV_VCDISPLAY
 70
     0
  0
APPID
  2
ACAECLAYERSTANDARD
 70
     0
  0
APPID
  2
ACCMTRANSPARENCY
 70
     0
  0
APPID
  2
ACAD_DSTYLE_DIMJAG
 70
     0
  0
APPID
  2
ACAD_DSTYLE_DIMTALN
 70
     0
  0
APPID
  2
ACDBATTR
 70
     0
  0
ENDTAB
  0
TABLE
  2
DIMSTYLE
 70
     1
  0
DIMSTYLE
  2
STANDARD
 70
     0
  3

  4

  5

  6

  7

 40
1.0
 41
0.1875
 42
0.0625
 43
0.38
 44
0.125
 45
0.0
 46
0.0
 47
0.01
 48
0.01
140
0.15625
141
0.09
142
0.0
143
25.3999999999999986
144
1.0
145
0.0
146
1.0
147
0.09
 71
     1
 72
     0
 73
     1
 74
     1
 75
     0
 76
     0
 77
     0
 78
     4
170
     0
171
     2
172
     0
173
     0
174
     0
175
     0
176
     0
177
     0
178
     0
  0
ENDTAB
  0
ENDSEC
  0
SECTION
  2
BLOCKS
  0
BLOCK
  8
0
  2
$MODEL_SPACE
 70
     0
 10
0.0
 20
0.0
 30
0.0
  3
$MODEL_SPACE
  1

  0
ENDBLK
  5
21
  8
0
  0
BLOCK
 67
     1
  8
0
  2
$PAPER_SPACE
 70
     0
 10
0.0
 20
0.0
 30
0.0
  3
$PAPER_SPACE
  1

  0
ENDBLK
  5
1D
 67
     1
  8
0
  0
BLOCK
  8
0
  2
_FILLED
 70
     0
 10
0.0
 20
0.0
 30
0.0
  3
_FILLED
  1

  0
SOLID
  5
7E7B
  8
0
  6
BYBLOCK
 62
     0
 10
0.0
 20
0.0
 30
0.0
 11
-1.0
 21
0.1666666667
 31
0.0
 12
-1.0
 22
-0.1666666667
 32
0.0
 13
-1.0
 23
-0.1666666667
 33
0.0
  0
ENDBLK
  5
7E7C
  8
0
  6
BYBLOCK
 62
     0
  0
ENDSEC
  0
SECTION
  2
ENTITIES
  0
ATTDEF
  5
3930
  8
DEFPOINTS
 10
3187.1531266026408957
 20
197.2161643874408128
 30
0.0
 40
0.001
  1
P23320-LV
  3

  2
MODELNUMBER
 70
     0
1001
ACDBATTR
1070
     0
1070
     1
  0
ATTDEF
  5
3931
  8
DEFPOINTS
 10
3187.1531266026408957
 20
197.2144977207742045
 30
0.0
 40
0.001
  1
ONE NAZARE
  3

  2
TRADENAME
 70
     0
1001
ACDBATTR
1070
     0
1070
     1
  0
ATTDEF
  5
3932
  8
DEFPOINTS
 10
3187.1531266026408957
 20
197.2128310541075109
 30
0.0
 40
0.001
  1
BATHROOM SINK FAUCET
  3

  2
PRODUCT
 70
     0
1001
ACDBATTR
1070
     0
1070
     1
  0
ARC
  5
840D
  8
0
 10
3180.4584127172220178
 20
199.7045314930080053
 30
0.0
 40
0.030096251787586
 50
90.1660927142571182
 51
174.6242218553211103
  0
ARC
  5
840E
  8
0
 10
3181.1143792199900417
 20
199.3466474465948863
 30
0.0
 40
0.6832618408217233
 50
184.5315577910996012
 51
198.0024864399227909
  0
ARC
  5
840F
  8
0
 10
3203.1635692182007915
 20
200.4804179227868985
 30
0.0
 40
22.7613273279665904
 50
182.3596562700327866
 51
182.9912227541146024
  0
ARC
  5
8410
  8
0
 10
3170.8305404352081496
 20
200.0292296983934932
 30
0.0
 40
9.6033041989693757
 50
357.099493936036481
 51
358.0792300524778966
  0
ARC
  5
8411
  8
0
 10
3180.6141339552082172
 20
199.1861447699897099
 30
0.0
 40
0.157914515498989
 50
198.7136365253577992
 51
227.3632053537870945
  0
ARC
  5
8412
  8
0
 10
3180.6067364924438152
 20
199.1859682250002095
 30
0.0
 40
0.1528666630089767
 50
229.3585106574778933
 51
251.6089094166096061
  0
ARC
  5
8413
  8
0
 10
3180.6717665649698574
 20
199.3961357086045894
 30
0.0
 40
0.3728453153851037
 50
252.3157382564087072
 51
265.6148487558567126
  0
ARC
  5
8414
  8
0
 10
3180.7747073778778031
 20
200.4401175763088929
 30
0.0
 40
1.42182502622095
 50
264.6953868630216107
 51
270.364163934451426
  0
ARC
  5
8415
  8
0
 10
3180.9137582359639964
 20
216.8402402430075995
 30
0.0
 40
17.8223932053742189
 50
269.5820247380365799
 51
270.386761229714125
  0
ARC
  5
8416
  8
0
 10
3182.3840060668658225
 20
194.5150848489570876
 30
0.0
 40
4.4988711029999013
 50
87.3388456206222941
 51
89.0669277169649263
  0
ARC
  5
8417
  8
0
 10
3181.6815734486299334
 20
143.7125216717813032
 30
0.0
 40
55.3062777175593396
 50
89.1963757120462191
 51
90.0301223929424737
  0
ARC
  5
8418
  8
0
 10
3181.4530824194080196
 20
72.9553570420483055
 30
0.0
 40
126.063592426831093
 50
89.9093662268096381
 51
90.1904442423089279
  0
ARC
  5
8419
  8
0
 10
3182.5936174970911452
 20
199.7196286204774083
 30
0.0
 40
0.0149989978960529
 50
359.9984143686569951
 51
90.0038280328110858
  0
ARC
  5
841A
  8
0
 10
3182.5936134514531659
 20
199.0240896458120972
 30
0.0
 40
0.015003044257203
 50
267.2173417253516163
 51
359.9809563713349121
  0
LINE
  5
841B
  8
0
 10
3182.6086164948819714
 20
199.0240846591900095
 30
0.0
 11
3182.6086164949811064
 21
199.7196282053878065
 31
0.0
  0
LINE
  5
841C
  8
0
 10
3182.6398664949811064
 20
199.7196282053899949
 30
0.0
 11
3182.6398664949811064
 21
199.0201030195900103
 31
0.0
  0
LINE
  5
841D
  8
0
 10
3182.6086164949801969
 20
199.7046224319900034
 30
0.0
 11
3182.6398664949811064
 21
199.7046224319900034
 31
0.0
  0
LINE
  5
841E
  8
0
 10
3182.6086164948837904
 20
199.039104291989986
 30
0.0
 11
3182.6398664949811064
 21
199.039104291989986
 31
0.0
  0
ARC
  5
841F
  8
0
 10
3182.6548286526408447
 20
199.0199766059456863
 30
0.0
 40
0.0148726205456392
 50
214.9526519676992109
 51
265.1542697788938199
  0
ARC
  5
8420
  8
0
 10
3182.6545954480939145
 20
199.0200572318547927
 30
0.0
 40
0.0147290242825389
 50
179.8218858116545107
 51
215.7294518169663036
  0
ARC
  5
8421
  8
0
 10
3178.750268060397957
 20
198.7674649465664913
 30
0.0
 40
4.121140827102221
 50
359.5018243198550749
 51
0.5726963493683006
  0
ARC
  5
8422
  8
0
 10
3182.6943272684520707
 20
198.7738687001427991
 30
0.0
 40
0.2219605996783283
 50
59.1220003762372315
 51
72.5708528592486033
  0
ARC
  5
8423
  8
0
 10
3182.6406703232978543
 20
198.6078867609184897
 30
0.0
 40
0.3963964031091544
 50
72.3572900785454038
 51
82.7178262238704747
  0
ARC
  5
8424
  8
0
 10
3182.586052542636935
 20
198.2125450786678869
 30
0.0
 40
0.7954827499628664
 50
82.4250159043547939
 51
85.1309336135605434
  0
ARC
  5
8425
  8
0
 10
3182.7489651827600028
 20
198.8637410191925028
 30
0.0
 40
0.116788320900303
 50
17.7931174950319893
 51
59.4998194952228374
  0
ARC
  5
8426
  8
0
 10
3182.5368782526761606
 20
198.8140673210612874
 30
0.0
 40
0.3343685439983011
 50
359.0728496992650207
 51
14.7909533537324798
  0
ARC
  5
8427
  8
0
 10
3182.8862855216170828
 20
198.7316085014361988
 30
0.0
 40
0.0150324313011991
 50
179.9070869764483973
 51
268.3281929012331943
  0
ARC
  5
8428
  8
0
 10
3182.885846959481114
 20
198.7015824688899954
 30
0.0
 40
0.0149999999999999
 50
90.0
 51
180.0
  0
LINE
  5
8429
  8
0
 10
3182.885846959481114
 20
198.7165824688900102
 30
0.0
 11
3183.4158469594822236
 21
198.7165824688900102
 31
0.0
  0
LINE
  5
842A
  8
0
 10
3182.6548665464811165
 20
199.7346276183399993
 30
0.0
 11
3183.4013980293811983
 21
199.7346276183399993
 31
0.0
  0
LINE
  5
842B
  8
0
 10
3183.4313998742818512
 20
199.7046222479899882
 30
0.0
 11
3183.431328142581151
 21
198.7315824776900115
 31
0.0
  0
ARC
  5
842C
  8
0
 10
3183.4163137085179187
 20
198.7315966486663115
 30
0.0
 40
0.0150214329882362
 50
268.21940722484959
 51
359.9457833060026246
  0
ARC
  5
842D
  8
0
 10
3183.4158469594822236
 20
198.7015824688899954
 30
0.0
 40
0.0149999999999998
 50
0.0
 51
90.0
  0
LINE
  5
842E
  8
0
 10
3183.4308469594820963
 20
198.7015824688899954
 30
0.0
 11
3183.4308469594820963
 21
197.6125824688899968
 31
0.0
  0
LINE
  5
842F
  8
0
 10
3182.8708469594807866
 20
198.7015824688899954
 30
0.0
 11
3182.8708469594807866
 21
197.6125824688899968
 31
0.0
  0
LINE
  5
8430
  8
0
 10
3182.593616494980779
 20
199.7346276183399993
 30
0.0
 11
3180.4583254723811478
 21
199.7346276183399993
 31
0.0
  0
ARC
  5
8431
  8
0
 10
3182.6548654928628821
 20
199.7196286204894875
 30
0.0
 40
0.0149989978875207
 50
89.9959752059480138
 51
180.0015856691750002
  0
ARC
  5
8432
  8
0
 10
3183.4013950275661955
 20
199.7046227717702038
 30
0.0
 40
0.0300048467199936
 50
359.998999815162108
 51
89.9942678808993151
  0
CIRCLE
  5
8433
  8
0
 10
3182.8395624159820727
 20
199.4541252767899948
 30
0.0
 40
0.0585199250455552
  0
ARC
  5
8434
  8
0
 10
3182.8395478548291067
 20
199.4498863480770012
 30
0.0
 40
0.0627588554477783
 50
89.9867063758415355
 51
270.2730690198525281
  0
ARC
  5
8435
  8
0
 10
3182.8395210442049574
 20
199.4498862872981135
 30
0.0
 40
0.0627589281739856
 50
270.2975457725689239
 51
88.919412832585877
  0
LINE
  5
8436
  8
0
 10
3182.0358469591819812
 20
197.6125824688899968
 30
0.0
 11
3184.2658469597818112
 21
197.6125824688899968
 31
0.0
  0
LINE
  5
8437
  8
0
 10
3184.2758469595810311
 20
197.6025824688900059
 30
0.0
 11
3184.2758469595810311
 21
197.2125824688899911
 31
0.0
  0
LINE
  5
8438
  8
0
 10
3184.2758469595810311
 20
197.2125824688899911
 30
0.0
 11
3182.0258469594809867
 21
197.2125824688899911
 31
0.0
  0
LINE
  5
8439
  8
0
 10
3182.0258469594809867
 20
197.2125824688899911
 30
0.0
 11
3182.0258469594809867
 21
197.6025824688900059
 31
0.0
  0
ARC
  5
843A
  8
0
 10
3182.035846959481205
 20
197.6025824688900059
 30
0.0
 40
0.01
 50
90.0000017188812649
 51
180.0
  0
ARC
  5
843B
  8
0
 10
3184.2658469594111921
 20
197.6025824687193051
 30
0.0
 40
0.0100000001707124
 50
0.0000009781118592
 51
89.999997875987944
  0
ARC
  5
843C
  8
0
 10
3193.8432812017408651
 20
199.7045314930080053
 30
0.0
 40
0.030096251787586
 50
5.3757781446789217
 51
89.833907285742896
  0
ARC
  5
843D
  8
0
 10
3193.1873146989728411
 20
199.3466474465948863
 30
0.0
 40
0.6832618408217233
 50
341.9975135600756175
 51
355.4684422088988072
  0
ARC
  5
843E
  8
0
 10
3189.178172962771896
 20
199.6374209566766069
 30
0.0
 40
4.702921234321769
 50
355.7960505215162925
 51
358.8530704543334764
  0
ARC
  5
843F
  8
0
 10
3190.1078469541548657
 20
199.466655689430695
 30
0.0
 40
3.7730832673989791
 50
1.1637357547124669
 51
3.657540256772259
  0
ARC
  5
8440
  8
0
 10
3193.6875599637542109
 20
199.1861447699897099
 30
0.0
 40
0.157914515498989
 50
312.6367946462128771
 51
341.2863634746420871
  0
ARC
  5
8441
  8
0
 10
3193.6949574265190677
 20
199.1859682250002095
 30
0.0
 40
0.1528666630089767
 50
288.3910905833903939
 51
310.6414893425221067
  0
ARC
  5
8442
  8
0
 10
3193.6299273539930255
 20
199.3961357086045894
 30
0.0
 40
0.3728453153851037
 50
274.3851512441432874
 51
287.6842617435912075
  0
ARC
  5
8443
  8
0
 10
3193.5269865410841703
 20
200.4401175763088929
 30
0.0
 40
1.42182502622095
 50
269.635836065548574
 51
275.3046131369782756
  0
ARC
  5
8444
  8
0
 10
3193.3879356829988865
 20
216.8402402430075995
 30
0.0
 40
17.8223932053742189
 50
269.613238770285875
 51
270.4179752619634201
  0
ARC
  5
8445
  8
0
 10
3191.9176878520979699
 20
194.5150848489570876
 30
0.0
 40
4.4988711029999013
 50
90.9330722830350737
 51
92.6611543793777059
  0
ARC
  5
8446
  8
0
 10
3192.6201204703329495
 20
143.7125216717813032
 30
0.0
 40
55.3062777175593396
 50
89.9698776070575263
 51
90.8036242879537951
  0
ARC
  5
8447
  8
0
 10
3192.8486114995557728
 20
72.9553570420483055
 30
0.0
 40
126.063592426831093
 50
89.8095557576911006
 51
90.0906337731903761
  0
ARC
  5
8448
  8
0
 10
3191.7080764218721924
 20
199.7196286204774083
 30
0.0
 40
0.0149989978960532
 50
89.9961719671889142
 51
180.0015856313364964
  0
ARC
  5
8449
  8
0
 10
3191.7080804675101717
 20
199.0240896458120972
 30
0.0
 40
0.015003044257203
 50
180.0190436286650879
 51
272.7826582746483837
  0
LINE
  5
844A
  8
0
 10
3191.6930774240818209
 20
199.0240846591900095
 30
0.0
 11
3191.693077423980867
 21
199.7196282053878065
 31
0.0
  0
LINE
  5
844B
  8
0
 10
3191.6618274239817765
 20
199.7196282053899949
 30
0.0
 11
3191.6618274239817765
 21
199.0201030195900103
 31
0.0
  0
LINE
  5
844C
  8
0
 10
3191.6930774239840503
 20
199.7046224319900034
 30
0.0
 11
3191.6618274239817765
 21
199.7046224319900034
 31
0.0
  0
LINE
  5
844D
  8
0
 10
3191.6930774240790925
 20
199.039104291989986
 30
0.0
 11
3191.6618274239817765
 21
199.039104291989986
 31
0.0
  0
ARC
  5
844E
  8
0
 10
3191.6468652663220382
 20
199.0199766059456863
 30
0.0
 40
0.0148726205456392
 50
274.8457302211061801
 51
325.0473480323007038
  0
ARC
  5
844F
  8
0
 10
3191.6470984708680589
 20
199.0200572318547927
 30
0.0
 40
0.0147290242825389
 50
324.2705481830337249
 51
0.1781141883454938
  0
ARC
  5
8450
  8
0
 10
3195.5514258585640164
 20
198.7674649465664913
 30
0.0
 40
4.121140827102221
 50
179.4273036506316998
 51
180.4981756801448967
  0
ARC
  5
8451
  8
0
 10
3191.6073666505108122
 20
198.7738687001427991
 30
0.0
 40
0.2219605996783283
 50
107.4291471407513967
 51
120.877999623762804
  0
ARC
  5
8452
  8
0
 10
3191.6610235956650286
 20
198.6078867609184897
 30
0.0
 40
0.3963964031091544
 50
97.2821737761295537
 51
107.6427099214545962
  0
ARC
  5
8453
  8
0
 10
3191.7156413763259479
 20
198.2125450786678869
 30
0.0
 40
0.7954827499628664
 50
94.8690663864394566
 51
97.5749840956451919
  0
ARC
  5
8454
  8
0
 10
3191.5527287362028801
 20
198.8637410191925028
 30
0.0
 40
0.116788320900303
 50
120.5001805047771057
 51
162.2068825049680072
  0
ARC
  5
8455
  8
0
 10
3191.764815666287177
 20
198.8140673210612874
 30
0.0
 40
0.3343685439983011
 50
165.2090466462674954
 51
180.927150300735093
  0
ARC
  5
8456
  8
0
 10
3191.4154083973448905
 20
198.7316085014361988
 30
0.0
 40
0.0150324313011991
 50
271.6718070987668057
 51
0.0929130235516204
  0
ARC
  5
8457
  8
0
 10
3191.4158469594808594
 20
198.7015824688899954
 30
0.0
 40
0.0149999999999999
 50
0.0
 51
90.0
  0
LINE
  5
8458
  8
0
 10
3191.4158469594808594
 20
198.7165824688900102
 30
0.0
 11
3190.885846959481114
 21
198.7165824688900102
 31
0.0
  0
LINE
  5
8459
  8
0
 10
3191.6468273724822211
 20
199.7346276183399993
 30
0.0
 11
3190.9002958895807751
 21
199.7346276183399993
 31
0.0
  0
LINE
  5
845A
  8
0
 10
3190.8702940446819412
 20
199.7046222479899882
 30
0.0
 11
3190.8703657763808224
 21
198.7315824776900115
 31
0.0
  0
ARC
  5
845B
  8
0
 10
3190.8853802104449642
 20
198.7315966486663115
 30
0.0
 40
0.0150214329882362
 50
180.0542166939972901
 51
271.78059277515041
  0
ARC
  5
845C
  8
0
 10
3190.885846959481114
 20
198.7015824688899954
 30
0.0
 40
0.0149999999999998
 50
90.0
 51
180.0
  0
LINE
  5
845D
  8
0
 10
3190.8708469594807866
 20
198.7015824688899954
 30
0.0
 11
3190.8708469594807866
 21
197.6125824688899968
 31
0.0
  0
LINE
  5
845E
  8
0
 10
3191.4308469594811868
 20
198.7015824688899954
 30
0.0
 11
3191.4308469594811868
 21
197.6125824688899968
 31
0.0
  0
LINE
  5
845F
  8
0
 10
3191.7080774239821039
 20
199.7346276183399993
 30
0.0
 11
3193.8433684465808255
 21
199.7346276183399993
 31
0.0
  0
ARC
  5
8460
  8
0
 10
3191.6468284261000008
 20
199.7196286204894875
 30
0.0
 40
0.0149989978875215
 50
359.9984143308250282
 51
90.004024794051972
  0
ARC
  5
8461
  8
0
 10
3190.9002988913971421
 20
199.7046227717702038
 30
0.0
 40
0.0300048467199946
 50
90.0057321191006992
 51
180.001000184837892
  0
CIRCLE
  5
8462
  8
0
 10
3191.4621315029808102
 20
199.4541252767899948
 30
0.0
 40
0.0585199250455552
  0
ARC
  5
8463
  8
0
 10
3191.4621460641351405
 20
199.4498863480770012
 30
0.0
 40
0.0627588554477783
 50
269.7269309801474719
 51
90.0132936241584645
  0
ARC
  5
8464
  8
0
 10
3191.4621728747579255
 20
199.4498862872981135
 30
0.0
 40
0.0627589281739856
 50
91.0805871674141656
 51
269.7024542274310761
  0
LINE
  5
8465
  8
0
 10
3192.2658469597809017
 20
197.6125824688899968
 30
0.0
 11
3190.0358469591819812
 21
197.6125824688899968
 31
0.0
  0
LINE
  5
8466
  8
0
 10
3190.0258469963168864
 20
197.6025824688900059
 30
0.0
 11
3190.0258469963168864
 21
197.2125824688899911
 31
0.0
  0
LINE
  5
8467
  8
0
 10
3190.0258469963168864
 20
197.2125824688899911
 30
0.0
 11
3192.2758469594818962
 21
197.2125824688899911
 31
0.0
  0
LINE
  5
8468
  8
0
 10
3192.2758469594818962
 20
197.2125824688899911
 30
0.0
 11
3192.2758469594818962
 21
197.6025824688900059
 31
0.0
  0
ARC
  5
8469
  8
0
 10
3192.2658469594812232
 20
197.6025824688900059
 30
0.0
 40
0.01
 50
0.0
 51
89.9999982811187351
  0
ARC
  5
846A
  8
0
 10
3190.0358469334350957
 20
197.6025825317711906
 30
0.0
 40
0.0099999371188602
 50
89.9998524840003569
 51
180.0003602848462094
  0
ARC
  5
846B
  8
0
 10
3187.1505871011841009
 20
191.5554575181722896
 30
0.0
 40
7.0409461829386091
 50
89.9978902003854131
 51
90.4568626857222142
  0
ARC
  5
846C
  8
0
 10
3187.0992051449270548
 20
197.7181563490086091
 30
0.0
 40
0.8780364226073661
 50
90.3106290223082766
 51
90.7790720255710539
  0
ARC
  5
846D
  8
0
 10
3187.1166411329941184
 20
194.2045148240588048
 30
0.0
 40
4.3916950190381421
 50
90.3832355402047938
 51
91.0495284233531237
  0
ARC
  5
846E
  8
0
 10
3187.1108856689470485
 20
193.7634596718174009
 30
0.0
 40
4.8325905552066608
 50
90.8855204070100484
 51
91.7382968111911907
  0
ARC
  5
846F
  8
0
 10
3187.0599894764332021
 20
195.134794090824613
 30
0.0
 40
3.460355738952281
 50
91.5847359789696753
 51
92.4799831105260353
  0
ARC
  5
8470
  8
0
 10
3187.0286184777878589
 20
195.8159426097886069
 30
0.0
 40
2.778488377714504
 50
92.441461103134742
 51
93.3146933958501847
  0
ARC
  5
8471
  8
0
 10
3186.9800313525029196
 20
196.7425384631600025
 30
0.0
 40
1.8506403340939821
 50
93.4716599441338047
 51
94.6954526434833497
  0
ARC
  5
8472
  8
0
 10
3186.8627186330818404
 20
198.112990346527198
 30
0.0
 40
0.4752082791876176
 50
94.1245904609190944
 51
99.2127656595066156
  0
ARC
  5
8473
  8
0
 10
3187.1505113119687849
 20
205.6039528744173026
 30
0.0
 40
7.047206124231332
 50
269.1197180534522886
 51
270.0027241131771234
  0
ARC
  5
8474
  8
0
 10
3187.102235865953844
 20
203.0366769058942964
 30
0.0
 40
4.4795001817261282
 50
267.2108919517917798
 51
269.2326358777083897
  0
ARC
  5
8475
  8
0
 10
3186.9514883919659951
 20
199.9939461810222951
 30
0.0
 40
1.433040700194439
 50
264.3398732141629921
 51
267.3112443475087048
  0
ARC
  5
8476
  8
0
 10
3186.8403799438228816
 20
198.8731781943735086
 30
0.0
 40
0.3067787575900307
 50
259.1526426091554072
 51
264.3451906462630063
  0
ARC
  5
8477
  8
0
 10
3186.7978229124910285
 20
198.512939982611897
 30
0.0
 40
0.0700278733317407
 50
99.1913119520802411
 51
108.8588746479190945
  0
ARC
  5
8478
  8
0
 10
3186.7900979394039496
 20
198.612058572015286
 30
0.0
 40
0.0408628025662346
 50
246.2469793140583079
 51
259.492865768965089
  0
ARC
  5
8479
  8
0
 10
3186.7786095464939535
 20
198.5697556328665883
 30
0.0
 40
0.0100533942474391
 50
109.9021348749051015
 51
127.6381874535083938
  0
ARC
  5
847A
  8
0
 10
3186.775377848367043
 20
198.5784547444430075
 30
0.0
 40
0.0041768333300567
 50
217.5096520405411979
 51
245.392398994962889
  0
ARC
  5
847B
  8
0
 10
3186.7735710513738923
 20
198.5763667488375859
 30
0.0
 40
0.001741934999316
 50
129.1952566865589063
 51
171.255875442095288
  0
ARC
  5
847C
  8
0
 10
3186.7730810713328538
 20
198.5766074903881133
 30
0.0
 40
0.001231943814627
 50
178.8804265529126098
 51
214.3995240816547891
  0
ARC
  5
847D
  8
0
 10
3187.0880768692618403
 20
198.5873837402124025
 30
0.0
 40
0.0004359792634923
 50
191.9739473661570912
 51
248.234886302787686
  0
ARC
  5
847E
  8
0
 10
3187.0927082232469729
 20
198.5890029981918019
 30
0.0
 40
0.00533900031162
 50
187.0031842169132119
 51
198.6768477514602864
  0
ARC
  5
847F
  8
0
 10
3187.1061848460972215
 20
198.590677688450711
 30
0.0
 40
0.0189192745473317
 50
179.4247796856892023
 51
187.0609227482717927
  0
LINE
  5
8480
  8
0
 10
3187.0872665249908096
 20
198.5908676250975873
 30
0.0
 11
3187.0872665249908096
 21
198.5961116034374072
 31
0.0
  0
ARC
  5
8481
  8
0
 10
3187.1504545892948954
 20
204.9419476017775992
 30
0.0
 40
6.3552570892160798
 50
269.6789142758967728
 51
270.0035320927386806
  0
ARC
  5
8482
  8
0
 10
3187.2063066637770135
 20
213.3185473560461958
 30
0.0
 40
14.7320464493254892
 50
269.547166878033579
 51
269.6442656413776149
  0
ARC
  5
8483
  8
0
 10
3187.118826357972921
 20
201.8766489670319118
 30
0.0
 40
3.289815349902113
 50
269.4616401353624724
 51
269.4957594699121728
  0
ARC
  5
8484
  8
0
 10
3187.0741959864631099
 20
198.5927795032432073
 30
0.0
 40
0.0202490088284835
 50
354.1441154086833194
 51
0.1807868194841203
  0
ARC
  5
8485
  8
0
 10
3187.0936291711550439
 20
198.5889999973082922
 30
0.0
 40
0.000319814839605
 50
294.3903492060122744
 51
332.5848667244096077
  0
ARC
  5
8486
  8
0
 10
3187.0852210605789878
 20
198.5915792007106973
 30
0.0
 40
0.0091592657103816
 50
345.510172831344903
 51
354.5769240272653064
  0
ARC
  5
8487
  8
0
 10
3187.0921996631082038
 20
198.5897990540522073
 30
0.0
 40
0.0019573611222478
 50
331.0882196619245974
 51
344.8492260200198984
  0
ARC
  5
8488
  8
0
 10
3187.150844234105989
 20
204.8216083123425051
 30
0.0
 40
6.2331609746053971
 50
269.4752806109277117
 51
270.0000196295766273
  0
LINE
  5
8489
  8
0
 10
3187.0937612390212053
 20
198.588708724909992
 30
0.0
 11
3187.0879152071061071
 21
198.5869788411372951
 31
0.0
  0
LINE
  5
848A
  8
0
 10
3187.0944448944910619
 20
198.5928433953459091
 30
0.0
 11
3187.0944448944910619
 21
198.5961798677373906
 31
0.0
  0
ARC
  5
848B
  8
0
 10
3187.1508463695909086
 20
199.7865820735374029
 30
0.0
 40
0.4400000000000066
 50
90.0
 51
134.892613312882105
  0
ARC
  5
848C
  8
0
 10
3187.1508457797008305
 20
199.7865824688900034
 30
0.0
 40
0.4399993035872586
 50
134.8925952302666929
 51
180.0000514819737134
  0
LINE
  5
848D
  8
0
 10
3186.7108464761140567
 20
199.7865820735374029
 30
0.0
 11
3186.7108464761140567
 21
197.6065824688899966
 31
0.0
  0
ARC
  5
848E
  8
0
 10
3187.1448526850208509
 20
191.1954108997325079
 30
0.0
 40
7.4141877125749556
 50
89.9536816600345475
 51
91.6626142967891155
  0
ARC
  5
848F
  8
0
 10
3187.3416134150647849
 20
225.5420289885516922
 30
0.0
 40
26.9886389046699513
 50
269.2574592380381091
 51
269.5950059714780878
  0
ARC
  5
8490
  8
0
 10
3186.9958270478628037
 20
195.8309750718127873
 30
0.0
 40
2.7762889493694991
 50
91.3640591204672177
 51
94.7413778787478975
  0
ARC
  5
8491
  8
0
 10
3186.7969366064130554
 20
198.2136607630511946
 30
0.0
 40
0.3853190520868824
 50
94.553837109630166
 51
101.5778088895887947
  0
ARC
  5
8492
  8
0
 10
3187.0940123219497764
 20
203.6799984699302968
 30
0.0
 40
5.1253601273619367
 50
267.372362087184797
 51
268.857935179745084
  0
ARC
  5
8493
  8
0
 10
3186.9097327319627766
 20
199.9090290374471977
 30
0.0
 40
1.349953840736396
 50
262.9634806849347797
 51
267.8479927630311863
  0
ARC
  5
8494
  8
0
 10
3186.7456078970981252
 20
198.6278124626522867
 30
0.0
 40
0.0585830580867203
 50
237.7076847863268938
 51
268.780169065081509
  0
ARC
  5
8495
  8
0
 10
3186.7225697776539164
 20
198.5866101525353997
 30
0.0
 40
0.0117233040567029
 50
180.0375377004401969
 51
225.2096949935356065
  0
ARC
  5
8496
  8
0
 10
3186.7250429715600148
 20
198.5657198107494139
 30
0.0
 40
0.0259953754149042
 50
102.0779351493575007
 51
123.1009733713663934
  0
LINE
  5
8497
  8
0
 10
3186.0358469591819812
 20
197.6065824688899966
 30
0.0
 11
3188.2658469597818112
 21
197.6065824688899966
 31
0.0
  0
LINE
  5
8498
  8
0
 10
3188.2758469594818962
 20
197.5965824688900057
 30
0.0
 11
3188.2758469594818962
 21
197.2125824688899911
 31
0.0
  0
LINE
  5
8499
  8
0
 10
3188.2758469594818962
 20
197.2125824688899911
 30
0.0
 11
3186.0258469594809867
 21
197.2125824688899911
 31
0.0
  0
LINE
  5
849A
  8
0
 10
3186.0258469594809867
 20
197.2125824688899911
 30
0.0
 11
3186.0258469594809867
 21
197.5965824688900057
 31
0.0
  0
ARC
  5
849B
  8
0
 10
3186.0358469594821145
 20
197.5965824688900057
 30
0.0
 40
0.01
 50
90.0000017188812649
 51
180.0
  0
ARC
  5
849C
  8
0
 10
3188.2658469594821327
 20
197.5965824688900057
 30
0.0
 40
0.01
 50
0.0
 51
89.9999982811187351
  0
ARC
  5
849D
  8
0
 10
3187.151105637998171
 20
191.5554575181722896
 30
0.0
 40
7.0409461829386091
 50
89.5431373142778142
 51
90.0021097996146011
  0
ARC
  5
849E
  8
0
 10
3187.2024875942561266
 20
197.7181563490086091
 30
0.0
 40
0.8780364226073661
 50
89.2209279744289603
 51
89.689370977691766
  0
ARC
  5
849F
  8
0
 10
3187.185051606189063
 20
194.2045148240588048
 30
0.0
 40
4.3916950190381421
 50
88.9504715766468763
 51
89.6167644597952204
  0
ARC
  5
84A0
  8
0
 10
3187.1908070702361329
 20
193.7634596718174009
 30
0.0
 40
4.8325905552066608
 50
88.2617031888088093
 51
89.1144795929899374
  0
ARC
  5
84A1
  8
0
 10
3187.2417032627490698
 20
195.134794090824613
 30
0.0
 40
3.460355738952281
 50
87.5200168894739932
 51
88.4152640210303247
  0
ARC
  5
84A2
  8
0
 10
3187.2730742613948678
 20
195.8159426097886069
 30
0.0
 40
2.778488377714504
 50
86.685306604149801
 51
87.5585388968652438
  0
ARC
  5
84A3
  8
0
 10
3187.3216613866788975
 20
196.7425384631600025
 30
0.0
 40
1.8506403340939821
 50
85.3045473565166361
 51
86.5283400558662095
  0
ARC
  5
84A4
  8
0
 10
3187.4389741061008863
 20
198.112990346527198
 30
0.0
 40
0.4752082791876176
 50
80.7872343404933559
 51
85.8754095390809056
  0
ARC
  5
84A5
  8
0
 10
3187.1511814272139418
 20
205.6039528744173026
 30
0.0
 40
7.047206124231332
 50
269.9972758868228766
 51
270.8802819465477114
  0
ARC
  5
84A6
  8
0
 10
3187.1994568732288826
 20
203.0366769058942964
 30
0.0
 40
4.4795001817261282
 50
270.7673641222914966
 51
272.7891080482081065
  0
ARC
  5
84A7
  8
0
 10
3187.3502043472171863
 20
199.9939461810222951
 30
0.0
 40
1.433040700194439
 50
272.6887556524914089
 51
275.6601267858370079
  0
ARC
  5
84A8
  8
0
 10
3187.461312795359845
 20
198.8731781943735086
 30
0.0
 40
0.3067787575900307
 50
275.65480935373688
 51
280.8473573908445928
  0
ARC
  5
84A9
  8
0
 10
3187.5038698266907886
 20
198.512939982611897
 30
0.0
 40
0.0700278733317407
 50
71.1411253520809055
 51
80.8086880479197447
  0
ARC
  5
84AA
  8
0
 10
3187.5115947997778676
 20
198.612058572015286
 30
0.0
 40
0.0408628025662346
 50
280.5071342310350246
 51
293.7530206859415784
  0
ARC
  5
84AB
  8
0
 10
3187.5230831926887731
 20
198.5697556328665883
 30
0.0
 40
0.0100533942474391
 50
52.3618125464915707
 51
70.0978651250949127
  0
ARC
  5
84AC
  8
0
 10
3187.5263148908161384
 20
198.5784547444430075
 30
0.0
 40
0.0041768333300567
 50
294.6076010050369973
 51
322.4903479594586884
  0
ARC
  5
84AD
  8
0
 10
3187.5281216878088344
 20
198.5763667488375859
 30
0.0
 40
0.001741934999316
 50
8.7441245579046996
 51
50.8047433134411008
  0
ARC
  5
84AE
  8
0
 10
3187.5286116678498729
 20
198.5766074903881133
 30
0.0
 40
0.001231943814627
 50
325.6004759183451256
 51
1.1195734470873591
  0
ARC
  5
84AF
  8
0
 10
3187.2136158699208863
 20
198.5873837402124025
 30
0.0
 40
0.0004359792634923
 50
291.765113697212314
 51
348.0260526338428804
  0
ARC
  5
84B0
  8
0
 10
3187.2089845159348442
 20
198.5890029981918019
 30
0.0
 40
0.00533900031162
 50
341.3231522485397136
 51
352.9968157830867881
  0
ARC
  5
84B1
  8
0
 10
3187.1955078930850505
 20
198.590677688450711
 30
0.0
 40
0.0189192745473317
 50
352.9390772517281221
 51
0.5752203143107733
  0
LINE
  5
84B2
  8
0
 10
3187.2144262141910076
 20
198.5908676250975873
 30
0.0
 11
3187.2144262141910076
 21
198.5961116034374072
 31
0.0
  0
ARC
  5
84B3
  8
0
 10
3187.1512381498869217
 20
204.9419476017775992
 30
0.0
 40
6.3552570892160798
 50
269.9964679072613194
 51
270.3210857241032272
  0
ARC
  5
84B4
  8
0
 10
3187.0953860754061679
 20
213.3185473560461958
 30
0.0
 40
14.7320464493254892
 50
270.3557343586223851
 51
270.4528331219663073
  0
ARC
  5
84B5
  8
0
 10
3187.1828663812088962
 20
201.8766489670319118
 30
0.0
 40
3.289815349902113
 50
270.5042405300878272
 51
270.5383598646375276
  0
ARC
  5
84B6
  8
0
 10
3187.227496752719162
 20
198.5927795032432073
 30
0.0
 40
0.0202490088284835
 50
179.8192131805159022
 51
185.855884591315089
  0
ARC
  5
84B7
  8
0
 10
3187.2080635680267733
 20
198.5889999973082922
 30
0.0
 40
0.000319814839605
 50
207.4151332755905059
 51
245.6096507939876972
  0
ARC
  5
84B8
  8
0
 10
3187.2164716786041936
 20
198.5915792007106973
 30
0.0
 40
0.0091592657103816
 50
185.4230759727346083
 51
194.4898271686533917
  0
ARC
  5
84B9
  8
0
 10
3187.2094930760740681
 20
198.5897990540522073
 30
0.0
 40
0.0019573611222478
 50
195.1507739799801016
 51
208.9117803380752889
  0
ARC
  5
84BA
  8
0
 10
3187.1508485050771924
 20
204.8216083123425051
 30
0.0
 40
6.2331609746053971
 50
269.9999803704233727
 51
270.5247193890722883
  0
LINE
  5
84BB
  8
0
 10
3187.2079315001610667
 20
198.588708724909992
 30
0.0
 11
3187.2137775320761648
 21
198.5869788411372951
 31
0.0
  0
LINE
  5
84BC
  8
0
 10
3187.20724784469121
 20
198.5928433953459091
 30
0.0
 11
3187.20724784469121
 21
198.5961798677373906
 31
0.0
  0
ARC
  5
84BD
  8
0
 10
3187.1508463695909086
 20
199.7865820735374029
 30
0.0
 40
0.4400000000000066
 50
45.1073866871178808
 51
90.0
  0
ARC
  5
84BE
  8
0
 10
3187.1508469594818962
 20
199.7865824688900034
 30
0.0
 40
0.4399993035872222
 50
359.9999485180246097
 51
45.1074047697344582
  0
LINE
  5
84BF
  8
0
 10
3187.5908462630691247
 20
199.7865820735374029
 30
0.0
 11
3187.5908462630691247
 21
197.6065824688899966
 31
0.0
  0
ARC
  5
84C0
  8
0
 10
3187.1568400567489334
 20
191.1954112890051931
 30
0.0
 40
7.4141873233044384
 50
88.3373851564488746
 51
90.0463183623989067
  0
ARC
  5
84C1
  8
0
 10
3186.570038032892171
 20
264.4898203280774283
 30
0.0
 40
65.9383140587022041
 50
270.504688316833608
 51
270.6428464736608248
  0
ARC
  5
84C2
  8
0
 10
3187.3058657233950726
 20
195.8309755426652998
 30
0.0
 40
2.7762884774769661
 50
85.2586219777444683
 51
88.635940029530758
  0
ARC
  5
84C3
  8
0
 10
3187.5047561327692165
 20
198.2136607630511946
 30
0.0
 40
0.3853190520868824
 50
78.4221911104111626
 51
85.446162890369834
  0
ARC
  5
84C4
  8
0
 10
3187.2076804172329503
 20
203.6799984699302968
 30
0.0
 40
5.1253601273619367
 50
271.142064820254916
 51
272.6276379128153167
  0
ARC
  5
84C5
  8
0
 10
3187.3919600072199501
 20
199.9090290374471977
 30
0.0
 40
1.349953840736396
 50
272.1520072369688137
 51
277.0365193150651066
  0
ARC
  5
84C6
  8
0
 10
3187.5560848420841467
 20
198.6278124626522867
 30
0.0
 40
0.0585830580867203
 50
271.219830934918491
 51
302.2923152136730778
  0
ARC
  5
84C7
  8
0
 10
3187.5791229615279008
 20
198.586610152535286
 30
0.0
 40
0.0117233040566633
 50
314.7903050064242052
 51
359.9624622996689141
  0
ARC
  5
84C8
  8
0
 10
3187.5766497676231666
 20
198.5657198107494139
 30
0.0
 40
0.0259953754149014
 50
56.8990266286589375
 51
77.9220648506424425
  0
ENDSEC
  0
EOF
