  0
SECTION
  2
HEADER
  9
$ACADVER
  1
AC1009
  9
$INSBASE
 10
3944.2688420262711588
 20
355.434156571737617
 30
0.0
  9
$EXTMIN
 10
3939.4400310026380794
 20
351.9487628717375856
 30
0.0
  9
$EXTMAX
 10
3944.2797755287001564
 20
357.7741565717374783
 30
0.0
  9
$LIMMIN
 10
0.0
 20
0.0
  9
$LIMMAX
 10
11.6929133858000007
 20
8.2677165353999982
  9
$ORTHOMODE
 70
     0
  9
$REGENMODE
 70
     1
  9
$FILLMODE
 70
     1
  9
$QTEXTMODE
 70
     0
  9
$MIRRTEXT
 70
     0
  9
$DRAGMODE
 70
     2
  9
$LTSCALE
 40
0.6431102362
  9
$OSMODE
 70
  4095
  9
$ATTMODE
 70
     1
  9
$TEXTSIZE
 40
0.2
  9
$TRACEWID
 40
0.05
  9
$TEXTSTYLE
  7
STANDARD
  9
$CLAYER
  8
0
  9
$CELTYPE
  6
BYLAYER
  9
$CECOLOR
 62
   256
  9
$DIMSCALE
 40
1.0
  9
$DIMASZ
 40
0.1875
  9
$DIMEXO
 40
0.0625
  9
$DIMDLI
 40
0.4443307087
  9
$DIMRND
 40
0.0
  9
$DIMDLE
 40
0.0
  9
$DIMEXE
 40
0.125
  9
$DIMTP
 40
0.01
  9
$DIMTM
 40
0.01
  9
$DIMTXT
 40
2.0
  9
$DIMCEN
 40
0.1052362205
  9
$DIMTSZ
 40
0.0
  9
$DIMTOL
 70
     1
  9
$DIMLIM
 70
     0
  9
$DIMTIH
 70
     1
  9
$DIMTOH
 70
     1
  9
$DIMSE1
 70
     0
  9
$DIMSE2
 70
     0
  9
$DIMTAD
 70
     0
  9
$DIMZIN
 70
     0
  9
$DIMBLK
  1

  9
$DIMASO
 70
     1
  9
$DIMSHO
 70
     1
  9
$DIMPOST
  1
\X
  9
$DIMAPOST
  1

  9
$DIMALT
 70
     1
  9
$DIMALTD
 70
     2
  9
$DIMALTF
 40
25.3999999999999986
  9
$DIMLFAC
 40
1.0
  9
$DIMTOFL
 70
     0
  9
$DIMTVP
 40
0.0
  9
$DIMTIX
 70
     0
  9
$DIMSOXD
 70
     0
  9
$DIMSAH
 70
     0
  9
$DIMBLK1
  1

  9
$DIMBLK2
  1

  9
$DIMSTYLE
  2
STANDARD
  9
$DIMCLRD
 70
     0
  9
$DIMCLRE
 70
     0
  9
$DIMCLRT
 70
     0
  9
$DIMTFAC
 40
1.0
  9
$DIMGAP
 40
0.09
  9
$LUNITS
 70
     2
  9
$LUPREC
 70
     4
  9
$SKETCHINC
 40
0.1
  9
$FILLETRAD
 40
0.0
  9
$AUNITS
 70
     0
  9
$AUPREC
 70
     0
  9
$MENU
  1
.
  9
$ELEVATION
 40
0.0
  9
$PELEVATION
 40
0.0
  9
$THICKNESS
 40
0.0
  9
$LIMCHECK
 70
     0
  9
$BLIPMODE
 70
     0
  9
$CHAMFERA
 40
0.0
  9
$CHAMFERB
 40
0.0
  9
$SKPOLY
 70
     0
  9
$TDCREATE
 40
2458060.468368056230247
  9
$TDUPDATE
 40
2459569.8015162041410804
  9
$TDINDWG
 40
0.4936297454
  9
$TDUSRTIMER
 40
0.4936297454
  9
$USRTIMER
 70
     1
  9
$ANGBASE
 50
0.0
  9
$ANGDIR
 70
     0
  9
$PDMODE
 70
     0
  9
$PDSIZE
 40
0.3125
  9
$PLINEWID
 40
0.0
  9
$COORDS
 70
     1
  9
$SPLFRAME
 70
     0
  9
$SPLINETYPE
 70
     6
  9
$SPLINESEGS
 70
     8
  9
$ATTDIA
 70
     1
  9
$ATTREQ
 70
     1
  9
$HANDLING
 70
     1
  9
$HANDSEED
  5
10478
  9
$SURFTAB1
 70
     6
  9
$SURFTAB2
 70
     6
  9
$SURFTYPE
 70
     6
  9
$SURFU
 70
     6
  9
$SURFV
 70
     6
  9
$UCSNAME
  2

  9
$UCSORG
 10
0.0
 20
0.0
 30
0.0
  9
$UCSXDIR
 10
1.0
 20
0.0
 30
0.0
  9
$UCSYDIR
 10
0.0
 20
1.0
 30
0.0
  9
$PUCSNAME
  2

  9
$PUCSORG
 10
0.0
 20
0.0
 30
0.0
  9
$PUCSXDIR
 10
1.0
 20
0.0
 30
0.0
  9
$PUCSYDIR
 10
0.0
 20
1.0
 30
0.0
  9
$USERI1
 70
     0
  9
$USERI2
 70
     0
  9
$USERI3
 70
     0
  9
$USERI4
 70
     0
  9
$USERI5
 70
     0
  9
$USERR1
 40
0.0
  9
$USERR2
 40
0.0
  9
$USERR3
 40
0.0
  9
$USERR4
 40
0.0
  9
$USERR5
 40
0.0
  9
$WORLDVIEW
 70
     1
  9
$SHADEDGE
 70
     3
  9
$SHADEDIF
 70
    70
  9
$TILEMODE
 70
     1
  9
$MAXACTVP
 70
    64
  9
$PLIMCHECK
 70
     0
  9
$PEXTMIN
 10
1.0000000000000000E+20
 20
1.0000000000000000E+20
 30
1.0000000000000000E+20
  9
$PEXTMAX
 10
-1.0000000000000000E+20
 20
-1.0000000000000000E+20
 30
-1.0000000000000000E+20
  9
$PLIMMIN
 10
0.0
 20
0.0
  9
$PLIMMAX
 10
12.0
 20
9.0
  9
$UNITMODE
 70
     0
  9
$VISRETAIN
 70
     1
  9
$PLINEGEN
 70
     0
  9
$PSLTSCALE
 70
     1
  0
ENDSEC
  0
SECTION
  2
TABLES
  0
TABLE
  2
VPORT
 70
     1
  0
VPORT
  2
*ACTIVE
 70
     0
 10
0.0
 20
0.0
 11
1.0
 21
1.0
 12
-3.7188320858936099
 22
0.0978065179014691
 13
0.0
 23
0.0
 14
1.0
 24
1.0
 15
0.0
 25
0.0
 16
0.0
 26
0.0
 36
47.9409617019099628
 17
3945.5787353515629547
 27
354.8680572509766193
 37
0.0
 40
5.8693144846562877
 41
2.344785276073619
 42
50.0
 43
0.0
 44
0.0
 50
0.0
 51
0.0
 71
     0
 72
   100
 73
     1
 74
     1
 75
     0
 76
     0
 77
     0
 78
     0
  0
ENDTAB
  0
TABLE
  2
LTYPE
 70
     2
  0
LTYPE
  2
CONTINUOUS
 70
     0
  3
Solid line
 72
    65
 73
     0
 40
0.0
  0
LTYPE
  2
PHANTOM2
 70
     0
  3
___ _ _ ___ _ _ ___ _ _ ___ _ _
 72
    65
 73
     6
 40
1.25
 49
0.625
 49
-0.125
 49
0.125
 49
-0.125
 49
0.125
 49
-0.125
  0
ENDTAB
  0
TABLE
  2
LAYER
 70
     2
  0
LAYER
  2
0
 70
     0
 62
   255
  6
CONTINUOUS
  0
LAYER
  2
DEFPOINTS
 70
     0
 62
     7
  6
CONTINUOUS
  0
ENDTAB
  0
TABLE
  2
STYLE
 70
     1
  0
STYLE
  2
STANDARD
 70
     0
 40
0.0
 41
0.8
 50
0.0
 71
     0
 42
0.2
  3
txt
  4

  0
ENDTAB
  0
TABLE
  2
VIEW
 70
     0
  0
ENDTAB
  0
TABLE
  2
UCS
 70
     0
  0
ENDTAB
  0
TABLE
  2
APPID
 70
    10
  0
APPID
  2
ACAD
 70
     0
  0
APPID
  2
ACAD_MLEADERVER
 70
     0
  0
APPID
  2
ACAD_EXEMPT_FROM_CAD_STANDARDS
 70
     0
  0
APPID
  2
ACAD_NAV_VCDISPLAY
 70
     0
  0
APPID
  2
ACAECLAYERSTANDARD
 70
     0
  0
APPID
  2
ACCMTRANSPARENCY
 70
     0
  0
APPID
  2
ACAD_DSTYLE_DIMJAG
 70
     0
  0
APPID
  2
ACAD_DSTYLE_DIMTALN
 70
     0
  0
APPID
  2
ACDBATTR
 70
     0
  0
APPID
  2
ACADANNOTATIVE
 70
     0
  0
ENDTAB
  0
TABLE
  2
DIMSTYLE
 70
     1
  0
DIMSTYLE
  2
STANDARD
 70
     0
  3

  4

  5

  6

  7

 40
1.0
 41
0.1875
 42
0.0625
 43
0.38
 44
0.125
 45
0.0
 46
0.0
 47
0.01
 48
0.01
140
0.15625
141
0.09
142
0.0
143
25.3999999999999986
144
1.0
145
0.0
146
1.0
147
0.09
 71
     1
 72
     0
 73
     1
 74
     1
 75
     0
 76
     0
 77
     0
 78
     4
170
     0
171
     2
172
     0
173
     0
174
     0
175
     0
176
     0
177
     0
178
     0
  0
ENDTAB
  0
ENDSEC
  0
SECTION
  2
BLOCKS
  0
BLOCK
  8
0
  2
$MODEL_SPACE
 70
     0
 10
0.0
 20
0.0
 30
0.0
  3
$MODEL_SPACE
  1

  0
ENDBLK
  5
21
  8
0
  0
BLOCK
 67
     1
  8
0
  2
$PAPER_SPACE
 70
     0
 10
0.0
 20
0.0
 30
0.0
  3
$PAPER_SPACE
  1

  0
ENDBLK
  5
1D
 67
     1
  8
0
  0
ENDSEC
  0
SECTION
  2
ENTITIES
  0
ATTDEF
  5
3930
  8
DEFPOINTS
 10
3944.2691088620308619
 20
355.4379176019036208
 30
0.0
 40
0.001
  1
P23181-2MB
  3

  2
MODELNUMBER
 70
     0
1001
ACDBATTR
1070
     0
1070
     1
  0
ATTDEF
  5
3931
  8
DEFPOINTS
 10
3944.2691088620308619
 20
355.4362509352368988
 30
0.0
 40
0.001
  1
JUXTAPOSE
  3

  2
TRADENAME
 70
     0
1001
ACDBATTR
1070
     0
1070
     1
  0
ATTDEF
  5
3932
  8
DEFPOINTS
 10
3944.2691088620308619
 20
355.4345842685701768
 30
0.0
 40
0.001
  1
BATHROOM SINK FAUCET
  3

  2
PRODUCT
 70
     0
1001
ACDBATTR
1070
     0
1070
     1
  0
LINE
  5
FDC6
  8
0
 10
3944.2588420262709406
 20
356.8041565717376216
 30
0.0
 11
3944.0263647311721797
 21
356.8041565717376216
 31
0.0
  0
LINE
  5
FDC7
  8
0
 10
3944.2588420262709406
 20
354.0641565717374988
 30
0.0
 11
3944.0263647311721797
 21
354.0641565717374988
 31
0.0
  0
LINE
  5
FDC8
  8
0
 10
3943.7388420262718682
 20
356.2693455472376058
 30
0.0
 11
3943.7388420262718682
 21
354.5989675961375838
 31
0.0
  0
LINE
  5
FDC9
  8
0
 10
3944.2688420262711588
 20
354.0741565717376034
 30
0.0
 11
3944.2688420262711588
 21
356.7941565717375738
 31
0.0
  0
ARC
  5
FDCA
  8
0
 10
3944.0263647311721797
 20
356.7941565717375738
 30
0.0
 40
0.01
 50
90.0
 51
177.0721631877007098
  0
ARC
  5
FDCB
  8
0
 10
3944.2588420262709406
 20
356.7941565717375738
 30
0.0
 40
0.01
 50
0.0
 51
90.0
  0
ARC
  5
FDCC
  8
0
 10
3943.7488420307108754
 20
356.2693561270716032
 30
0.0
 40
0.0100000100364995
 50
92.3049338461327267
 51
180.0606179345352018
  0
ARC
  5
FDCD
  8
0
 10
3944.2588420262709406
 20
354.0741565717376034
 30
0.0
 40
0.01
 50
270.0
 51
0.0
  0
ARC
  5
FDCE
  8
0
 10
3944.0263647311721797
 20
354.0741565717376034
 30
0.0
 40
0.01
 50
182.9278368122992902
 51
270.0
  0
ARC
  5
FDCF
  8
0
 10
3943.7428085599071892
 20
356.4770507955503831
 30
0.0
 40
0.1977829326552035
 50
271.6315506725313753
 51
321.2410754111987217
  0
ARC
  5
FDD0
  8
0
 10
3943.4892655232320067
 20
356.6550918388099944
 30
0.0
 40
0.5073444265564451
 50
323.4884759553484059
 51
350.5844031092536852
  0
ARC
  5
FDD1
  8
0
 10
3942.5543500454818968
 20
356.8565376436567931
 30
0.0
 40
1.463336271238894
 50
348.7914422110422947
 51
357.5767951668173055
  0
LINE
  5
FDD2
  8
0
 10
3942.9879179437530183
 20
354.8541565717375761
 30
0.0
 11
3942.3044010026710566
 21
354.8541565717375761
 31
0.0
  0
ARC
  5
FDD3
  8
0
 10
3943.7488420307108754
 20
354.5989570163034728
 30
0.0
 40
0.0100000100364995
 50
179.9393820654615013
 51
267.6950661538672875
  0
ARC
  5
FDD4
  8
0
 10
3943.7428085599071892
 20
354.3912623478246928
 30
0.0
 40
0.1977829326552035
 50
38.7589245888013494
 51
88.3684493274686531
  0
ARC
  5
FDD5
  8
0
 10
3943.4892655232320067
 20
354.2132213045650815
 30
0.0
 40
0.5073444265564451
 50
9.4155968907463343
 51
36.5115240446516225
  0
ARC
  5
FDD6
  8
0
 10
3942.5543500454818968
 20
354.0117754997182828
 30
0.0
 40
1.463336271238894
 50
2.4232048331826612
 51
11.20855778895762
  0
LINE
  5
FDD7
  8
0
 10
3944.0163777845809818
 20
356.794667353296802
 30
0.0
 11
3944.0163777845809818
 21
354.0736457901783183
 31
0.0
  0
LINE
  5
FDD8
  8
0
 10
3943.7388420262718682
 20
356.014156572302511
 30
0.0
 11
3942.2650310028598142
 21
356.0141565720173276
 31
0.0
  0
LINE
  5
FDD9
  8
0
 10
3941.5150310024828286
 20
356.0141565718720926
 30
0.0
 11
3940.8200310026709303
 21
356.0141565717374874
 31
0.0
  0
ARC
  5
FDDA
  8
0
 10
3940.8200310026709303
 20
355.9941565707359814
 30
0.0
 40
0.0200000010015948
 50
90.0
 51
180.0181329631238043
  0
LINE
  5
FDDB
  8
0
 10
3940.8000310026709485
 20
355.9941502411376177
 30
0.0
 11
3940.8000310026709485
 21
354.8741629023376163
 31
0.0
  0
ARC
  5
FDDC
  8
0
 10
3940.780042960890114
 20
355.9941619733897937
 30
0.0
 40
0.0199880452248696
 50
359.9663694689215845
 51
90.0342782635288046
  0
LINE
  5
FDDD
  8
0
 10
3940.7800310026709667
 20
356.0141500150376146
 30
0.0
 11
3940.2700310930590604
 21
356.013846306824405
 31
0.0
  0
ARC
  5
FDDE
  8
0
 10
3940.2700422582051942
 20
355.9938335019394913
 30
0.0
 40
0.0200128079994229
 50
90.0319653168590577
 51
179.2863299552381875
  0
LINE
  5
FDDF
  8
0
 10
3940.2500310026712214
 20
355.9940827728698878
 30
0.0
 11
3940.2500310026712214
 21
354.8742303706052894
 31
0.0
  0
LINE
  5
FDE0
  8
0
 10
3940.2500310026712214
 20
355.9185565717374971
 30
0.0
 11
3940.2400310026719126
 21
355.9185565717374971
 31
0.0
  0
LINE
  5
FDE1
  8
0
 10
3940.2400310026719126
 20
354.884156571737492
 30
0.0
 11
3940.2400310026719126
 21
355.9841565717376284
 31
0.0
  0
ARC
  5
FDE2
  8
0
 10
3940.210031002670803
 20
355.9841565717376284
 30
0.0
 40
0.0300000000000011
 50
359.9999999999968168
 51
90.0
  0
LINE
  5
FDE3
  8
0
 10
3940.210031002670803
 20
356.0141565717374874
 30
0.0
 11
3939.4700310026719308
 21
356.0141565717376011
 31
0.0
  0
ARC
  5
FDE4
  8
0
 10
3939.4700310026719308
 20
355.9841565717048866
 30
0.0
 40
0.0300000000327097
 50
90.0
 51
180.0026756505143908
  0
LINE
  5
FDE5
  8
0
 10
3939.4400310026708212
 20
355.9841551707374947
 30
0.0
 11
3939.4400310026708212
 21
352.8001565717374888
 31
0.0
  0
LINE
  5
FDE6
  8
0
 10
3941.4756610026720409
 20
354.8541565717375761
 30
0.0
 11
3940.8200310026709303
 21
354.8541565717375761
 31
0.0
  0
ARC
  5
FDE7
  8
0
 10
3940.8200310026709303
 20
354.8741565727390821
 30
0.0
 40
0.0200000010015948
 50
179.9818670368761957
 51
270.0
  0
ARC
  5
FDE8
  8
0
 10
3940.780042960890114
 20
354.8741511700853266
 30
0.0
 40
0.0199880452248696
 50
269.9657217364712096
 51
0.0336305310783973
  0
LINE
  5
FDE9
  8
0
 10
3940.7800310026709667
 20
354.8541631284376194
 30
0.0
 11
3940.2700310930590604
 21
354.8544668366507153
 31
0.0
  0
ARC
  5
FDEA
  8
0
 10
3940.2700422582051942
 20
354.8744796415355722
 30
0.0
 40
0.0200128079994246
 50
180.7136700447649957
 51
269.9680346831408997
  0
LINE
  5
FDEB
  8
0
 10
3940.2500310026712214
 20
354.9497565717376233
 30
0.0
 11
3940.2400310026719126
 21
354.9497565717376233
 31
0.0
  0
ARC
  5
FDEC
  8
0
 10
3940.210031002670803
 20
354.884156571737492
 30
0.0
 40
0.0300000000000011
 50
270.0
 51
0.0000000000032569
  0
LINE
  5
FDED
  8
0
 10
3940.210031002670803
 20
354.8541565717375761
 30
0.0
 11
3939.6900310026721854
 21
354.8541565717375192
 31
0.0
  0
ARC
  5
FDEE
  8
0
 10
3939.4700310026719308
 20
352.8001565717374888
 30
0.0
 40
0.0299999999999998
 50
180.0
 51
270.0
  0
LINE
  5
FDEF
  8
0
 10
3939.4700310026719308
 20
352.7701565717375729
 30
0.0
 11
3939.6600310026719853
 21
352.7701565717375729
 31
0.0
  0
ARC
  5
FDF0
  8
0
 10
3939.6600310026719853
 20
352.8001565717374888
 30
0.0
 40
0.0299999999999998
 50
270.0
 51
0.0
  0
LINE
  5
FDF1
  8
0
 10
3939.6900310026721854
 20
352.8001565717374888
 30
0.0
 11
3939.6900310026721854
 21
354.8541565717375192
 31
0.0
  0
ARC
  5
FDF2
  8
0
 10
3941.4756726558639457
 20
354.8147982249298025
 30
0.0
 40
0.0393583485328868
 50
359.9830359055147255
 51
90.0169640944820486
  0
LINE
  5
FDF3
  8
0
 10
3942.265031002671094
 20
357.1941565717374942
 30
0.0
 11
3942.2650310030389846
 21
354.8961565717374924
 31
0.0
  0
ARC
  5
FDF4
  8
0
 10
3942.2530310030419969
 20
354.8961565717341955
 30
0.0
 40
0.0119999999966076
 50
269.9999982317963827
 51
0.000000016196504
  0
LINE
  5
FDF5
  8
0
 10
3942.253031002670923
 20
354.884156571737492
 30
0.0
 11
3941.5270310026708103
 21
354.884156594142496
 31
0.0
  0
LINE
  5
FDF6
  8
0
 10
3942.2650330312558253
 20
354.8152305038281042
 30
0.0
 11
3942.2650305344800472
 21
354.5918688735525848
 31
0.0
  0
LINE
  5
FDF7
  8
0
 10
3942.2588634599710531
 20
354.6337628717374741
 30
0.0
 11
3941.521198545371135
 21
354.6337628717374741
 31
0.0
  0
LINE
  5
FDF8
  8
0
 10
3942.2588634599710531
 20
354.6337628717374741
 30
0.0
 11
3942.2590376165721864
 21
354.6137628717374923
 31
0.0
  0
ARC
  5
FDF9
  8
0
 10
3942.2490548431319439
 20
354.6136759434435248
 30
0.0
 40
0.0099831519104376
 50
276.7929099106775084
 51
0.4989092978308716
  0
LINE
  5
FDFA
  8
0
 10
3941.5270310026708103
 20
354.6037628717376151
 30
0.0
 11
3942.253031002670923
 21
354.6037628717376151
 31
0.0
  0
ARC
  5
FDFB
  8
0
 10
3942.253031002670923
 20
354.5917628717376147
 30
0.0
 40
0.0120000000000049
 50
0.5061279674309036
 51
89.9999999999739515
  0
LINE
  5
FDFC
  8
0
 10
3942.2650305344800472
 20
354.5918688735525848
 30
0.0
 11
3942.265031002671094
 21
352.3237628717375856
 31
0.0
  0
LINE
  5
FDFD
  8
0
 10
3942.0246601228709551
 20
354.6337628717374741
 30
0.0
 11
3942.0246601228709551
 21
354.8721565717376052
 31
0.0
  0
ARC
  5
FDFE
  8
0
 10
3942.0164566304761138
 20
354.8707141385689852
 30
0.0
 40
0.0083293397648921
 50
9.9724701367928148
 51
66.3613288229481526
  0
ARC
  5
FDFF
  8
0
 10
3941.9918580724802268
 20
354.8151425478387182
 30
0.0
 40
0.0691017273101854
 50
66.1522563464685192
 51
87.1131270535750559
  0
LINE
  5
FE00
  8
0
 10
3941.515031002671094
 20
357.1941565717374942
 30
0.0
 11
3941.5150310023050224
 21
354.8961565717374924
 31
0.0
  0
ARC
  5
FE01
  8
0
 10
3941.5270310023001912
 20
354.8961565717341955
 30
0.0
 40
0.0119999999966076
 50
179.999999983803491
 51
270.0000017682036173
  0
LINE
  5
FE02
  8
0
 10
3941.515031002671094
 20
354.8147865717376135
 30
0.0
 11
3941.515031002671094
 21
354.5917628717376147
 31
0.0
  0
LINE
  5
FE03
  8
0
 10
3941.521198545371135
 20
354.6337628717374741
 30
0.0
 11
3941.5210243887718207
 21
354.6137628717374923
 31
0.0
  0
ARC
  5
FE04
  8
0
 10
3941.5310071622097894
 20
354.6136759434435248
 30
0.0
 40
0.0099831519104376
 50
179.5010907021691082
 51
263.2070900893224916
  0
ARC
  5
FE05
  8
0
 10
3941.5270310026708103
 20
354.5917628717376147
 30
0.0
 40
0.0119999999999987
 50
90.0
 51
180.0000000000065086
  0
LINE
  5
FE06
  8
0
 10
3941.515031002671094
 20
354.5917628717376147
 30
0.0
 11
3941.515031002671094
 21
352.3237628717375856
 31
0.0
  0
LINE
  5
FE07
  8
0
 10
3941.7554018824707782
 20
354.6337628717374741
 30
0.0
 11
3941.7554018824707782
 21
354.8721565717376052
 31
0.0
  0
ARC
  5
FE08
  8
0
 10
3941.7636053748660743
 20
354.8707141385689852
 30
0.0
 40
0.0083293397648921
 50
113.6386711770518048
 51
170.0275298632070928
  0
ARC
  5
FE09
  8
0
 10
3941.7882039328628707
 20
354.8151425478387182
 30
0.0
 40
0.0691017273101854
 50
92.8868729464249441
 51
113.8477436535313956
  0
ARC
  5
FE0A
  8
0
 10
3942.3042528302589744
 20
354.8149359465155044
 30
0.0
 40
0.0392209051128436
 50
89.783542118042746
 51
179.569692503475494
  0
LINE
  5
FE0B
  8
0
 10
3941.540031002671185
 20
354.6337628717374741
 30
0.0
 11
3941.5400310103991615
 21
354.8841565937412952
 31
0.0
  0
LINE
  5
FE0C
  8
0
 10
3942.2400310026710031
 20
354.6337628717374741
 30
0.0
 11
3942.2400310103989796
 21
354.8841565721386928
 31
0.0
  0
ARC
  5
FE0D
  8
0
 10
3941.890031002671094
 20
357.1941565717374942
 30
0.0
 40
0.375
 50
0.0
 51
180.0
  0
LINE
  5
FE0E
  8
0
 10
3941.3100310026720763
 20
357.1941565717374942
 30
0.0
 11
3941.3100310026720763
 21
356.0141565718324159
 31
0.0
  0
LINE
  5
FE0F
  8
0
 10
3941.3100310026720763
 20
354.8541565717375761
 30
0.0
 11
3941.3100310026720763
 21
354.5601565717375934
 31
0.0
  0
ARC
  5
FE10
  8
0
 10
3941.3400310026718216
 20
354.5601565717375934
 30
0.0
 40
0.0299999999999998
 50
180.0
 51
270.0
  0
LINE
  5
FE11
  8
0
 10
3941.3400310026718216
 20
354.5301565717376207
 30
0.0
 11
3941.515031002671094
 21
354.5301565717376207
 31
0.0
  0
LINE
  5
FE12
  8
0
 10
3941.4350165164100872
 20
356.0141565718565744
 30
0.0
 11
3941.4355310026708139
 21
356.8201601568375736
 31
0.0
  0
ARC
  5
FE13
  8
0
 10
3941.3893583314797979
 20
356.8193561807926244
 30
0.0
 40
0.0461796702281342
 50
0.9975550131353859
 51
26.7915989335118283
  0
ARC
  5
FE14
  8
0
 10
3941.890031002671094
 20
357.1941565717374942
 30
0.0
 40
0.5000000000000023
 50
318.5903778998728058
 51
221.4096221001271942
  0
ARC
  5
FE15
  8
0
 10
3941.890031002671094
 20
357.1941565717374942
 30
0.0
 40
0.5799999999999982
 50
310.2821183651254273
 51
229.7178816348746011
  0
LINE
  5
FE16
  8
0
 10
3943.7388420262718682
 20
354.8732545473375808
 30
0.0
 11
3943.1320309906709554
 21
354.8732542541375778
 31
0.0
  0
ARC
  5
FE17
  8
0
 10
3943.1342821755238219
 20
354.3161267661004104
 30
0.0
 40
0.557132036199593
 50
90.2315137769320046
 51
104.7947572563033987
  0
ARC
  5
FE18
  8
0
 10
3942.9870890455440531
 20
354.8731363043985993
 30
0.0
 40
0.018997824194564
 50
272.5006784928689854
 51
285.0262433489871796
  0
ARC
  5
FE19
  8
0
 10
3941.890031002671094
 20
352.3237628717375856
 30
0.0
 40
0.375
 50
180.0
 51
0.0
  0
LINE
  5
FE1A
  8
0
 10
3942.3450454889330103
 20
356.0141565720326753
 30
0.0
 11
3942.3445222791319793
 21
356.8338266123660105
 31
0.0
  0
ENDSEC
  0
EOF
