  0
SECTION
  2
HEADER
  9
$ACADVER
  1
AC1009
  9
$INSBASE
 10
3967.1334733636158489
 20
355.065740370520416
 30
0.0
  9
$EXTMIN
 10
3960.4984733634269105
 20
350.2369293468876776
 30
0.0
  9
$EXTMAX
 10
3976.3834733636158489
 20
355.0716093270207807
 30
0.0
  9
$LIMMIN
 10
0.0
 20
0.0
  9
$LIMMAX
 10
11.6929133858000007
 20
8.2677165353999982
  9
$ORTHOMODE
 70
     0
  9
$REGENMODE
 70
     1
  9
$FILLMODE
 70
     1
  9
$QTEXTMODE
 70
     0
  9
$MIRRTEXT
 70
     0
  9
$DRAGMODE
 70
     2
  9
$LTSCALE
 40
0.6431102362
  9
$OSMODE
 70
  4095
  9
$ATTMODE
 70
     1
  9
$TEXTSIZE
 40
0.2
  9
$TRACEWID
 40
0.05
  9
$TEXTSTYLE
  7
STANDARD
  9
$CLAYER
  8
0
  9
$CELTYPE
  6
BYLAYER
  9
$CECOLOR
 62
   256
  9
$DIMSCALE
 40
1.0
  9
$DIMASZ
 40
0.1875
  9
$DIMEXO
 40
0.0625
  9
$DIMDLI
 40
0.4443307087
  9
$DIMRND
 40
0.0
  9
$DIMDLE
 40
0.0
  9
$DIMEXE
 40
0.125
  9
$DIMTP
 40
0.01
  9
$DIMTM
 40
0.01
  9
$DIMTXT
 40
2.0
  9
$DIMCEN
 40
0.1052362205
  9
$DIMTSZ
 40
0.0
  9
$DIMTOL
 70
     1
  9
$DIMLIM
 70
     0
  9
$DIMTIH
 70
     1
  9
$DIMTOH
 70
     1
  9
$DIMSE1
 70
     0
  9
$DIMSE2
 70
     0
  9
$DIMTAD
 70
     0
  9
$DIMZIN
 70
     0
  9
$DIMBLK
  1

  9
$DIMASO
 70
     1
  9
$DIMSHO
 70
     1
  9
$DIMPOST
  1
\X
  9
$DIMAPOST
  1

  9
$DIMALT
 70
     1
  9
$DIMALTD
 70
     2
  9
$DIMALTF
 40
25.3999999999999986
  9
$DIMLFAC
 40
1.0
  9
$DIMTOFL
 70
     0
  9
$DIMTVP
 40
0.0
  9
$DIMTIX
 70
     0
  9
$DIMSOXD
 70
     0
  9
$DIMSAH
 70
     0
  9
$DIMBLK1
  1

  9
$DIMBLK2
  1

  9
$DIMSTYLE
  2
STANDARD
  9
$DIMCLRD
 70
     0
  9
$DIMCLRE
 70
     0
  9
$DIMCLRT
 70
     0
  9
$DIMTFAC
 40
1.0
  9
$DIMGAP
 40
0.09
  9
$LUNITS
 70
     2
  9
$LUPREC
 70
     4
  9
$SKETCHINC
 40
0.1
  9
$FILLETRAD
 40
0.0
  9
$AUNITS
 70
     0
  9
$AUPREC
 70
     0
  9
$MENU
  1
.
  9
$ELEVATION
 40
0.0
  9
$PELEVATION
 40
0.0
  9
$THICKNESS
 40
0.0
  9
$LIMCHECK
 70
     0
  9
$BLIPMODE
 70
     0
  9
$CHAMFERA
 40
0.0
  9
$CHAMFERB
 40
0.0
  9
$SKPOLY
 70
     0
  9
$TDCREATE
 40
2458060.468368056230247
  9
$TDUPDATE
 40
2459544.7127314819954336
  9
$TDINDWG
 40
0.4886297454
  9
$TDUSRTIMER
 40
0.4886297454
  9
$USRTIMER
 70
     1
  9
$ANGBASE
 50
0.0
  9
$ANGDIR
 70
     0
  9
$PDMODE
 70
     0
  9
$PDSIZE
 40
0.3125
  9
$PLINEWID
 40
0.0
  9
$COORDS
 70
     1
  9
$SPLFRAME
 70
     0
  9
$SPLINETYPE
 70
     6
  9
$SPLINESEGS
 70
     8
  9
$ATTDIA
 70
     1
  9
$ATTREQ
 70
     1
  9
$HANDLING
 70
     1
  9
$HANDSEED
  5
FC9F
  9
$SURFTAB1
 70
     6
  9
$SURFTAB2
 70
     6
  9
$SURFTYPE
 70
     6
  9
$SURFU
 70
     6
  9
$SURFV
 70
     6
  9
$UCSNAME
  2

  9
$UCSORG
 10
0.0
 20
0.0
 30
0.0
  9
$UCSXDIR
 10
1.0
 20
0.0
 30
0.0
  9
$UCSYDIR
 10
0.0
 20
1.0
 30
0.0
  9
$PUCSNAME
  2

  9
$PUCSORG
 10
0.0
 20
0.0
 30
0.0
  9
$PUCSXDIR
 10
1.0
 20
0.0
 30
0.0
  9
$PUCSYDIR
 10
0.0
 20
1.0
 30
0.0
  9
$USERI1
 70
     0
  9
$USERI2
 70
     0
  9
$USERI3
 70
     0
  9
$USERI4
 70
     0
  9
$USERI5
 70
     0
  9
$USERR1
 40
0.0
  9
$USERR2
 40
0.0
  9
$USERR3
 40
0.0
  9
$USERR4
 40
0.0
  9
$USERR5
 40
0.0
  9
$WORLDVIEW
 70
     1
  9
$SHADEDGE
 70
     3
  9
$SHADEDIF
 70
    70
  9
$TILEMODE
 70
     1
  9
$MAXACTVP
 70
    64
  9
$PLIMCHECK
 70
     0
  9
$PEXTMIN
 10
1.0000000000000000E+20
 20
1.0000000000000000E+20
 30
1.0000000000000000E+20
  9
$PEXTMAX
 10
-1.0000000000000000E+20
 20
-1.0000000000000000E+20
 30
-1.0000000000000000E+20
  9
$PLIMMIN
 10
0.0
 20
0.0
  9
$PLIMMAX
 10
12.0
 20
9.0
  9
$UNITMODE
 70
     0
  9
$VISRETAIN
 70
     1
  9
$PLINEGEN
 70
     0
  9
$PSLTSCALE
 70
     1
  0
ENDSEC
  0
SECTION
  2
TABLES
  0
TABLE
  2
VPORT
 70
     1
  0
VPORT
  2
*ACTIVE
 70
     0
 10
0.0
 20
0.0
 11
1.0
 21
1.0
 12
0.0
 22
0.0
 13
0.0
 23
0.0
 14
1.0
 24
1.0
 15
0.0
 25
0.0
 16
0.0
 26
0.0
 36
47.0436733231994779
 17
3968.440185546875
 27
352.6542739017917256
 37
0.0
 40
16.6028095797045196
 41
2.1186252771618621
 42
50.0
 43
0.0
 44
0.0
 50
0.0
 51
0.0
 71
     0
 72
   100
 73
     1
 74
     1
 75
     0
 76
     0
 77
     0
 78
     0
  0
ENDTAB
  0
TABLE
  2
LTYPE
 70
     2
  0
LTYPE
  2
CONTINUOUS
 70
     0
  3
Solid line
 72
    65
 73
     0
 40
0.0
  0
LTYPE
  2
PHANTOM2
 70
     0
  3
___ _ _ ___ _ _ ___ _ _ ___ _ _
 72
    65
 73
     6
 40
1.25
 49
0.625
 49
-0.125
 49
0.125
 49
-0.125
 49
0.125
 49
-0.125
  0
ENDTAB
  0
TABLE
  2
LAYER
 70
     4
  0
LAYER
  2
0
 70
     0
 62
   255
  6
CONTINUOUS
  0
LAYER
  2
DEFPOINTS
 70
     0
 62
     7
  6
CONTINUOUS
  0
ENDTAB
  0
TABLE
  2
STYLE
 70
     1
  0
STYLE
  2
STANDARD
 70
     0
 40
0.0
 41
0.8
 50
0.0
 71
     0
 42
0.2
  3
txt
  4

  0
ENDTAB
  0
TABLE
  2
VIEW
 70
     0
  0
ENDTAB
  0
TABLE
  2
UCS
 70
     0
  0
ENDTAB
  0
TABLE
  2
APPID
 70
    10
  0
APPID
  2
ACAD
 70
     0
  0
APPID
  2
ACAD_MLEADERVER
 70
     0
  0
APPID
  2
ACAD_EXEMPT_FROM_CAD_STANDARDS
 70
     0
  0
APPID
  2
ACAD_NAV_VCDISPLAY
 70
     0
  0
APPID
  2
ACAECLAYERSTANDARD
 70
     0
  0
APPID
  2
ACCMTRANSPARENCY
 70
     0
  0
APPID
  2
ACAD_DSTYLE_DIMJAG
 70
     0
  0
APPID
  2
ACAD_DSTYLE_DIMTALN
 70
     0
  0
APPID
  2
ACDBATTR
 70
     0
  0
APPID
  2
ACADANNOTATIVE
 70
     0
  0
ENDTAB
  0
TABLE
  2
DIMSTYLE
 70
     2
  0
DIMSTYLE
  2
STANDARD
 70
     0
  3

  4

  5

  6

  7

 40
1.0
 41
0.1875
 42
0.0625
 43
0.38
 44
0.125
 45
0.0
 46
0.0
 47
0.01
 48
0.01
140
0.15625
141
0.09
142
0.0
143
25.3999999999999986
144
1.0
145
0.0
146
1.0
147
0.09
 71
     1
 72
     0
 73
     1
 74
     1
 75
     0
 76
     0
 77
     0
 78
     4
170
     0
171
     2
172
     0
173
     0
174
     0
175
     0
176
     0
177
     0
178
     0
  0
ENDTAB
  0
ENDSEC
  0
SECTION
  2
BLOCKS
  0
BLOCK
  8
0
  2
$MODEL_SPACE
 70
     0
 10
0.0
 20
0.0
 30
0.0
  3
$MODEL_SPACE
  1

  0
ENDBLK
  5
21
  8
0
  0
BLOCK
 67
     1
  8
0
  2
$PAPER_SPACE
 70
     0
 10
0.0
 20
0.0
 30
0.0
  3
$PAPER_SPACE
  1

  0
ENDBLK
  5
1D
 67
     1
  8
0
  0
ENDSEC
  0
SECTION
  2
ENTITIES
  0
ATTDEF
  5
3930
  8
DEFPOINTS
 10
3967.1306077838471538
 20
355.070609327020918
 30
0.0
 40
0.001
  1
P23181-00
  3

  2
MODELNUMBER
 70
     0
1001
ACDBATTR
1070
     0
1070
     1
  0
ATTDEF
  5
3931
  8
DEFPOINTS
 10
3967.1306077838471538
 20
355.0689426603541961
 30
0.0
 40
0.001
  1
JUXTAPOSE
  3

  2
TRADENAME
 70
     0
1001
ACDBATTR
1070
     0
1070
     1
  0
ATTDEF
  5
3932
  8
DEFPOINTS
 10
3967.1306077838471538
 20
355.0672759936874741
 30
0.0
 40
0.001
  1
BATHROOM SINK FAUCET
  3

  2
PRODUCT
 70
     0
1001
ACDBATTR
1070
     0
1070
     1
  0
LINE
  5
FB8E
  8
0
 10
3964.7384733636158671
 20
352.1269384304204095
 30
0.0
 11
3964.7384733636158671
 21
353.2469202634204066
 31
0.0
  0
LINE
  5
FB8F
  8
0
 10
3964.8284733636160126
 20
352.2069293469203899
 30
0.0
 11
3964.8284733636160126
 21
353.1669288940203728
 31
0.0
  0
LINE
  5
FB90
  8
0
 10
3965.7634733636159581
 20
355.0557403705204251
 30
0.0
 11
3965.7634733636159581
 21
354.8232630754204138
 31
0.0
  0
LINE
  5
FB91
  8
0
 10
3964.7784733636158307
 20
352.1869293469204081
 30
0.0
 11
3964.8084733636160308
 21
352.1869293469204081
 31
0.0
  0
LINE
  5
FB92
  8
0
 10
3964.7784733636158307
 20
353.1869293469204081
 30
0.0
 11
3964.8084733636160308
 21
353.1869293469204081
 31
0.0
  0
LINE
  5
FB93
  8
0
 10
3968.5034733636161945
 20
355.0557403705204251
 30
0.0
 11
3968.5034733636161945
 21
354.8232630754204138
 31
0.0
  0
LINE
  5
FB94
  8
0
 10
3966.2982843881150075
 20
354.5357403705203865
 30
0.0
 11
3967.9686623392158253
 21
354.5357403705203865
 31
0.0
  0
LINE
  5
FB95
  8
0
 10
3968.4934733636150668
 20
355.065740370520416
 30
0.0
 11
3965.7734733636161764
 21
355.065740370520416
 31
0.0
  0
ARC
  5
FB96
  8
0
 10
3964.7784733636158307
 20
353.2269293469203717
 30
0.0
 40
0.04
 50
180.0
 51
270.0
  0
ARC
  5
FB97
  8
0
 10
3964.7784733636158307
 20
352.1469293469203876
 30
0.0
 40
0.04
 50
90.0
 51
180.0
  0
ARC
  5
FB98
  8
0
 10
3964.8084974862122181
 20
353.1669534689655165
 30
0.0
 40
0.0199758925200025
 50
359.9295129873726182
 51
90.0691895644020377
  0
ARC
  5
FB99
  8
0
 10
3964.8084733636160308
 20
352.2069293469203899
 30
0.0
 40
0.02
 50
270.0
 51
359.9999973855983058
  0
ARC
  5
FB9A
  8
0
 10
3964.7184895741120272
 20
352.1269131458450943
 30
0.0
 40
0.0199838054995318
 50
269.953522710377797
 51
0.0724936918547815
  0
ARC
  5
FB9B
  8
0
 10
3964.7184902139961196
 20
353.2469461875895718
 30
0.0
 40
0.0199831664351282
 50
359.9256701431253873
 51
90.0483134546814057
  0
ARC
  5
FB9C
  8
0
 10
3965.7734733636161764
 20
354.8232630754204138
 30
0.0
 40
0.01
 50
180.0
 51
267.0721631876913875
  0
ARC
  5
FB9D
  8
0
 10
3965.7734733636161764
 20
355.0557403705204251
 30
0.0
 40
0.01
 50
90.0
 51
180.0
  0
ARC
  5
FB9E
  8
0
 10
3966.2982738082819196
 20
354.5457403749601895
 30
0.0
 40
0.0100000100364995
 50
182.3049338461223954
 51
270.0606179345384135
  0
ARC
  5
FB9F
  8
0
 10
3968.4934733636150668
 20
355.0557403705204251
 30
0.0
 40
0.01
 50
0.0
 51
90.0
  0
ARC
  5
FBA0
  8
0
 10
3968.4934733636150668
 20
354.8232630754204138
 30
0.0
 40
0.01
 50
272.9278368123086125
 51
0.0
  0
ARC
  5
FBA1
  8
0
 10
3966.0905791398031397
 20
354.5397069041562759
 30
0.0
 40
0.1977829326552035
 50
1.6315506725248441
 51
51.2410754111956095
  0
ARC
  5
FBA2
  8
0
 10
3965.9125380965438126
 20
354.2861638674810933
 30
0.0
 40
0.5073444265564451
 50
53.48847595535225
 51
80.5844031092467077
  0
ARC
  5
FBA3
  8
0
 10
3965.7110922916967866
 20
353.3512483897313246
 30
0.0
 40
1.463336271238894
 50
78.7914422110410868
 51
87.576795166830351
  0
LINE
  5
FBA4
  8
0
 10
3966.5534733636159217
 20
354.5357403705203865
 30
0.0
 11
3966.5534733636159217
 21
353.0619293469204081
 31
0.0
  0
LINE
  5
FBA5
  8
0
 10
3966.5534733636159217
 20
352.3119293469204081
 30
0.0
 11
3966.5534733636159217
 21
351.6169293469204149
 31
0.0
  0
ARC
  5
FBA6
  8
0
 10
3966.5734733646181667
 20
351.6169293469204149
 30
0.0
 40
0.0200000010015948
 50
180.0
 51
270.0181329631336098
  0
LINE
  5
FBA7
  8
0
 10
3966.5734796942151661
 20
351.5969293469203762
 30
0.0
 11
3967.6934670330151675
 21
351.5969293469203762
 31
0.0
  0
ARC
  5
FBA8
  8
0
 10
3966.5734679619640701
 20
351.5769413051386891
 30
0.0
 40
0.0199880452248696
 50
89.9663694689183444
 51
180.0342782635352989
  0
LINE
  5
FBA9
  8
0
 10
3966.5534799203160219
 20
351.5769293469203944
 30
0.0
 11
3966.5537836285288904
 21
351.0669294373083176
 31
0.0
  0
ARC
  5
FBAA
  8
0
 10
3966.5737964334139178
 20
351.0669406024538262
 30
0.0
 40
0.0200128079994229
 50
180.0319653168525065
 51
269.2863299552348053
  0
LINE
  5
FBAB
  8
0
 10
3966.5735471624839192
 20
351.0469293469204217
 30
0.0
 11
3967.6933995647477786
 21
351.0469293469204217
 31
0.0
  0
LINE
  5
FBAC
  8
0
 10
3966.6490733636160257
 20
351.0469293469204217
 30
0.0
 11
3966.6490733636160257
 21
351.036929346920374
 31
0.0
  0
LINE
  5
FBAD
  8
0
 10
3967.6834733636160308
 20
351.036929346920374
 30
0.0
 11
3966.5834733636161218
 21
351.036929346920374
 31
0.0
  0
ARC
  5
FBAE
  8
0
 10
3966.5834733636161218
 20
351.0069293469204013
 30
0.0
 40
0.0300000000000011
 50
90.0
 51
179.9999999999967031
  0
LINE
  5
FBAF
  8
0
 10
3966.5534733636159217
 20
351.0069293469204013
 30
0.0
 11
3966.5534733636159217
 21
350.2669293469203922
 31
0.0
  0
ARC
  5
FBB0
  8
0
 10
3966.5834733636488636
 20
350.2669293469203922
 30
0.0
 40
0.0300000000327097
 50
179.9999999999967031
 51
270.0026756505013736
  0
LINE
  5
FBB1
  8
0
 10
3966.5834747646158576
 20
350.2369293469204194
 30
0.0
 11
3967.6834733624159526
 21
350.2369807156571255
 31
0.0
  0
LINE
  5
FBB2
  8
0
 10
3967.7134733636157762
 20
354.5357403705203865
 30
0.0
 11
3967.7134733636157762
 21
353.0619293469204081
 31
0.0
  0
LINE
  5
FBB3
  8
0
 10
3967.7134733636157762
 20
352.3119293469204081
 30
0.0
 11
3967.7134733636157762
 21
351.6169293469204149
 31
0.0
  0
ARC
  5
FBB4
  8
0
 10
3967.693473362613986
 20
351.6169293469204149
 30
0.0
 40
0.0200000010015948
 50
269.9818670368665039
 51
0.0
  0
ARC
  5
FBB5
  8
0
 10
3967.6934787652680825
 20
351.5769413051386891
 30
0.0
 40
0.0199880452248696
 50
359.9657217364646726
 51
90.0336305310816556
  0
LINE
  5
FBB6
  8
0
 10
3967.7134668069161307
 20
351.5769293469203944
 30
0.0
 11
3967.7131630987028075
 21
351.0669294373083176
 31
0.0
  0
ARC
  5
FBB7
  8
0
 10
3967.69315029381778
 20
351.0669406024538262
 30
0.0
 40
0.0200128079994246
 50
270.7136700447651947
 51
359.9680346831473798
  0
LINE
  5
FBB8
  8
0
 10
3967.6178733636161269
 20
351.0469293469204217
 30
0.0
 11
3967.6178733636161269
 21
351.036929346920374
 31
0.0
  0
ARC
  5
FBB9
  8
0
 10
3967.6834733636160308
 20
351.0069293469204013
 30
0.0
 40
0.0300000000000011
 50
0.0000000000032569
 51
90.0
  0
LINE
  5
FBBA
  8
0
 10
3967.7134733636157762
 20
351.0069293469204013
 30
0.0
 11
3967.7134733636157762
 21
350.2669293469203922
 31
0.0
  0
ARC
  5
FBBB
  8
0
 10
3967.6834733635828343
 20
350.2669293469203922
 30
0.0
 40
0.0300000000327097
 50
269.9973243494986264
 51
0.0000000000032569
  0
ARC
  5
FBBC
  8
0
 10
3967.9686729190498227
 20
354.5457403749601895
 30
0.0
 40
0.0100000100364995
 50
269.9393820654615865
 51
357.6950661538775194
  0
ARC
  5
FBBD
  8
0
 10
3968.1763675875290573
 20
354.5397069041562759
 30
0.0
 40
0.1977829326552035
 50
128.7589245888044047
 51
178.3684493274751048
  0
ARC
  5
FBBE
  8
0
 10
3968.3544086307888392
 20
354.2861638674810933
 30
0.0
 40
0.5073444265564451
 50
99.4155968907532923
 51
126.5115240446477003
  0
ARC
  5
FBBF
  8
0
 10
3968.5558544356349557
 20
353.3512483897313246
 30
0.0
 40
1.463336271238894
 50
92.4232048331696348
 51
101.208557788958899
  0
LINE
  5
FBC0
  8
0
 10
3965.7729625820570618
 20
354.8132761288300117
 30
0.0
 11
3968.4939841451750908
 21
354.8132761288300117
 31
0.0
  0
LINE
  5
FBC1
  8
0
 10
3964.7184733619287726
 20
353.2669293469203922
 30
0.0
 11
3961.8784476792470741
 21
353.2669293463706026
 31
0.0
  0
ARC
  5
FBC2
  8
0
 10
3961.8784476792470741
 20
353.2469293453690966
 30
0.0
 40
0.0200000010015948
 50
90.0
 51
180.0181329631238043
  0
LINE
  5
FBC3
  8
0
 10
3961.8584476792470923
 20
353.2469230157706761
 30
0.0
 11
3961.8584476792470923
 21
352.1269356769706746
 31
0.0
  0
ARC
  5
FBC4
  8
0
 10
3961.8384596374658031
 20
353.2469347480229089
 30
0.0
 40
0.0199880452248696
 50
359.9663694689215845
 51
90.0342782635288046
  0
LINE
  5
FBC5
  8
0
 10
3961.8384476792471105
 20
353.266922789670673
 30
0.0
 11
3961.3284477696361137
 21
353.2666190814575202
 31
0.0
  0
ARC
  5
FBC6
  8
0
 10
3961.3284589347808833
 20
353.2466062765726065
 30
0.0
 40
0.0200128079994229
 50
90.0319653168590577
 51
179.2863299552381875
  0
LINE
  5
FBC7
  8
0
 10
3961.3084476792469104
 20
353.246855547503003
 30
0.0
 11
3961.3084476792469104
 21
352.1270031452384046
 31
0.0
  0
LINE
  5
FBC8
  8
0
 10
3961.3084476792469104
 20
353.1713293463706123
 30
0.0
 11
3961.2984476792471469
 21
353.1713293463706123
 31
0.0
  0
LINE
  5
FBC9
  8
0
 10
3961.2984476792471469
 20
352.1369293463707209
 30
0.0
 11
3961.2984476792471469
 21
353.2369293463706867
 31
0.0
  0
ARC
  5
FBCA
  8
0
 10
3961.2684476792469468
 20
353.2369293463706867
 30
0.0
 40
0.0300000000000011
 50
359.9999999999968168
 51
90.0
  0
LINE
  5
FBCB
  8
0
 10
3961.2684476792469468
 20
353.2669293463706026
 30
0.0
 11
3960.5284476792471651
 21
353.2669293463707163
 31
0.0
  0
ARC
  5
FBCC
  8
0
 10
3960.5284295128258236
 20
353.2369732025119902
 30
0.0
 40
0.0299561493670734
 50
89.9652538997464148
 51
180.0058730880363953
  0
LINE
  5
FBCD
  8
0
 10
3960.4984733636160854
 20
353.2369701318652915
 30
0.0
 11
3960.4984733636160854
 21
352.1368888438555018
 31
0.0
  0
LINE
  5
FBCE
  8
0
 10
3964.7184733636158853
 20
352.106929346920424
 30
0.0
 11
3961.8784476792470741
 21
352.1069293463706913
 31
0.0
  0
ARC
  5
FBCF
  8
0
 10
3961.8784476792470741
 20
352.1269293473721973
 30
0.0
 40
0.0200000010015948
 50
179.9818670368761957
 51
270.0
  0
ARC
  5
FBD0
  8
0
 10
3961.8384596374658031
 20
352.126923944718385
 30
0.0
 40
0.0199880452248696
 50
269.9657217364712096
 51
0.0336305310783973
  0
LINE
  5
FBD1
  8
0
 10
3961.8384476792471105
 20
352.1069359030706778
 30
0.0
 11
3961.3284477696361137
 21
352.1072396112837737
 31
0.0
  0
ARC
  5
FBD2
  8
0
 10
3961.3284589347808833
 20
352.1272524161688011
 30
0.0
 40
0.0200128079994246
 50
180.7136700447649957
 51
269.9680346831408997
  0
LINE
  5
FBD3
  8
0
 10
3961.3084476792469104
 20
352.2025293463706817
 30
0.0
 11
3961.2984476792471469
 21
352.2025293463706817
 31
0.0
  0
ARC
  5
FBD4
  8
0
 10
3961.2684476792469468
 20
352.1369293463707209
 30
0.0
 40
0.0300000000000011
 50
270.0
 51
0.0000000000032569
  0
LINE
  5
FBD5
  8
0
 10
3961.2684476792469468
 20
352.1069293463706913
 30
0.0
 11
3960.5284476792471651
 21
352.1069293463705776
 31
0.0
  0
ARC
  5
FBD6
  8
0
 10
3960.5284294963321372
 20
352.1368854737576726
 30
0.0
 40
0.0299561329053898
 50
179.9935541619560126
 51
270.0347776664607977
  0
LINE
  5
FBD7
  8
0
 10
3964.8284733636160126
 20
353.0619293469204081
 30
0.0
 11
3976.0084733636158489
 21
353.0619293469204081
 31
0.0
  0
ARC
  5
FBD8
  8
0
 10
3976.0084733636158489
 20
352.6869293469204081
 30
0.0
 40
0.375
 50
270.0
 51
90.0
  0
LINE
  5
FBD9
  8
0
 10
3976.0084733636158489
 20
352.3119293469204081
 30
0.0
 11
3964.8284733636160126
 21
352.3119293469204081
 31
0.0
  0
ENDSEC
  0
EOF
