  0
SECTION
  2
HEADER
  9
$ACADVER
  1
AC1009
  9
$INSBASE
 10
35.20941816509837
 20
-1.39422578630668
 30
0.0
  9
$EXTMIN
 10
29.2169337225504009
 20
-1.399928640799565
 30
-0.0000000000000058
  9
$EXTMAX
 10
36.6171265551842993
 20
3.9400078214521939
 30
0.0000000000000104
  9
$LIMMIN
 10
0.0
 20
0.0
  9
$LIMMAX
 10
11.6929133858000007
 20
8.2677165353999982
  9
$ORTHOMODE
 70
     0
  9
$REGENMODE
 70
     1
  9
$FILLMODE
 70
     1
  9
$QTEXTMODE
 70
     0
  9
$MIRRTEXT
 70
     0
  9
$DRAGMODE
 70
     2
  9
$LTSCALE
 40
0.6431102362
  9
$OSMODE
 70
  4095
  9
$ATTMODE
 70
     1
  9
$TEXTSIZE
 40
0.2
  9
$TRACEWID
 40
0.05
  9
$TEXTSTYLE
  7
STANDARD
  9
$CLAYER
  8
0
  9
$CELTYPE
  6
BYLAYER
  9
$CECOLOR
 62
   256
  9
$DIMSCALE
 40
1.0
  9
$DIMASZ
 40
0.1875
  9
$DIMEXO
 40
0.0625
  9
$DIMDLI
 40
0.4443307087
  9
$DIMRND
 40
0.0
  9
$DIMDLE
 40
0.0
  9
$DIMEXE
 40
0.125
  9
$DIMTP
 40
0.0
  9
$DIMTM
 40
0.0
  9
$DIMTXT
 40
0.15625
  9
$DIMCEN
 40
0.1052362205
  9
$DIMTSZ
 40
0.0
  9
$DIMTOL
 70
     0
  9
$DIMLIM
 70
     0
  9
$DIMTIH
 70
     1
  9
$DIMTOH
 70
     1
  9
$DIMSE1
 70
     0
  9
$DIMSE2
 70
     0
  9
$DIMTAD
 70
     0
  9
$DIMZIN
 70
     0
  9
$DIMBLK
  1

  9
$DIMASO
 70
     1
  9
$DIMSHO
 70
     1
  9
$DIMPOST
  1

  9
$DIMAPOST
  1

  9
$DIMALT
 70
     0
  9
$DIMALTD
 70
     2
  9
$DIMALTF
 40
25.3999999999999986
  9
$DIMLFAC
 40
1.0
  9
$DIMTOFL
 70
     0
  9
$DIMTVP
 40
0.0
  9
$DIMTIX
 70
     0
  9
$DIMSOXD
 70
     0
  9
$DIMSAH
 70
     0
  9
$DIMBLK1
  1

  9
$DIMBLK2
  1

  9
$DIMSTYLE
  2
STANDARD
  9
$DIMCLRD
 70
     0
  9
$DIMCLRE
 70
     0
  9
$DIMCLRT
 70
     0
  9
$DIMTFAC
 40
1.0
  9
$DIMGAP
 40
0.09
  9
$LUNITS
 70
     2
  9
$LUPREC
 70
     4
  9
$SKETCHINC
 40
0.1
  9
$FILLETRAD
 40
0.0
  9
$AUNITS
 70
     0
  9
$AUPREC
 70
     0
  9
$MENU
  1
.
  9
$ELEVATION
 40
0.0
  9
$PELEVATION
 40
0.0
  9
$THICKNESS
 40
0.0
  9
$LIMCHECK
 70
     0
  9
$BLIPMODE
 70
     0
  9
$CHAMFERA
 40
0.0
  9
$CHAMFERB
 40
0.0
  9
$SKPOLY
 70
     0
  9
$TDCREATE
 40
2457869.6357754631899297
  9
$TDUPDATE
 40
2459884.6454050932079554
  9
$TDINDWG
 40
0.1008025
  9
$TDUSRTIMER
 40
0.1008025
  9
$USRTIMER
 70
     1
  9
$ANGBASE
 50
0.0
  9
$ANGDIR
 70
     0
  9
$PDMODE
 70
     0
  9
$PDSIZE
 40
0.3125
  9
$PLINEWID
 40
0.0
  9
$COORDS
 70
     1
  9
$SPLFRAME
 70
     0
  9
$SPLINETYPE
 70
     6
  9
$SPLINESEGS
 70
     8
  9
$ATTDIA
 70
     1
  9
$ATTREQ
 70
     1
  9
$HANDLING
 70
     1
  9
$HANDSEED
  5
406
  9
$SURFTAB1
 70
     6
  9
$SURFTAB2
 70
     6
  9
$SURFTYPE
 70
     6
  9
$SURFU
 70
     6
  9
$SURFV
 70
     6
  9
$UCSNAME
  2

  9
$UCSORG
 10
0.0
 20
0.0
 30
0.0
  9
$UCSXDIR
 10
1.0
 20
0.0
 30
0.0
  9
$UCSYDIR
 10
0.0
 20
1.0
 30
0.0
  9
$PUCSNAME
  2

  9
$PUCSORG
 10
0.0
 20
0.0
 30
0.0
  9
$PUCSXDIR
 10
1.0
 20
0.0
 30
0.0
  9
$PUCSYDIR
 10
0.0
 20
1.0
 30
0.0
  9
$USERI1
 70
     0
  9
$USERI2
 70
     0
  9
$USERI3
 70
     0
  9
$USERI4
 70
     0
  9
$USERI5
 70
     0
  9
$USERR1
 40
0.0
  9
$USERR2
 40
0.0
  9
$USERR3
 40
0.0
  9
$USERR4
 40
0.0
  9
$USERR5
 40
0.0
  9
$WORLDVIEW
 70
     1
  9
$SHADEDGE
 70
     3
  9
$SHADEDIF
 70
    70
  9
$TILEMODE
 70
     1
  9
$MAXACTVP
 70
    48
  9
$PLIMCHECK
 70
     0
  9
$PEXTMIN
 10
1.0000000000000000E+20
 20
1.0000000000000000E+20
 30
1.0000000000000000E+20
  9
$PEXTMAX
 10
-1.0000000000000000E+20
 20
-1.0000000000000000E+20
 30
-1.0000000000000000E+20
  9
$PLIMMIN
 10
0.0
 20
0.0
  9
$PLIMMAX
 10
12.0
 20
9.0
  9
$UNITMODE
 70
     0
  9
$VISRETAIN
 70
     1
  9
$PLINEGEN
 70
     0
  9
$PSLTSCALE
 70
     1
  0
ENDSEC
  0
SECTION
  2
TABLES
  0
TABLE
  2
VPORT
 70
     1
  0
VPORT
  2
*ACTIVE
 70
     0
 10
0.0
 20
0.0
 11
1.0
 21
1.0
 12
22.3871512939898487
 22
-5.7457191693168967
 13
0.0
 23
0.0
 14
1.0
 24
1.0
 15
0.0
 25
0.0
 16
-0.0000000000000142
 26
0.0
 36
62.4982449722281501
 17
10.5298788448774907
 27
7.0157587596432123
 37
0.0
 40
5.381600465858404
 41
2.095052083333333
 42
50.0
 43
0.0
 44
0.0
 50
0.0
 51
0.0
 71
     0
 72
   100
 73
     1
 74
     1
 75
     0
 76
     0
 77
     0
 78
     0
  0
ENDTAB
  0
TABLE
  2
LTYPE
 70
     1
  0
LTYPE
  2
CONTINUOUS
 70
     0
  3
Solid line
 72
    65
 73
     0
 40
0.0
  0
ENDTAB
  0
TABLE
  2
LAYER
 70
     2
  0
LAYER
  2
0
 70
     0
 62
     7
  6
CONTINUOUS
  0
LAYER
  2
DEFPOINTS
 70
     0
 62
     7
  6
CONTINUOUS
  0
ENDTAB
  0
TABLE
  2
STYLE
 70
     1
  0
STYLE
  2
STANDARD
 70
     0
 40
0.0
 41
0.8
 50
0.0
 71
     0
 42
0.2
  3
txt
  4

  0
ENDTAB
  0
TABLE
  2
VIEW
 70
     0
  0
ENDTAB
  0
TABLE
  2
UCS
 70
     0
  0
ENDTAB
  0
TABLE
  2
APPID
 70
     5
  0
APPID
  2
ACAD
 70
     0
  0
APPID
  2
ACAD_NAV_VCDISPLAY
 70
     0
  0
APPID
  2
ACADANNOTATIVE
 70
     0
  0
APPID
  2
ACDBATTR
 70
     0
  0
APPID
  2
ACAD_MLEADERVER
 70
     0
  0
ENDTAB
  0
TABLE
  2
DIMSTYLE
 70
     1
  0
DIMSTYLE
  2
STANDARD
 70
     0
  3

  4

  5

  6

  7

 40
1.0
 41
0.1875
 42
0.0625
 43
0.38
 44
0.125
 45
0.0
 46
0.0
 47
1.5
 48
1.5
140
0.15625
141
0.09
142
0.0
143
25.3999999999999986
144
1.0
145
0.0
146
1.0
147
0.09
 71
     0
 72
     0
 73
     1
 74
     1
 75
     0
 76
     0
 77
     0
 78
     4
170
     0
171
     2
172
     0
173
     0
174
     0
175
     0
176
     0
177
     0
178
     0
  0
ENDTAB
  0
ENDSEC
  0
SECTION
  2
BLOCKS
  0
BLOCK
  8
0
  2
$MODEL_SPACE
 70
     2
 10
0.0
 20
0.0
 30
0.0
  3
$MODEL_SPACE
  1

  0
ENDBLK
  5
16
  8
0
  0
BLOCK
 67
     1
  8
0
  2
$PAPER_SPACE
 70
     0
 10
0.0
 20
0.0
 30
0.0
  3
$PAPER_SPACE
  1

  0
ENDBLK
  5
1D
 67
     1
  8
0
  0
ENDSEC
  0
SECTION
  2
ENTITIES
  0
ATTDEF
  5
209
  8
DEFPOINTS
 10
35.2048708255501879
 20
-1.3958962236597621
 30
0.0
 40
0.001
  1
P22740-00
  3

  2
MODELNUMBER
 70
     0
1001
ACDBATTR
1070
     0
1070
     1
  0
ATTDEF
  5
20A
  8
DEFPOINTS
 10
35.2048708255501879
 20
-1.397562890326427
 30
0.0
 40
0.001
  1
FOR TOWN
  3

  2
TRADENAME
 70
     0
1001
ACDBATTR
1070
     0
1070
     1
  0
ATTDEF
  5
20B
  8
DEFPOINTS
 10
35.2048708255501879
 20
-1.3992295569930919
 30
0.0
 40
0.001
  1
BATHROOM SINK FAUCET
  3

  2
PRODUCT
 70
     0
1001
ACDBATTR
1070
     0
1070
     1
  0
LINE
  5
2CD
  8
0
 10
34.6709506231262665
 20
3.2354536857814482
 30
0.0
 11
32.6024823130805714
 21
3.188581785287913
 31
0.0
  0
LINE
  5
2CE
  8
0
 10
32.6024823130805714
 20
3.188581785287913
 30
0.0
 11
32.5344181126805765
 21
3.2530327132879142
 31
0.0
  0
LINE
  5
2CF
  8
0
 10
32.5344181126805765
 20
3.2530327132879142
 30
0.0
 11
32.5344181126805765
 21
3.7470755617879128
 31
0.0
  0
LINE
  5
2D0
  8
0
 10
32.5344181126805765
 20
3.7470755617879128
 30
0.0
 11
32.602380864780578
 21
3.8114748565879131
 31
0.0
  0
LINE
  5
2D1
  8
0
 10
32.602380864780578
 20
3.8114748565879131
 30
0.0
 11
34.6709506053405221
 21
3.7043659511297911
 31
0.0
  0
ARC
  5
2D2
  8
0
 10
34.6853017397538466
 20
3.981526120614939
 30
0.0
 40
0.2775314659781584
 50
267.0359169395259755
 51
281.0825430257175981
  0
ARC
  5
2D3
  8
0
 10
34.7216986118424273
 20
3.795710055964677
 30
0.0
 40
0.088184318706429
 50
281.0825430257191897
 51
308.353330224330989
  0
ARC
  5
2D4
  8
0
 10
34.7437037533992168
 20
3.7641500593684931
 30
0.0
 40
0.0498349544946075
 50
311.029514093080877
 51
347.8248333537483177
  0
ARC
  5
2D5
  8
0
 10
35.2094181771527914
 20
2.756396258679473
 30
0.0
 40
1.1830000002084411
 50
74.8132686296549139
 51
105.186731362537202
  0
LINE
  5
2D6
  8
0
 10
35.5193235906805711
 20
3.8980825707456819
 30
0.0
 11
35.5193235906805711
 21
3.857767922487914
 31
0.0
  0
LINE
  5
2D7
  8
0
 10
34.8939181771805806
 20
3.857767922487914
 30
0.0
 11
35.5249181771805667
 21
3.857767922487914
 31
0.0
  0
ARC
  5
2D8
  8
0
 10
35.5249181771805667
 20
3.832767922487915
 30
0.0
 40
0.0249999999999986
 50
359.9999999999959073
 51
90.0
  0
LINE
  5
2D9
  8
0
 10
35.5499181771805723
 20
3.8327679224879141
 30
0.0
 11
35.5499181771805723
 21
3.803636577587914
 31
0.0
  0
LINE
  5
2DA
  8
0
 10
34.8634181771805771
 20
3.803636577587914
 30
0.0
 11
35.5554181771805702
 21
3.803636577587914
 31
0.0
  0
LINE
  5
2DB
  8
0
 10
35.5554181771805702
 20
3.803636577587914
 30
0.0
 11
35.6264181771805681
 21
3.7536365775879128
 31
0.0
  0
LINE
  5
2DC
  8
0
 10
35.6264181771805681
 20
3.7536365775879128
 30
0.0
 11
35.6264181771805681
 21
3.004636577587914
 31
0.0
  0
LINE
  5
2DD
  8
0
 10
35.6264181771805681
 20
3.004636577587914
 30
0.0
 11
34.7924183118805672
 21
3.004636577587914
 31
0.0
  0
LINE
  5
2DE
  8
0
 10
35.6004181771805719
 20
3.004636577587914
 30
0.0
 11
35.5991821223613414
 21
2.9692405977198142
 31
0.0
  0
ARC
  5
2DF
  8
0
 10
35.5592064893197133
 20
2.9706365775473871
 30
0.0
 40
0.0399999999594738
 50
269.9999999439407929
 51
358.0000000560609124
  0
LINE
  5
2E0
  8
0
 10
35.5592064892805695
 20
2.9306365775879142
 30
0.0
 11
34.8596298651805796
 21
2.930636578272392
 31
0.0
  0
ARC
  5
2E1
  8
0
 10
35.9880860105426876
 20
2.9250352699929381
 30
0.0
 40
0.4382036339877011
 50
179.2676007220863994
 51
206.2651594556340058
  0
ARC
  5
2E2
  8
0
 10
35.9874181653132226
 20
2.924798566044974
 30
0.0
 40
0.4375000002597817
 50
206.2760650685171981
 51
242.0401670815610089
  0
ARC
  5
2E3
  8
0
 10
35.7729180414343375
 20
2.5206994377679708
 30
0.0
 40
0.0200001730935629
 50
359.8892737380664926
 51
62.0400288595583476
  0
LINE
  5
2E4
  8
0
 10
35.7929181771805673
 20
2.520660786700736
 30
0.0
 11
35.7929181771805673
 21
2.4716358409007388
 31
0.0
  0
ARC
  5
2E5
  8
0
 10
35.7874626948602312
 20
2.3649079217993472
 30
0.0
 40
0.1068672587982882
 50
5.2406970252356606
 51
87.0738274925201665
  0
ARC
  5
2E6
  8
0
 10
35.4389320813235926
 20
2.3065050635025601
 30
0.0
 40
0.4600292248217893
 50
359.215427956107078
 51
8.5210887372051261
  0
LINE
  5
2E7
  8
0
 10
35.7929181771805673
 20
2.4716358409007388
 30
0.0
 11
34.6259183118805822
 21
2.4716358409007362
 31
0.0
  0
LINE
  5
2E8
  8
0
 10
34.8995128983805785
 20
3.8980825707456819
 30
0.0
 11
34.8995128983805785
 21
3.857767922487914
 31
0.0
  0
ARC
  5
2E9
  8
0
 10
34.8939183118805687
 20
3.832767922487915
 30
0.0
 40
0.0249999999999986
 50
90.0
 51
180.0000000000038938
  0
LINE
  5
2EA
  8
0
 10
34.8689183118805772
 20
3.8327679224879141
 30
0.0
 11
34.8689183118805772
 21
3.803636577587914
 31
0.0
  0
LINE
  5
2EB
  8
0
 10
34.8634183118805794
 20
3.803636577587914
 30
0.0
 11
34.7924183118805672
 21
3.7536365775879128
 31
0.0
  0
LINE
  5
2EC
  8
0
 10
34.7924183118805672
 20
3.7536365775879128
 30
0.0
 11
34.7924183118805672
 21
3.004636577587914
 31
0.0
  0
LINE
  5
2ED
  8
0
 10
34.8184183118805777
 20
3.004636577587914
 30
0.0
 11
34.8196543666998082
 21
2.9692405977198142
 31
0.0
  0
ARC
  5
2EE
  8
0
 10
34.8596299985403633
 20
2.9706365770126339
 30
0.0
 40
0.0399999987404662
 50
181.9999992384703944
 51
269.9998089761800202
  0
ARC
  5
2EF
  8
0
 10
34.4307189152757971
 20
2.9250409224710818
 30
0.0
 40
0.4382351224411084
 50
334.2681187001371086
 51
0.7316075728879227
  0
ARC
  5
2F0
  8
0
 10
34.435186997719633
 20
2.9211728003750839
 30
0.0
 40
0.4325334875506166
 50
297.7440497378768214
 51
334.4727356676128807
  0
ARC
  5
2F1
  8
0
 10
34.6459178940382913
 20
2.5206998541002021
 30
0.0
 40
0.0199996203150293
 50
117.9595311384854028
 51
180.1119220512302093
  0
LINE
  5
2F2
  8
0
 10
34.625918311880568
 20
2.520660786700736
 30
0.0
 11
34.625918311880568
 21
2.4716358409007388
 31
0.0
  0
ARC
  5
2F3
  8
0
 10
34.6313737942009325
 20
2.3649079217993472
 30
0.0
 40
0.1068672587982882
 50
92.9261725074796203
 51
174.7593029747644096
  0
ARC
  5
2F4
  8
0
 10
34.9799044077375569
 20
2.3065050635025601
 30
0.0
 40
0.4600292248217893
 50
171.47891126279481
 51
180.7845720438926946
  0
LINE
  5
2F5
  8
0
 10
34.4659181771805692
 20
2.3002059121007372
 30
0.0
 11
35.952918177180571
 21
2.3002059121007372
 31
0.0
  0
ARC
  5
2F6
  8
0
 10
35.952918177180571
 20
2.2802059121007372
 30
0.0
 40
0.0199999999999991
 50
359.9999999999973852
 51
89.9999999999987637
  0
LINE
  5
2F7
  8
0
 10
35.9729181771805671
 20
2.2802059121007372
 30
0.0
 11
35.97291817718056
 21
2.1092042236007371
 31
0.0
  0
LINE
  5
2F8
  8
0
 10
35.97291817718056
 20
2.1092042236007371
 30
0.0
 11
35.2094181771805665
 21
1.8032059121007371
 31
0.0
  0
LINE
  5
2F9
  8
0
 10
35.2094181771805665
 20
1.8032059121007371
 30
0.0
 11
34.4459181780805821
 21
1.8032059121007371
 31
0.0
  0
LINE
  5
2FA
  8
0
 10
34.4459181780805821
 20
1.8032059121007371
 30
0.0
 11
34.4459181771805802
 21
2.2802059121007372
 31
0.0
  0
ARC
  5
2FB
  8
0
 10
34.4659181771428393
 20
2.2802059121384719
 30
0.0
 40
0.0199999999622627
 50
89.9999998918916759
 51
180.0000001081004086
  0
ARC
  5
2FC
  8
0
 10
35.2088124633383472
 20
1.7210502699427781
 30
0.0
 40
0.5714740448086534
 50
0.8072219352438017
 51
29.4858818805301013
  0
LINE
  5
2FD
  8
0
 10
30.5942407584357809
 20
1.729128725661107
 30
0.0
 11
35.9371508751787303
 21
1.7291004895683191
 31
0.0
  0
ARC
  5
2FE
  8
0
 10
35.9371506638009066
 20
1.689103004731533
 30
0.0
 40
0.0399974848373436
 50
0.0430732814410269
 51
89.9996972045360195
  0
ARC
  5
2FF
  8
0
 10
50.9077102710712168
 20
1.601368230467229
 30
0.0
 40
14.93082008119565
 50
179.663207778570893
 51
183.9678793398987864
  0
ARC
  5
300
  8
0
 10
41.3530007595445568
 20
0.9030600210114521
 30
0.0
 40
5.3508098242174498
 50
183.5880142502878982
 51
198.0654622779115073
  0
ARC
  5
301
  8
0
 10
36.3386886857357823
 20
-0.7762107873389033
 30
0.0
 40
0.0199664763000131
 50
2.4526579367283001
 51
89.2535084361216065
  0
LINE
  5
302
  8
0
 10
36.3586368711889421
 20
-0.7753563442658172
 30
0.0
 11
36.3620942641357914
 21
-0.8598749021388929
 31
0.0
  0
ARC
  5
303
  8
0
 10
36.3546993696867773
 20
-1.021590507156465
 30
0.0
 40
0.1618845927508623
 50
30.3616226846127297
 51
87.3818154940396425
  0
ARC
  5
304
  8
0
 10
36.2440870431001372
 20
-1.058104724174326
 30
0.0
 40
0.2768606180561041
 50
359.7794882271355164
 51
25.3048487868751906
  0
ARC
  5
305
  8
0
 10
36.5958212453357774
 20
-1.079506138338892
 30
0.0
 40
0.0199664762999987
 50
0.0000000000002544
 51
89.9999999998980087
  0
LINE
  5
306
  8
0
 10
36.6157877216357832
 20
-1.079506138338892
 30
0.0
 11
36.6157877216357832
 21
-1.3942083253388919
 31
0.0
  0
LINE
  5
307
  8
0
 10
36.3386886857357894
 20
-0.756244311038893
 30
0.0
 11
34.0801476439378206
 21
-0.7562447810058766
 31
0.0
  0
ARC
  5
308
  8
0
 10
34.0801637579517802
 20
-0.7762354742342721
 30
0.0
 40
0.0199906997229526
 50
90.0461847310890704
 51
177.5204273074056118
  0
LINE
  5
309
  8
0
 10
34.060191775332342
 20
-0.7753706125908045
 30
0.0
 11
34.0567420091357818
 21
-0.8598749021388943
 31
0.0
  0
ARC
  5
30A
  8
0
 10
34.0603722137196527
 20
-1.0153510787416471
 30
0.0
 40
0.1555185515503916
 50
91.3375529324665933
 51
150.9269935255242103
  0
ARC
  5
30B
  8
0
 10
34.1747451139123513
 20
-1.058117570268936
 30
0.0
 40
0.2768606180561041
 50
154.695862576475804
 51
180.2212231362150874
  0
ARC
  5
30C
  8
0
 10
33.8230237728104726
 20
-1.0795187335859731
 30
0.0
 40
0.0199790722855445
 50
90.0716880949305647
 51
180.0139539338507007
  0
LINE
  5
30D
  8
0
 10
33.8030447011174431
 20
-1.079523599330932
 30
0.0
 11
33.8030486085609709
 21
-1.394243247274467
 31
0.0
  0
LINE
  5
30E
  8
0
 10
36.6157877216357832
 20
-1.3942083253388919
 30
0.0
 11
33.8030486085609709
 21
-1.394243247274467
 31
0.0
  0
LINE
  5
30F
  8
0
 10
33.8229987751357868
 20
-1.0595396769388921
 30
0.0
 11
36.5958212453358271
 21
-1.059539662038893
 31
0.0
  0
LINE
  5
310
  8
0
 10
36.3620942641357914
 20
-0.8598749021388929
 30
0.0
 11
34.0567420091357889
 21
-0.8598749021388929
 31
0.0
  0
ARC
  5
311
  8
0
 10
30.5175031053749812
 20
0.4712296532648486
 30
0.0
 40
1.260237574321861
 50
86.509019173572355
 51
130.6216897434798057
  0
ARC
  5
312
  8
0
 10
30.5216124255373984
 20
0.4058410556010808
 30
0.0
 40
1.31313737968092
 50
128.8999913458995934
 51
162.5896017470651032
  0
ARC
  5
313
  8
0
 10
31.7978150893916016
 20
0.2886506864575979
 30
0.0
 40
2.5801071677618568
 50
168.5972296158500114
 51
179.3045366592760104
  0
ARC
  5
314
  8
0
 10
29.2578110780357896
 20
0.3173321956611073
 30
0.0
 40
0.0399999999999996
 50
176.2223521071985886
 51
266.4316748201036944
  0
LINE
  5
315
  8
0
 10
29.2553215271979816
 20
0.277409744125336
 30
0.0
 11
30.2193056130357895
 21
0.2175223121611074
 31
0.0
  0
ARC
  5
316
  8
0
 10
30.2193056130357789
 20
0.2575223121611083
 30
0.0
 40
0.0400000000000014
 50
270.0000000000025011
 51
356.4924787343454113
  0
ARC
  5
317
  8
0
 10
274.767619469234603
 20
-14.7319157300135704
 30
0.0
 40
244.967267367174486
 50
176.4492499789811859
 51
176.4924787343452977
  0
ARC
  5
318
  8
0
 10
30.8427280589400787
 20
0.4040474804936567
 30
0.0
 40
0.5732207297127764
 50
173.2070940832475117
 51
176.4492499789811859
  0
ARC
  5
319
  8
0
 10
30.5233742741923209
 20
0.4254276888152893
 30
0.0
 40
0.2541189501057557
 50
100.862093048682496
 51
169.4744481157833889
  0
ARC
  5
31A
  8
0
 10
30.5671844151541485
 20
0.3004631656890266
 30
0.0
 40
0.3855925765514274
 50
87.0633606874215786
 51
103.7573212272825032
  0
LINE
  5
31B
  8
0
 10
30.586938934935791
 20
0.6855493820611072
 30
0.0
 11
33.5086514147358017
 21
0.6855487563611069
 31
0.0
  0
ARC
  5
31C
  8
0
 10
33.5423594348825915
 20
-0.0259773262290164
 30
0.0
 40
0.7123240813199179
 50
28.1002841090510316
 51
92.7123171459875266
  0
ARC
  5
31D
  8
0
 10
33.4554259548114175
 20
-0.07239603564725
 30
0.0
 40
0.8108742032951834
 50
359.6829924774708047
 51
28.1002841090510316
  0
ARC
  5
31E
  8
0
 10
32.1033178246963402
 20
-0.0649131817823818
 30
0.0
 40
2.1630030391033821
 50
341.3602625324418227
 51
359.6829448024234921
  0
ARC
  5
31F
  8
0
 10
29.7432333707995902
 20
0.2644488877152344
 30
0.0
 40
0.0175270195304946
 50
195.5542102313000896
 51
257.5715037869499042
  0
ARC
  5
320
  8
0
 10
29.7867738928863908
 20
0.2831186259474103
 30
0.0
 40
0.0647873297364555
 50
175.2501520419097858
 51
201.1439677878250905
  0
ARC
  5
321
  8
0
 10
35.1911362480341268
 20
0.0214576601530769
 30
0.0
 40
5.475442202459468
 50
173.7062967132524136
 51
177.2046974459632054
  0
ARC
  5
322
  8
0
 10
30.4980651160118583
 20
0.4532835732232448
 30
0.0
 40
0.7680635312056161
 50
105.1284496724764068
 51
167.3333380258847001
  0
ARC
  5
323
  8
0
 10
30.5260181651117293
 20
0.3337951225527576
 30
0.0
 40
0.890716088359526
 50
98.0759318599802157
 51
104.8582638542444982
  0
ARC
  5
324
  8
0
 10
30.5992214014651687
 20
-1.1068155687755881
 30
0.0
 40
2.3309466678388389
 50
88.6828175688682734
 51
94.8810901786183933
  0
LINE
  5
325
  8
0
 10
30.6528032113357796
 20
1.223515171261107
 30
0.0
 11
33.5086514745357817
 21
1.223932492561107
 31
0.0
  0
ARC
  5
326
  8
0
 10
33.4684509545250108
 20
-2.4348102123088511
 30
0.0
 40
3.6589635502759901
 50
86.8068921839771548
 51
89.3704866306817252
  0
ARC
  5
327
  8
0
 10
33.5573478822307365
 20
-0.2867526590399478
 30
0.0
 40
1.5096053253355921
 50
66.7779711630757902
 51
85.6343725663353865
  0
ARC
  5
328
  8
0
 10
33.4562011258019183
 20
-0.4349926978680792
 30
0.0
 40
1.686070249521596
 50
37.9355723555496667
 51
65.6054515454342493
  0
ARC
  5
329
  8
0
 10
33.4574220184036477
 20
-0.4853035278064768
 30
0.0
 40
1.7165133896779321
 50
23.1956058567821088
 51
39.2852452274544106
  0
ARC
  5
32A
  8
0
 10
32.7084197913568175
 20
-0.7302962695927322
 30
0.0
 40
2.5024403236338659
 50
7.2508379008227486
 51
21.5967637781464816
  0
ARC
  5
32B
  8
0
 10
35.328250145124322
 20
1.686294147586606
 30
0.0
 40
0.1391596342348661
 50
162.0832872478536899
 51
178.8249210598789887
  0
LINE
  5
32C
  8
0
 10
35.1891197764523014
 20
1.68914797196281
 30
0.0
 11
35.1909156699913908
 21
-0.7562445498724637
 31
0.0
  0
LINE
  5
32D
  8
0
 10
35.2094181771805665
 20
3.8839750127879138
 30
0.0
 11
35.2094181771805665
 21
1.8032059121007371
 31
0.0
  0
ARC
  5
32E
  8
0
 10
35.0544654773796296
 20
3.0293899008461431
 30
0.0
 40
0.8685194601896576
 50
79.7228299340831938
 51
100.2771619667364007
  0
ARC
  5
32F
  8
0
 10
35.364370883930583
 20
3.031929495895104
 30
0.0
 40
0.8660207296515983
 50
79.6928531538591329
 51
100.3071468461405971
  0
LINE
  5
330
  8
0
 10
35.6264181771805681
 20
3.7536365775879128
 30
0.0
 11
34.7924177899805827
 21
3.753639810587913
 31
0.0
  0
ARC
  5
331
  8
0
 10
34.6632969419836527
 20
3.123546277131318
 30
0.0
 40
0.1121688323279696
 50
45.9957666075617979
 51
86.0874637427072145
  0
ARC
  5
332
  8
0
 10
34.6204478109536495
 20
3.092896640964315
 30
0.0
 40
0.1642591335639424
 50
12.9150233540119004
 51
42.6703257618797593
  0
ARC
  5
333
  8
0
 10
34.4653321802633528
 20
3.0485201219058218
 30
0.0
 40
0.3254823818108471
 50
4.9189054891757813
 51
14.4263896736831398
  0
ARC
  5
334
  8
0
 10
34.2094946362772419
 20
3.020918548818007
 30
0.0
 40
0.5827709581182471
 50
0.9184384238668043
 51
5.4658419504135489
  0
LINE
  5
335
  8
0
 10
35.2094181649343128
 20
-0.7562445460223844
 30
0.0
 11
35.2094181650441769
 21
-1.39422578630668
 31
0.0
  0
LINE
  5
336
  8
0
 10
32.602380864780578
 20
3.8114748565879131
 30
0.0
 11
32.6024823130805714
 21
3.188581785287913
 31
0.0
  0
ARC
  5
337
  8
0
 10
35.2094181650991729
 20
1.721207593093266
 30
0.0
 40
0.5708661417007899
 50
171.7415580968950053
 51
179.2096883251957138
  0
ENDSEC
  0
EOF
