  0
SECTION
  2
HEADER
  9
$ACADVER
  1
AC1009
  9
$INSBASE
 10
31.2531562631348905
 20
3.1518737527577301
 30
0.0
  9
$EXTMIN
 10
29.6287909487744194
 20
-2.8400600347380371
 30
-0.0015258207003583
  9
$EXTMAX
 10
32.8772317804508134
 20
4.5585703977537051
 30
0.0000000349246037
  9
$LIMMIN
 10
0.0
 20
0.0
  9
$LIMMAX
 10
11.6929133858000007
 20
8.2677165353999982
  9
$ORTHOMODE
 70
     0
  9
$REGENMODE
 70
     1
  9
$FILLMODE
 70
     1
  9
$QTEXTMODE
 70
     0
  9
$MIRRTEXT
 70
     0
  9
$DRAGMODE
 70
     2
  9
$LTSCALE
 40
0.6431102362
  9
$OSMODE
 70
  4095
  9
$ATTMODE
 70
     1
  9
$TEXTSIZE
 40
0.2
  9
$TRACEWID
 40
0.05
  9
$TEXTSTYLE
  7
STANDARD
  9
$CLAYER
  8
0
  9
$CELTYPE
  6
BYLAYER
  9
$CECOLOR
 62
   256
  9
$DIMSCALE
 40
1.0
  9
$DIMASZ
 40
0.1875
  9
$DIMEXO
 40
0.0625
  9
$DIMDLI
 40
0.4443307087
  9
$DIMRND
 40
0.0
  9
$DIMDLE
 40
0.0
  9
$DIMEXE
 40
0.125
  9
$DIMTP
 40
0.0
  9
$DIMTM
 40
0.0
  9
$DIMTXT
 40
0.15625
  9
$DIMCEN
 40
0.1052362205
  9
$DIMTSZ
 40
0.0
  9
$DIMTOL
 70
     0
  9
$DIMLIM
 70
     0
  9
$DIMTIH
 70
     1
  9
$DIMTOH
 70
     1
  9
$DIMSE1
 70
     0
  9
$DIMSE2
 70
     0
  9
$DIMTAD
 70
     0
  9
$DIMZIN
 70
     0
  9
$DIMBLK
  1

  9
$DIMASO
 70
     1
  9
$DIMSHO
 70
     1
  9
$DIMPOST
  1

  9
$DIMAPOST
  1

  9
$DIMALT
 70
     0
  9
$DIMALTD
 70
     2
  9
$DIMALTF
 40
25.3999999999999986
  9
$DIMLFAC
 40
1.0
  9
$DIMTOFL
 70
     0
  9
$DIMTVP
 40
0.0
  9
$DIMTIX
 70
     0
  9
$DIMSOXD
 70
     0
  9
$DIMSAH
 70
     0
  9
$DIMBLK1
  1

  9
$DIMBLK2
  1

  9
$DIMSTYLE
  2
STANDARD
  9
$DIMCLRD
 70
     0
  9
$DIMCLRE
 70
     0
  9
$DIMCLRT
 70
     0
  9
$DIMTFAC
 40
1.0
  9
$DIMGAP
 40
0.09
  9
$LUNITS
 70
     2
  9
$LUPREC
 70
     4
  9
$SKETCHINC
 40
0.1
  9
$FILLETRAD
 40
0.0
  9
$AUNITS
 70
     0
  9
$AUPREC
 70
     0
  9
$MENU
  1
.
  9
$ELEVATION
 40
0.0
  9
$PELEVATION
 40
0.0
  9
$THICKNESS
 40
0.0
  9
$LIMCHECK
 70
     0
  9
$BLIPMODE
 70
     0
  9
$CHAMFERA
 40
0.0
  9
$CHAMFERB
 40
0.0
  9
$SKPOLY
 70
     0
  9
$TDCREATE
 40
2457869.6357754631899297
  9
$TDUPDATE
 40
2459884.6453356482088566
  9
$TDINDWG
 40
0.1018325926
  9
$TDUSRTIMER
 40
0.1018325926
  9
$USRTIMER
 70
     1
  9
$ANGBASE
 50
0.0
  9
$ANGDIR
 70
     0
  9
$PDMODE
 70
     0
  9
$PDSIZE
 40
0.3125
  9
$PLINEWID
 40
0.0
  9
$COORDS
 70
     1
  9
$SPLFRAME
 70
     0
  9
$SPLINETYPE
 70
     6
  9
$SPLINESEGS
 70
     8
  9
$ATTDIA
 70
     1
  9
$ATTREQ
 70
     1
  9
$HANDLING
 70
     1
  9
$HANDSEED
  5
460
  9
$SURFTAB1
 70
     6
  9
$SURFTAB2
 70
     6
  9
$SURFTYPE
 70
     6
  9
$SURFU
 70
     6
  9
$SURFV
 70
     6
  9
$UCSNAME
  2

  9
$UCSORG
 10
0.0
 20
0.0
 30
0.0
  9
$UCSXDIR
 10
1.0
 20
0.0
 30
0.0
  9
$UCSYDIR
 10
0.0
 20
1.0
 30
0.0
  9
$PUCSNAME
  2

  9
$PUCSORG
 10
0.0
 20
0.0
 30
0.0
  9
$PUCSXDIR
 10
1.0
 20
0.0
 30
0.0
  9
$PUCSYDIR
 10
0.0
 20
1.0
 30
0.0
  9
$USERI1
 70
     0
  9
$USERI2
 70
     0
  9
$USERI3
 70
     0
  9
$USERI4
 70
     0
  9
$USERI5
 70
     0
  9
$USERR1
 40
0.0
  9
$USERR2
 40
0.0
  9
$USERR3
 40
0.0
  9
$USERR4
 40
0.0
  9
$USERR5
 40
0.0
  9
$WORLDVIEW
 70
     1
  9
$SHADEDGE
 70
     3
  9
$SHADEDIF
 70
    70
  9
$TILEMODE
 70
     1
  9
$MAXACTVP
 70
    48
  9
$PLIMCHECK
 70
     0
  9
$PEXTMIN
 10
1.0000000000000000E+20
 20
1.0000000000000000E+20
 30
1.0000000000000000E+20
  9
$PEXTMAX
 10
-1.0000000000000000E+20
 20
-1.0000000000000000E+20
 30
-1.0000000000000000E+20
  9
$PLIMMIN
 10
0.0
 20
0.0
  9
$PLIMMAX
 10
12.0
 20
9.0
  9
$UNITMODE
 70
     0
  9
$VISRETAIN
 70
     1
  9
$PLINEGEN
 70
     0
  9
$PSLTSCALE
 70
     1
  0
ENDSEC
  0
SECTION
  2
TABLES
  0
TABLE
  2
VPORT
 70
     1
  0
VPORT
  2
*ACTIVE
 70
     0
 10
0.0
 20
0.0
 11
1.0
 21
1.0
 12
20.723132519735131
 22
-6.1565035781353776
 13
0.0
 23
0.0
 14
1.0
 24
1.0
 15
0.0
 25
0.0
 16
-0.0000000000000142
 26
0.0
 36
62.4982449722281501
 17
10.5298788448774907
 27
7.0157587596432123
 37
0.0
 40
7.4563570678557873
 41
2.095052083333333
 42
50.0
 43
0.0
 44
0.0
 50
0.0
 51
0.0
 71
     0
 72
   100
 73
     1
 74
     1
 75
     0
 76
     0
 77
     0
 78
     0
  0
ENDTAB
  0
TABLE
  2
LTYPE
 70
     1
  0
LTYPE
  2
CONTINUOUS
 70
     0
  3
Solid line
 72
    65
 73
     0
 40
0.0
  0
ENDTAB
  0
TABLE
  2
LAYER
 70
     2
  0
LAYER
  2
0
 70
     0
 62
     7
  6
CONTINUOUS
  0
LAYER
  2
DEFPOINTS
 70
     0
 62
     7
  6
CONTINUOUS
  0
ENDTAB
  0
TABLE
  2
STYLE
 70
     1
  0
STYLE
  2
STANDARD
 70
     0
 40
0.0
 41
0.8
 50
0.0
 71
     0
 42
0.2
  3
txt
  4

  0
ENDTAB
  0
TABLE
  2
VIEW
 70
     0
  0
ENDTAB
  0
TABLE
  2
UCS
 70
     0
  0
ENDTAB
  0
TABLE
  2
APPID
 70
     5
  0
APPID
  2
ACAD
 70
     0
  0
APPID
  2
ACAD_NAV_VCDISPLAY
 70
     0
  0
APPID
  2
ACADANNOTATIVE
 70
     0
  0
APPID
  2
ACDBATTR
 70
     0
  0
APPID
  2
ACAD_MLEADERVER
 70
     0
  0
ENDTAB
  0
TABLE
  2
DIMSTYLE
 70
     1
  0
DIMSTYLE
  2
STANDARD
 70
     0
  3

  4

  5

  6

  7

 40
1.0
 41
0.1875
 42
0.0625
 43
0.38
 44
0.125
 45
0.0
 46
0.0
 47
1.5
 48
1.5
140
0.15625
141
0.09
142
0.0
143
25.3999999999999986
144
1.0
145
0.0
146
1.0
147
0.09
 71
     0
 72
     0
 73
     1
 74
     1
 75
     0
 76
     0
 77
     0
 78
     4
170
     0
171
     2
172
     0
173
     0
174
     0
175
     0
176
     0
177
     0
178
     0
  0
ENDTAB
  0
ENDSEC
  0
SECTION
  2
BLOCKS
  0
BLOCK
  8
0
  2
$MODEL_SPACE
 70
     2
 10
0.0
 20
0.0
 30
0.0
  3
$MODEL_SPACE
  1

  0
ENDBLK
  5
16
  8
0
  0
BLOCK
 67
     1
  8
0
  2
$PAPER_SPACE
 70
     0
 10
0.0
 20
0.0
 30
0.0
  3
$PAPER_SPACE
  1

  0
ENDBLK
  5
1D
 67
     1
  8
0
  0
ENDSEC
  0
SECTION
  2
ENTITIES
  0
ATTDEF
  5
209
  8
DEFPOINTS
 10
31.2479617145502289
 20
3.149736311607902
 30
0.0
 40
0.001
  1
P22740-00
  3

  2
MODELNUMBER
 70
     0
1001
ACDBATTR
1070
     0
1070
     1
  0
ATTDEF
  5
20A
  8
DEFPOINTS
 10
31.2479617145502289
 20
3.1480696449412369
 30
0.0
 40
0.001
  1
FOR TOWN
  3

  2
TRADENAME
 70
     0
1001
ACDBATTR
1070
     0
1070
     1
  0
ATTDEF
  5
20B
  8
DEFPOINTS
 10
31.2479617145502289
 20
3.1464029782745722
 30
0.0
 40
0.001
  1
BATHROOM SINK FAUCET
  3

  2
PRODUCT
 70
     0
1001
ACDBATTR
1070
     0
1070
     1
  0
LINE
  5
2D7
  8
0
 10
30.8953083153848915
 20
3.1518737527577301
 30
0.0
 11
31.074232289284879
 21
3.4617791661577288
 31
0.0
  0
LINE
  5
2D8
  8
0
 10
31.6110042108848894
 20
3.1518737527577301
 30
0.0
 11
31.4320802369848806
 21
2.8419683393577269
 31
0.0
  0
LINE
  5
2D9
  8
0
 10
31.074232289284879
 20
2.8419683393577269
 30
0.0
 11
30.8953083153848915
 21
3.1518737527577301
 31
0.0
  0
LINE
  5
2DA
  8
0
 10
31.4320802369848806
 20
3.4617791661577288
 30
0.0
 11
31.6110042108848894
 21
3.1518737527577301
 31
0.0
  0
LINE
  5
2DB
  8
0
 10
31.4320802369848806
 20
2.8419683393577269
 30
0.0
 11
31.074232289284879
 21
2.8419683393577269
 31
0.0
  0
LINE
  5
2DC
  8
0
 10
31.074232289284879
 20
3.4617791661577288
 30
0.0
 11
31.4320802369848806
 21
3.4617791661577288
 31
0.0
  0
LINE
  5
2DD
  8
0
 10
30.4411884209848793
 20
4.5582433094577288
 30
0.0
 11
32.0651241052848803
 21
4.5582433094577288
 31
0.0
  0
LINE
  5
2DE
  8
0
 10
32.0651241052848803
 20
4.5582433094577288
 30
0.0
 11
32.8770919473848835
 21
3.1518737527577301
 31
0.0
  0
LINE
  5
2DF
  8
0
 10
32.8770919473848835
 20
3.1518737527577301
 30
0.0
 11
32.0651241052848803
 21
1.745504196057726
 31
0.0
  0
LINE
  5
2E0
  8
0
 10
32.0651241052848803
 20
1.745504196057726
 30
0.0
 11
31.8511970360848906
 21
1.745504196057726
 31
0.0
  0
LINE
  5
2E1
  8
0
 10
30.6486374156141608
 20
1.840236417557729
 30
0.0
 11
30.4958256249694095
 21
1.840334229957729
 31
0.0
  0
LINE
  5
2E2
  8
0
 10
30.4958256249694095
 20
1.840334229957729
 30
0.0
 11
29.7386031676848894
 21
3.1518655068577281
 31
0.0
  0
LINE
  5
2E3
  8
0
 10
29.7386031676848894
 20
3.1518655068577281
 30
0.0
 11
30.4958725741848902
 21
4.4635110858577276
 31
0.0
  0
LINE
  5
2E4
  8
0
 10
30.4958725741848902
 20
4.4635110858577276
 30
0.0
 11
32.0099944398848919
 21
4.4627559279577289
 31
0.0
  0
LINE
  5
2E5
  8
0
 10
32.0099944398848919
 20
4.4627559279577289
 30
0.0
 11
32.7668326165848924
 21
3.1518737527577301
 31
0.0
  0
LINE
  5
2E6
  8
0
 10
32.7668326165848924
 20
3.1518737527577301
 30
0.0
 11
32.0104332647898033
 21
1.8402413190504061
 31
0.0
  0
LINE
  5
2E7
  8
0
 10
32.0104332647898033
 20
1.8402413190504061
 30
0.0
 11
31.8576751064676387
 21
1.840236417557729
 31
0.0
  0
LINE
  5
2E8
  8
0
 10
31.8743843697848916
 20
2.002653412857728
 30
0.0
 11
31.9166569092848889
 21
2.0026550464577251
 31
0.0
  0
LINE
  5
2E9
  8
0
 10
31.9166569092848889
 20
2.0026550464577251
 30
0.0
 11
32.5801595933096593
 21
3.1518737527577301
 31
0.0
  0
LINE
  5
2EA
  8
0
 10
32.5801595933096593
 20
3.1518737527577301
 30
0.0
 11
31.9166580250848817
 21
4.3010924025577282
 31
0.0
  0
LINE
  5
2EB
  8
0
 10
31.9166580250848817
 20
4.3010924025577282
 30
0.0
 11
30.5896545096848804
 21
4.3010917878577279
 31
0.0
  0
LINE
  5
2EC
  8
0
 10
30.5896545096848804
 20
4.3010917878577279
 30
0.0
 11
29.9261535774066516
 21
3.151873007622445
 31
0.0
  0
LINE
  5
2ED
  8
0
 10
29.9261535774066516
 20
3.151873007622445
 30
0.0
 11
30.5896556169848886
 21
2.0026550464577251
 31
0.0
  0
LINE
  5
2EE
  8
0
 10
30.5896556169848886
 20
2.0026550464577251
 30
0.0
 11
30.6319279415848911
 21
2.0026550464577251
 31
0.0
  0
LINE
  5
2EF
  8
0
 10
31.8969417333848888
 20
2.1538386356577268
 30
0.0
 11
32.4623586557848824
 21
3.1331707640577271
 31
0.0
  0
ARC
  5
2F0
  8
0
 10
32.4364092676352413
 20
3.1520453147596501
 30
0.0
 40
0.0320876831438548
 50
323.9693508487571876
 51
35.3691626809120265
  0
LINE
  5
2F1
  8
0
 10
32.4625748304635309
 20
3.1706190255202702
 30
0.0
 11
31.8740032560680717
 21
4.1896126165961176
 31
0.0
  0
ARC
  5
2F2
  8
0
 10
31.8399754059300086
 20
4.1682978371045003
 30
0.0
 40
0.0401523898391538
 50
32.0627074871332098
 51
88.0238763110812243
  0
LINE
  5
2F3
  8
0
 10
31.8413599818848887
 20
4.2084263476577268
 30
0.0
 11
30.6649525442848905
 21
4.2084265329577271
 31
0.0
  0
LINE
  5
2F4
  8
0
 10
31.4597120833261386
 20
2.3883737527577291
 30
0.0
 11
31.6939641587848797
 21
2.3883737527577291
 31
0.0
  0
LINE
  5
2F5
  8
0
 10
31.6939641587848797
 20
2.3883737527577291
 30
0.0
 11
32.1347749499848874
 21
3.1518737527577301
 31
0.0
  0
LINE
  5
2F6
  8
0
 10
32.1347749499848874
 20
3.1518737527577301
 30
0.0
 11
31.6939641587848797
 21
3.915373752757727
 31
0.0
  0
LINE
  5
2F7
  8
0
 10
31.6939641587848797
 20
3.915373752757727
 30
0.0
 11
30.8123483673848817
 21
3.915373752757727
 31
0.0
  0
LINE
  5
2F8
  8
0
 10
30.8123483673848817
 20
3.915373752757727
 30
0.0
 11
30.3715375762848794
 21
3.1518737527577301
 31
0.0
  0
LINE
  5
2F9
  8
0
 10
30.3715375762848794
 20
3.1518737527577301
 30
0.0
 11
30.8123483673848817
 21
2.3883737527577291
 31
0.0
  0
LINE
  5
2FA
  8
0
 10
30.8123483673848817
 20
2.3883737527577291
 30
0.0
 11
31.0466004428385496
 21
2.3883737527577291
 31
0.0
  0
LINE
  5
2FB
  8
0
 10
31.4555686582361496
 20
2.4623737527577272
 30
0.0
 11
31.6512404259848914
 21
2.4623737527577272
 31
0.0
  0
LINE
  5
2FC
  8
0
 10
31.6512404259848914
 20
2.4623737527577272
 30
0.0
 11
32.049326923084891
 21
3.1518737527577301
 31
0.0
  0
LINE
  5
2FD
  8
0
 10
32.049326923084891
 20
3.1518737527577301
 30
0.0
 11
31.6512404259848914
 21
3.8413737527577281
 31
0.0
  0
LINE
  5
2FE
  8
0
 10
31.6512404259848914
 20
3.8413737527577281
 30
0.0
 11
30.8550721002848896
 21
3.8413737527577281
 31
0.0
  0
LINE
  5
2FF
  8
0
 10
30.8550721002848896
 20
3.8413737527577281
 30
0.0
 11
30.4569856031848794
 21
3.1518737527577301
 31
0.0
  0
LINE
  5
300
  8
0
 10
30.4569856031848794
 20
3.1518737527577301
 30
0.0
 11
30.8550721002848896
 21
2.4623737527577272
 31
0.0
  0
LINE
  5
301
  8
0
 10
30.8550721002848896
 20
2.4623737527577272
 30
0.0
 11
31.05074386792365
 21
2.4623737527577272
 31
0.0
  0
LINE
  5
302
  8
0
 10
31.4940806341915085
 20
2.7345810659023
 30
0.0
 11
31.7346663998296705
 21
3.1518737527577301
 31
0.0
  0
LINE
  5
303
  8
0
 10
31.7346663998296705
 20
3.1518737527577301
 30
0.0
 11
31.4939113253848788
 21
3.5688737527577281
 31
0.0
  0
LINE
  5
304
  8
0
 10
31.4939113253848788
 20
3.5688737527577281
 30
0.0
 11
31.0123987535140984
 21
3.5688737527577281
 31
0.0
  0
LINE
  5
305
  8
0
 10
31.0123987535140984
 20
3.5688737527577281
 30
0.0
 11
30.7716461509296693
 21
3.1518737527577301
 31
0.0
  0
LINE
  5
306
  8
0
 10
30.7716461509296693
 20
3.1518737527577301
 30
0.0
 11
31.0122318920782583
 21
2.7345810659023
 31
0.0
  0
LINE
  5
307
  8
0
 10
31.6463317963848887
 20
3.1518737527577301
 30
0.0
 11
31.4497440297848883
 21
3.4923737527577279
 31
0.0
  0
LINE
  5
308
  8
0
 10
31.4497440297848883
 20
3.4923737527577279
 30
0.0
 11
31.0565684964848892
 21
3.4923737527577279
 31
0.0
  0
LINE
  5
309
  8
0
 10
31.0565684964848892
 20
3.4923737527577279
 30
0.0
 11
30.8599807297848905
 21
3.1518737527577301
 31
0.0
  0
LINE
  5
30A
  8
0
 10
30.8599807297848905
 20
3.1518737527577301
 30
0.0
 11
31.0565684036070309
 21
2.8113737527577261
 31
0.0
  0
LINE
  5
30B
  8
0
 10
31.0565684036070309
 20
2.8113737527577261
 30
0.0
 11
31.4497440297848883
 21
2.8113737527577269
 31
0.0
  0
LINE
  5
30C
  8
0
 10
31.4497440297848883
 20
2.8113737527577269
 30
0.0
 11
31.6463317963848887
 21
3.1518737527577301
 31
0.0
  0
ARC
  5
30D
  8
0
 10
31.5089637674385905
 20
2.6815800583859999
 30
0.0
 40
0.0550510168207008
 50
105.6851931567776006
 51
166.3565649473164001
  0
ARC
  5
30E
  8
0
 10
31.682887546422549
 20
2.6301461846648229
 30
0.0
 40
0.2363690517446294
 50
164.1847277264799914
 51
184.0611704336795071
  0
LINE
  5
30F
  8
0
 10
31.4471120154848904
 20
2.6134061836577258
 30
0.0
 11
31.5629358502848909
 21
0.5448364402577291
 31
0.0
  0
LINE
  5
310
  8
0
 10
31.5629358502848909
 20
0.5448364402577291
 30
0.0
 11
31.4985365553848915
 21
0.4768736882577294
 31
0.0
  0
LINE
  5
311
  8
0
 10
31.4985365553848915
 20
0.4768736882577294
 30
0.0
 11
31.0077759708848895
 21
0.4768736882577294
 31
0.0
  0
LINE
  5
312
  8
0
 10
31.4496334817848897
 20
2.5683737527577288
 30
0.0
 11
31.590040856696131
 21
2.5683739588638779
 31
0.0
  0
LINE
  5
313
  8
0
 10
31.590040856696131
 20
2.5683739588638779
 30
0.0
 11
31.9269282801011016
 21
3.151873956936647
 31
0.0
  0
LINE
  5
314
  8
0
 10
31.9269282801011016
 20
3.151873956936647
 30
0.0
 11
31.5900415653848796
 21
3.7353737527577269
 31
0.0
  0
LINE
  5
315
  8
0
 10
31.5900415653848796
 20
3.7353737527577269
 30
0.0
 11
30.9162707250272604
 21
3.7353737527577269
 31
0.0
  0
LINE
  5
316
  8
0
 10
30.9162707250272604
 20
3.7353737527577269
 30
0.0
 11
30.5793841282848895
 21
3.1518737527577301
 31
0.0
  0
LINE
  5
317
  8
0
 10
30.5793841282848895
 20
3.1518737527577301
 30
0.0
 11
30.91627155057758
 21
2.5683737527577311
 31
0.0
  0
LINE
  5
318
  8
0
 10
30.91627155057758
 20
2.5683737527577311
 30
0.0
 11
31.0566790443969083
 21
2.5683737527577288
 31
0.0
  0
ARC
  5
319
  8
0
 10
32.5164270097911228
 20
2.668520450217688
 30
0.0
 40
0.4677855266868138
 50
96.6372898288346676
 51
149.7676676028229963
  0
ARC
  5
31A
  8
0
 10
34.4339058715334474
 20
1.8427983527863561
 30
0.0
 40
2.5527008624313972
 50
155.4341771823478098
 51
170.6765382938347102
  0
ARC
  5
31B
  8
0
 10
35.2204615634736271
 20
1.589560713604651
 30
0.0
 40
3.3721167037721731
 50
168.5952897248261877
 51
180.8030410163586907
  0
LINE
  5
31C
  8
0
 10
31.8486760637848789
 20
1.5422996519577299
 30
0.0
 11
31.8479721913848799
 21
1.4511056891577281
 31
0.0
  0
LINE
  5
31D
  8
0
 10
31.8479721913848799
 20
1.4511056891577281
 30
0.0
 11
31.8482480469848888
 21
-2.311724055442272
 31
0.0
  0
ARC
  5
31E
  8
0
 10
31.7976909178109217
 20
-2.3118664336164789
 30
0.0
 40
0.0505573296551266
 50
332.2388916550888212
 51
0.1613550263705625
  0
LINE
  5
31F
  8
0
 10
31.8424289647848902
 20
-2.3354153345422719
 30
0.0
 11
31.5612771487842103
 21
-2.8194067349394838
 31
0.0
  0
ARC
  5
320
  8
0
 10
31.5262401979434195
 20
-2.799374422795736
 30
0.0
 40
0.0403594035392587
 50
270.2829653774495
 51
330.2413169077540829
  0
LINE
  5
321
  8
0
 10
31.5264395192115501
 20
-2.839733334142263
 30
0.0
 11
30.9798730070582202
 21
-2.839733334142263
 31
0.0
  0
LINE
  5
322
  8
0
 10
30.4411884209848793
 20
4.5582433094577288
 30
0.0
 11
29.6292205788848904
 21
3.1518737527577301
 31
0.0
  0
LINE
  5
323
  8
0
 10
29.6292205788848904
 20
3.1518737527577301
 30
0.0
 11
30.4411884209848793
 21
1.745504196057726
 31
0.0
  0
LINE
  5
324
  8
0
 10
30.4411884209848793
 20
1.745504196057726
 30
0.0
 11
30.6551154901848797
 21
1.745504196057726
 31
0.0
  0
LINE
  5
325
  8
0
 10
30.6093707928848886
 20
2.1538386356577268
 30
0.0
 11
30.0439538704848808
 21
3.1331707640577271
 31
0.0
  0
ARC
  5
326
  8
0
 10
30.069903258634529
 20
3.1520453147596501
 30
0.0
 40
0.0320876831438548
 50
144.6308373190879877
 51
216.0306491512424998
  0
LINE
  5
327
  8
0
 10
30.0437376958062394
 20
3.1706190255202702
 30
0.0
 11
30.6323092702016915
 21
4.1896126165961176
 31
0.0
  0
ARC
  5
328
  8
0
 10
30.666337686898661
 20
4.1682972493284893
 30
0.0
 40
0.040153181999143
 50
91.9768937515103033
 51
147.9370108868442912
  0
ARC
  5
329
  8
0
 10
29.9898855164786511
 20
2.668520450217688
 30
0.0
 40
0.4677855266868138
 50
30.2323323971769788
 51
83.3627101711653467
  0
ARC
  5
32A
  8
0
 10
28.0724066547363194
 20
1.8427983527863561
 30
0.0
 40
2.5527008624313972
 50
9.323461706165272
 51
24.5658228176520801
  0
ARC
  5
32B
  8
0
 10
27.2858509627961396
 20
1.589560713604651
 30
0.0
 40
3.3721167037721731
 50
359.1969589836410819
 51
11.4047102751736507
  0
LINE
  5
32C
  8
0
 10
30.6576364624848807
 20
1.5422996519577299
 30
0.0
 11
30.6583403348848904
 21
1.4511056891577281
 31
0.0
  0
LINE
  5
32D
  8
0
 10
30.6583403348848904
 20
1.4511056891577281
 30
0.0
 11
30.6580644792848815
 21
-2.311724055442272
 31
0.0
  0
ARC
  5
32E
  8
0
 10
30.7086216084588486
 20
-2.3118664336164789
 30
0.0
 40
0.0505573296551266
 50
179.8386449736294139
 51
207.7611083449108946
  0
LINE
  5
32F
  8
0
 10
30.6638835614848801
 20
-2.3354153345422719
 30
0.0
 11
30.94503537748556
 21
-2.8194067349394838
 31
0.0
  0
ARC
  5
330
  8
0
 10
30.9800722982275509
 20
-2.7993744743818829
 30
0.0
 40
0.0403593518051042
 50
209.7586407249582123
 51
269.7170769898398248
  0
ARC
  5
331
  8
0
 10
30.9973556971373192
 20
2.6815867537458571
 30
0.0
 40
0.0550426952179434
 50
13.6383658804123904
 51
74.3198760154794371
  0
ARC
  5
332
  8
0
 10
30.8234249798472213
 20
2.6301461846648229
 30
0.0
 40
0.2363690517446294
 50
355.9388295663202939
 51
15.8152722735200104
  0
LINE
  5
333
  8
0
 10
31.0592005107848799
 20
2.6134061836577258
 30
0.0
 11
30.9433766759848794
 21
0.5448364402577291
 31
0.0
  0
LINE
  5
334
  8
0
 10
30.9433766759848794
 20
0.5448364402577291
 30
0.0
 11
31.0077759708848788
 21
0.4768736882577294
 31
0.0
  0
LINE
  5
335
  8
0
 10
32.7668326165848924
 20
3.1518737527577301
 30
0.0
 11
32.5801595933096593
 21
3.1518737527577301
 31
0.0
  0
LINE
  5
336
  8
0
 10
32.049326923084891
 20
3.1518737527577301
 30
0.0
 11
31.6110042108848894
 21
3.1518737527577301
 31
0.0
  0
LINE
  5
337
  8
0
 10
31.4320802369848806
 20
3.4617791661577288
 30
0.0
 11
31.6512404259848914
 21
3.8413737527577281
 31
0.0
  0
LINE
  5
338
  8
0
 10
31.074232289284879
 20
3.4617791661577288
 30
0.0
 11
30.8550721002848896
 21
3.8413737527577281
 31
0.0
  0
LINE
  5
339
  8
0
 10
30.8953083153848915
 20
3.1518737527577301
 30
0.0
 11
30.4569856031848794
 21
3.1518737527577301
 31
0.0
  0
LINE
  5
33A
  8
0
 10
31.6512404259848914
 20
2.4623737527577272
 30
0.0
 11
31.4320802369848806
 21
2.8419683393577269
 31
0.0
  0
LINE
  5
33B
  8
0
 10
32.0099944398848919
 20
4.4627559279577289
 30
0.0
 11
31.9166580250848817
 21
4.3010924025577282
 31
0.0
  0
LINE
  5
33C
  8
0
 10
30.4958725741848902
 20
4.4635110858577276
 30
0.0
 11
30.5896545096848804
 21
4.3010917878577279
 31
0.0
  0
LINE
  5
33D
  8
0
 10
29.7386031676848894
 20
3.1518655068577281
 30
0.0
 11
29.9261535774066516
 21
3.151873007622445
 31
0.0
  0
LINE
  5
33E
  8
0
 10
32.0104332647898033
 20
1.8402413190504061
 30
0.0
 11
31.9166569092848889
 21
2.0026550464577251
 31
0.0
  0
LINE
  5
33F
  8
0
 10
30.5896556169848886
 20
2.0026550464577251
 30
0.0
 11
30.4958256249694095
 21
1.840334229957729
 31
0.0
  0
LINE
  5
340
  8
0
 10
31.6939641587848797
 20
3.915373752757727
 30
0.0
 11
31.8600501014247293
 21
4.2030716923781064
 31
0.0
  0
LINE
  5
341
  8
0
 10
32.1347749499848874
 20
3.1518737527577301
 30
0.0
 11
32.4684969455888321
 21
3.1520635654226039
 31
0.0
  0
LINE
  5
342
  8
0
 10
30.3715375762848794
 20
3.1518737527577301
 30
0.0
 11
30.037815580680931
 21
3.1520635654226039
 31
0.0
  0
LINE
  5
343
  8
0
 10
30.8123483673848817
 20
3.915373752757727
 30
0.0
 11
30.6462872051389006
 21
4.2030859860956928
 31
0.0
  0
ARC
  5
344
  8
0
 10
34.9250000613914224
 20
1.3032770185764411
 30
0.0
 40
3.4017745010245131
 50
160.8727730495687922
 51
177.5093319264626928
  0
LINE
  5
345
  8
0
 10
31.5264367889140793
 20
0.5063177474672464
 30
0.0
 11
31.5264395192115501
 21
-2.839733334142263
 31
0.0
  0
LINE
  5
346
  8
0
 10
31.5264473598812494
 20
1.4512948920867319
 30
0.0
 11
31.5264473598812387
 21
1.196507034325389
 31
0.0
  0
ARC
  5
347
  8
0
 10
27.5813124648783585
 20
1.3032770185764411
 30
0.0
 40
3.4017745010245131
 50
2.4906680735373419
 51
19.1272269504311083
  0
LINE
  5
348
  8
0
 10
30.979875737355691
 20
0.5063177474672464
 30
0.0
 11
30.9798730070582202
 21
-2.839733334142263
 31
0.0
  0
LINE
  5
349
  8
0
 10
30.9798651663885209
 20
1.4512948920867319
 30
0.0
 11
30.9798651663885316
 21
1.196507034325389
 31
0.0
  0
LINE
  5
34A
  8
0
 10
31.0122318920782511
 20
2.7345810659023
 30
0.0
 11
31.4940806341915192
 21
2.7345810659023071
 31
0.0
  0
LINE
  5
34B
  8
0
 10
31.074232289284879
 20
2.8419683393577269
 30
0.0
 11
30.8550721002848896
 21
2.4623737527577272
 31
0.0
  0
ENDSEC
  0
EOF
