  0
SECTION
  2
HEADER
  9
$ACADVER
  1
AC1009
  9
$INSBASE
 10
31.9739431955523692
 20
0.3663056621507885
 30
0.0
  9
$EXTMIN
 10
30.3497030652708197
 20
0.3611827656548989
 30
-0.0015258207003583
  9
$EXTMAX
 10
33.6001019743952298
 20
5.7000768628637104
 30
0.0000000349246037
  9
$LIMMIN
 10
0.0
 20
0.0
  9
$LIMMAX
 10
11.6929133858000007
 20
8.2677165353999982
  9
$ORTHOMODE
 70
     0
  9
$REGENMODE
 70
     1
  9
$FILLMODE
 70
     1
  9
$QTEXTMODE
 70
     0
  9
$MIRRTEXT
 70
     0
  9
$DRAGMODE
 70
     2
  9
$LTSCALE
 40
0.6431102362
  9
$OSMODE
 70
  4095
  9
$ATTMODE
 70
     1
  9
$TEXTSIZE
 40
0.2
  9
$TRACEWID
 40
0.05
  9
$TEXTSTYLE
  7
STANDARD
  9
$CLAYER
  8
0
  9
$CELTYPE
  6
BYLAYER
  9
$CECOLOR
 62
   256
  9
$DIMSCALE
 40
1.0
  9
$DIMASZ
 40
0.1875
  9
$DIMEXO
 40
0.0625
  9
$DIMDLI
 40
0.4443307087
  9
$DIMRND
 40
0.0
  9
$DIMDLE
 40
0.0
  9
$DIMEXE
 40
0.125
  9
$DIMTP
 40
0.0
  9
$DIMTM
 40
0.0
  9
$DIMTXT
 40
0.15625
  9
$DIMCEN
 40
0.1052362205
  9
$DIMTSZ
 40
0.0
  9
$DIMTOL
 70
     0
  9
$DIMLIM
 70
     0
  9
$DIMTIH
 70
     1
  9
$DIMTOH
 70
     1
  9
$DIMSE1
 70
     0
  9
$DIMSE2
 70
     0
  9
$DIMTAD
 70
     0
  9
$DIMZIN
 70
     0
  9
$DIMBLK
  1

  9
$DIMASO
 70
     1
  9
$DIMSHO
 70
     1
  9
$DIMPOST
  1

  9
$DIMAPOST
  1

  9
$DIMALT
 70
     0
  9
$DIMALTD
 70
     2
  9
$DIMALTF
 40
25.3999999999999986
  9
$DIMLFAC
 40
1.0
  9
$DIMTOFL
 70
     0
  9
$DIMTVP
 40
0.0
  9
$DIMTIX
 70
     0
  9
$DIMSOXD
 70
     0
  9
$DIMSAH
 70
     0
  9
$DIMBLK1
  1

  9
$DIMBLK2
  1

  9
$DIMSTYLE
  2
STANDARD
  9
$DIMCLRD
 70
     0
  9
$DIMCLRE
 70
     0
  9
$DIMCLRT
 70
     0
  9
$DIMTFAC
 40
1.0
  9
$DIMGAP
 40
0.09
  9
$LUNITS
 70
     2
  9
$LUPREC
 70
     4
  9
$SKETCHINC
 40
0.1
  9
$FILLETRAD
 40
0.0
  9
$AUNITS
 70
     0
  9
$AUPREC
 70
     0
  9
$MENU
  1
.
  9
$ELEVATION
 40
0.0
  9
$PELEVATION
 40
0.0
  9
$THICKNESS
 40
0.0
  9
$LIMCHECK
 70
     0
  9
$BLIPMODE
 70
     0
  9
$CHAMFERA
 40
0.0
  9
$CHAMFERB
 40
0.0
  9
$SKPOLY
 70
     0
  9
$TDCREATE
 40
2457869.6357754631899297
  9
$TDUPDATE
 40
2459884.6454745368100703
  9
$TDINDWG
 40
0.1017168519
  9
$TDUSRTIMER
 40
0.1017168519
  9
$USRTIMER
 70
     1
  9
$ANGBASE
 50
0.0
  9
$ANGDIR
 70
     0
  9
$PDMODE
 70
     0
  9
$PDSIZE
 40
0.3125
  9
$PLINEWID
 40
0.0
  9
$COORDS
 70
     1
  9
$SPLFRAME
 70
     0
  9
$SPLINETYPE
 70
     6
  9
$SPLINESEGS
 70
     8
  9
$ATTDIA
 70
     1
  9
$ATTREQ
 70
     1
  9
$HANDLING
 70
     1
  9
$HANDSEED
  5
52C
  9
$SURFTAB1
 70
     6
  9
$SURFTAB2
 70
     6
  9
$SURFTYPE
 70
     6
  9
$SURFU
 70
     6
  9
$SURFV
 70
     6
  9
$UCSNAME
  2

  9
$UCSORG
 10
0.0
 20
0.0
 30
0.0
  9
$UCSXDIR
 10
1.0
 20
0.0
 30
0.0
  9
$UCSYDIR
 10
0.0
 20
1.0
 30
0.0
  9
$PUCSNAME
  2

  9
$PUCSORG
 10
0.0
 20
0.0
 30
0.0
  9
$PUCSXDIR
 10
1.0
 20
0.0
 30
0.0
  9
$PUCSYDIR
 10
0.0
 20
1.0
 30
0.0
  9
$USERI1
 70
     0
  9
$USERI2
 70
     0
  9
$USERI3
 70
     0
  9
$USERI4
 70
     0
  9
$USERI5
 70
     0
  9
$USERR1
 40
0.0
  9
$USERR2
 40
0.0
  9
$USERR3
 40
0.0
  9
$USERR4
 40
0.0
  9
$USERR5
 40
0.0
  9
$WORLDVIEW
 70
     1
  9
$SHADEDGE
 70
     3
  9
$SHADEDIF
 70
    70
  9
$TILEMODE
 70
     1
  9
$MAXACTVP
 70
    48
  9
$PLIMCHECK
 70
     0
  9
$PEXTMIN
 10
1.0000000000000000E+20
 20
1.0000000000000000E+20
 30
1.0000000000000000E+20
  9
$PEXTMAX
 10
-1.0000000000000000E+20
 20
-1.0000000000000000E+20
 30
-1.0000000000000000E+20
  9
$PLIMMIN
 10
0.0
 20
0.0
  9
$PLIMMAX
 10
12.0
 20
9.0
  9
$UNITMODE
 70
     0
  9
$VISRETAIN
 70
     1
  9
$PLINEGEN
 70
     0
  9
$PSLTSCALE
 70
     1
  0
ENDSEC
  0
SECTION
  2
TABLES
  0
TABLE
  2
VPORT
 70
     1
  0
VPORT
  2
*ACTIVE
 70
     0
 10
0.0
 20
0.0
 11
1.0
 21
1.0
 12
21.4450236749555287
 22
-3.9851289453839072
 13
0.0
 23
0.0
 14
1.0
 24
1.0
 15
0.0
 25
0.0
 16
-0.0000000000000142
 26
0.0
 36
62.4982449722281501
 17
10.5298788448774907
 27
7.0157587596432123
 37
0.0
 40
5.380549967928256
 41
2.095052083333333
 42
50.0
 43
0.0
 44
0.0
 50
0.0
 51
0.0
 71
     0
 72
   100
 73
     1
 74
     1
 75
     0
 76
     0
 77
     0
 78
     0
  0
ENDTAB
  0
TABLE
  2
LTYPE
 70
     1
  0
LTYPE
  2
CONTINUOUS
 70
     0
  3
Solid line
 72
    65
 73
     0
 40
0.0
  0
ENDTAB
  0
TABLE
  2
LAYER
 70
     2
  0
LAYER
  2
0
 70
     0
 62
     7
  6
CONTINUOUS
  0
LAYER
  2
DEFPOINTS
 70
     0
 62
     7
  6
CONTINUOUS
  0
ENDTAB
  0
TABLE
  2
STYLE
 70
     1
  0
STYLE
  2
STANDARD
 70
     0
 40
0.0
 41
0.8
 50
0.0
 71
     0
 42
0.2
  3
txt
  4

  0
ENDTAB
  0
TABLE
  2
VIEW
 70
     0
  0
ENDTAB
  0
TABLE
  2
UCS
 70
     0
  0
ENDTAB
  0
TABLE
  2
APPID
 70
     5
  0
APPID
  2
ACAD
 70
     0
  0
APPID
  2
ACAD_NAV_VCDISPLAY
 70
     0
  0
APPID
  2
ACADANNOTATIVE
 70
     0
  0
APPID
  2
ACDBATTR
 70
     0
  0
APPID
  2
ACAD_MLEADERVER
 70
     0
  0
ENDTAB
  0
TABLE
  2
DIMSTYLE
 70
     1
  0
DIMSTYLE
  2
STANDARD
 70
     0
  3

  4

  5

  6

  7

 40
1.0
 41
0.1875
 42
0.0625
 43
0.38
 44
0.125
 45
0.0
 46
0.0
 47
1.5
 48
1.5
140
0.15625
141
0.09
142
0.0
143
25.3999999999999986
144
1.0
145
0.0
146
1.0
147
0.09
 71
     0
 72
     0
 73
     1
 74
     1
 75
     0
 76
     0
 77
     0
 78
     4
170
     0
171
     2
172
     0
173
     0
174
     0
175
     0
176
     0
177
     0
178
     0
  0
ENDTAB
  0
ENDSEC
  0
SECTION
  2
BLOCKS
  0
BLOCK
  8
0
  2
$MODEL_SPACE
 70
     2
 10
0.0
 20
0.0
 30
0.0
  3
$MODEL_SPACE
  1

  0
ENDBLK
  5
16
  8
0
  0
BLOCK
 67
     1
  8
0
  2
$PAPER_SPACE
 70
     0
 10
0.0
 20
0.0
 30
0.0
  3
$PAPER_SPACE
  1

  0
ENDBLK
  5
1D
 67
     1
  8
0
  0
ENDSEC
  0
SECTION
  2
ENTITIES
  0
ATTDEF
  5
209
  8
DEFPOINTS
 10
31.9683138455748015
 20
0.3648328264630944
 30
0.0
 40
0.001
  1
P22740-00
  3

  2
MODELNUMBER
 70
     0
1001
ACDBATTR
1070
     0
1070
     1
  0
ATTDEF
  5
20A
  8
DEFPOINTS
 10
31.9683138455748015
 20
0.3631661597964293
 30
0.0
 40
0.001
  1
FOR TOWN
  3

  2
TRADENAME
 70
     0
1001
ACDBATTR
1070
     0
1070
     1
  0
ATTDEF
  5
20B
  8
DEFPOINTS
 10
31.9683138455748015
 20
0.3614994931297641
 30
0.0
 40
0.001
  1
BATHROOM SINK FAUCET
  3

  2
PRODUCT
 70
     0
1001
ACDBATTR
1070
     0
1070
     1
  0
ARC
  5
33D
  8
0
 10
31.9739432077471584
 20
4.5169277003823343
 30
0.0
 40
1.1830000069630491
 50
72.3926645181167032
 51
107.6073354789742069
  0
LINE
  5
33E
  8
0
 10
32.3317911555471582
 20
5.6445064615914591
 30
0.0
 11
32.3317911555471582
 21
5.6182993712876206
 31
0.0
  0
LINE
  5
33F
  8
0
 10
32.3382512276471701
 20
5.6182993712876206
 30
0.0
 11
31.6096351879471591
 21
5.6182993712876206
 31
0.0
  0
ARC
  5
340
  8
0
 10
32.3401492694476289
 20
5.5913243745739907
 30
0.0
 40
0.027041690227807
 50
4.1883409899819544
 51
94.0248695949068178
  0
LINE
  5
341
  8
0
 10
32.3671187410471575
 20
5.593299371287622
 30
0.0
 11
32.3671187410471575
 21
5.5641680263876214
 31
0.0
  0
LINE
  5
342
  8
0
 10
32.2836832455471594
 20
5.5641680263876214
 30
0.0
 11
32.3734695940471582
 21
5.5641680263876214
 31
0.0
  0
LINE
  5
343
  8
0
 10
32.3734695940471582
 20
5.5641680263876214
 30
0.0
 11
32.4554533322471599
 21
5.5141686569876232
 31
0.0
  0
LINE
  5
344
  8
0
 10
32.4554533322471599
 20
5.5141686569876232
 30
0.0
 11
32.4554533322471599
 21
4.765168026387621
 31
0.0
  0
LINE
  5
345
  8
0
 10
32.4554533322471599
 20
4.765168026387621
 30
0.0
 11
31.4924330832471604
 21
4.765168026387621
 31
0.0
  0
LINE
  5
346
  8
0
 10
32.2836832455471594
 20
5.5141686569876232
 30
0.0
 11
32.4554533322471599
 21
5.5141686569876232
 31
0.0
  0
LINE
  5
347
  8
0
 10
32.4254311182471611
 20
4.765168026387621
 30
0.0
 11
32.4240038450471602
 21
4.7297720465876214
 31
0.0
  0
ARC
  5
348
  8
0
 10
32.3780366393437475
 20
4.7378369643868679
 30
0.0
 40
0.0466693357493854
 50
269.7634476325877131
 51
350.0487738419458879
  0
LINE
  5
349
  8
0
 10
32.3778439600471586
 20
4.6911680263876221
 30
0.0
 11
31.5700424555471599
 21
4.6911680263876221
 31
0.0
  0
ARC
  5
34A
  8
0
 10
32.7661414108139013
 20
4.6889284745028927
 30
0.0
 40
0.3990289667085771
 50
179.678425489428804
 51
213.7922210140962136
  0
ARC
  5
34B
  8
0
 10
32.8298850356821887
 20
4.7354259013653897
 30
0.0
 40
0.4778754524069137
 50
214.1745803076975108
 51
245.9906885076204901
  0
ARC
  5
34C
  8
0
 10
32.6273927233972998
 20
4.2802113167028342
 30
0.0
 40
0.0203462786324892
 50
2.7633693339659691
 51
66.6876421994707727
  0
LINE
  5
34D
  8
0
 10
32.6477153426471602
 20
4.2811922351582048
 30
0.0
 11
32.6477153426471602
 21
4.2321672893582063
 31
0.0
  0
LINE
  5
34E
  8
0
 10
31.3001710729471583
 20
4.2321672893582063
 30
0.0
 11
32.6477153426471602
 21
4.2321672893582063
 31
0.0
  0
ARC
  5
34F
  8
0
 10
32.6477153426471602
 20
4.1124578373798286
 30
0.0
 40
0.1197094519783772
 50
4.7484013826703269
 51
89.999999999999801
  0
ARC
  5
350
  8
0
 10
32.3431496243258607
 20
4.0701544340267226
 30
0.0
 40
0.427068081730574
 50
358.7364958368893895
 51
7.0225051467572364
  0
LINE
  5
351
  8
0
 10
31.115418582247159
 20
4.0607373605582051
 30
0.0
 11
32.8324678333471596
 21
4.0607373605582051
 31
0.0
  0
ARC
  5
352
  8
0
 10
32.8324678333471596
 20
4.0374039688750019
 30
0.0
 40
0.0233333916832037
 50
8.2133347856154817
 51
89.9999999999989768
  0
LINE
  5
353
  8
0
 10
32.8555618946471597
 20
4.0407373605582064
 30
0.0
 11
32.8555618946471597
 21
3.5637373605582061
 31
0.0
  0
LINE
  5
354
  8
0
 10
32.8555618946471597
 20
3.5637373605582061
 30
0.0
 11
31.0923245209471588
 21
3.5637373605582061
 31
0.0
  0
LINE
  5
355
  8
0
 10
31.1340003839023716
 20
3.4896469557829262
 30
0.0
 11
32.8138860071023686
 21
3.4896469557829262
 31
0.0
  0
ARC
  5
356
  8
0
 10
32.8138271294842809
 20
3.4495930638249139
 30
0.0
 40
0.0400539352318565
 50
0.2334412934200978
 51
89.9157775579463845
  0
ARC
  5
357
  8
0
 10
157423.9058060075039975
 20
4553.1251605278748684
 30
0.0
 40
157456.7965266311075538
 50
181.6557779132656947
 51
181.6560786294278103
  0
ARC
  5
358
  8
0
 10
49.1657852545769885
 20
3.9146410640093232
 30
0.0
 40
16.3391021373601113
 50
184.5316529289221137
 51
187.2326328707821972
  0
ARC
  5
359
  8
0
 10
37.810602853018203
 20
2.722907109317183
 30
0.0
 40
4.9304421374053966
 50
190.1082071702765006
 51
200.4002866881540967
  0
LINE
  5
35A
  8
0
 10
30.6699739172023698
 20
1.0042696763507899
 30
0.0
 11
33.2779124738023668
 21
1.0042696763507899
 31
0.0
  0
ARC
  5
35B
  8
0
 10
33.2779124738023668
 20
0.9808337176151891
 30
0.0
 40
0.0234359587356015
 50
10.63192487500665
 51
90.0
  0
LINE
  5
35C
  8
0
 10
33.3009461004023706
 20
0.9851576287507906
 30
0.0
 11
33.3049380873023679
 21
0.9006390740507902
 31
0.0
  0
LINE
  5
35D
  8
0
 10
30.6429474855023685
 20
0.9006390853507904
 30
0.0
 11
33.3049380873023679
 21
0.9006390740507902
 31
0.0
  0
ARC
  5
35E
  8
0
 10
33.3141247652894492
 20
0.7322849569278134
 30
0.0
 40
0.1686045782435807
 50
30.8916332273696916
 51
93.1233948135496234
  0
ARC
  5
35F
  8
0
 10
33.2663757652588572
 20
0.7079424412890676
 30
0.0
 40
0.2221073324166723
 50
358.2022351168157002
 51
29.9562607416836606
  0
LINE
  5
360
  8
0
 10
30.3730628122023703
 20
0.7009743254507903
 30
0.0
 11
33.5748235789023681
 21
0.7009743254507903
 31
0.0
  0
ARC
  5
361
  8
0
 10
33.5763251189702814
 20
0.6794139322613884
 30
0.0
 40
0.0216126161548557
 50
4.2293676376272211
 51
93.9838429825842923
  0
LINE
  5
362
  8
0
 10
33.5978788798023729
 20
0.6810078491507908
 30
0.0
 11
33.5978788798023729
 21
0.3663056621507907
 31
0.0
  0
LINE
  5
363
  8
0
 10
33.5978788798023729
 20
0.3663056621507907
 30
0.0
 11
30.3500075113023691
 21
0.3663056621507907
 31
0.0
  0
LINE
  5
364
  8
0
 10
31.7006615731023693
 20
2.0379233058507911
 30
0.0
 11
32.2472260010940488
 21
2.0378814303861641
 31
0.0
  0
LINE
  5
365
  8
0
 10
32.2472260010940488
 20
2.0378814303861641
 30
0.0
 11
32.2472139687862409
 21
3.4896469557829262
 31
0.0
  0
LINE
  5
366
  8
0
 10
32.2472260010940488
 20
2.0378814303861641
 30
0.0
 11
32.528628652802368
 21
2.0077995008507901
 31
0.0
  0
LINE
  5
367
  8
0
 10
32.528628652802368
 20
2.0077995008507901
 30
0.0
 11
32.3037647421023735
 21
1.9780537606185751
 31
0.0
  0
ARC
  5
368
  8
0
 10
32.5290887914589817
 20
2.0469287420414268
 30
0.0
 40
0.0391319465876457
 50
269.3262637591204793
 51
1.5499182654115939
  0
LINE
  5
369
  8
0
 10
32.568206421202369
 20
2.047987178150791
 30
0.0
 11
32.5691566873523684
 21
2.9620883081507889
 31
0.0
  0
ARC
  5
36A
  8
0
 10
35.9525514061320877
 20
3.9923257061756519
 30
0.0
 40
3.5367709735513722
 50
196.9353949626465123
 51
200.6188196736696909
  0
ARC
  5
36B
  8
0
 10
314.093053701485303
 20
82.9813323778231791
 30
0.0
 40
292.6637661766271208
 50
195.9115098203606919
 51
196.0735297045293066
  0
ARC
  5
36C
  8
0
 10
43.5877771204821087
 20
5.0781740747946857
 30
0.0
 40
11.1642630351594008
 50
196.2649326788261988
 51
200.6542306234424871
  0
LINE
  5
36D
  8
0
 10
32.4199633519832915
 20
1.9934248962272321
 30
0.0
 11
32.4617184908352598
 21
1.6836315476507899
 31
0.0
  0
LINE
  5
36E
  8
0
 10
32.4617184908352598
 20
1.6836315476507899
 30
0.0
 11
32.5621404868023703
 21
1.00426969615079
 31
0.0
  0
ARC
  5
36F
  8
0
 10
32.6202911720007194
 20
0.9878473690007173
 30
0.0
 40
0.0173622784117979
 50
351.087966116382006
 51
71.0556317365636119
  0
LINE
  5
370
  8
0
 10
32.6374438417023711
 20
0.9851576415507903
 30
0.0
 11
32.6394410401023691
 21
0.9006390853507908
 31
0.0
  0
ARC
  5
371
  8
0
 10
32.6332079904185903
 20
0.8266697689212723
 30
0.0
 40
0.0742314669221263
 50
29.805455084522599
 51
85.1833305766476343
  0
ARC
  5
372
  8
0
 10
32.3997510616162572
 20
0.7173725533342635
 30
0.0
 40
0.3318112584747737
 50
357.1673060994502862
 51
26.1418646967429602
  0
ARC
  5
373
  8
0
 10
32.7704103685160106
 20
0.6871877955145154
 30
0.0
 40
0.0143475881306216
 50
11.8252282228450305
 51
73.9240133104442663
  0
ARC
  5
374
  8
0
 10
32.6900781729691801
 20
0.6703686068421728
 30
0.0
 40
0.0964216202538869
 50
6.334963709750479
 51
11.8252282228427799
  0
LINE
  5
375
  8
0
 10
32.7859110242023704
 20
0.6810078491507908
 30
0.0
 11
32.7859110242023704
 21
0.3663056621507907
 31
0.0
  0
ARC
  5
376
  8
0
 10
31.9779249515511417
 20
-3.4244121129691729
 30
0.0
 40
5.4559621943610557
 50
88.3803029975411931
 51
90.0418144094054753
  0
ARC
  5
377
  8
0
 10
32.0370875277314227
 20
-1.3321300982769591
 30
0.0
 40
3.362843889194147
 50
86.3937881549232571
 51
88.3803029975411931
  0
ARC
  5
378
  8
0
 10
32.2038988036936615
 20
1.1735939715788819
 30
0.0
 40
0.8516353858309248
 50
81.3724797331222334
 51
86.9908271798384334
  0
ARC
  5
379
  8
0
 10
32.3153415254861898
 20
1.899977940665587
 30
0.0
 40
0.1167596454527194
 50
77.8353589860647759
 51
81.9695187580371254
  0
ARC
  5
37A
  8
0
 10
31.9739432079326704
 20
4.5169277100403944
 30
0.0
 40
1.1416863095472281
 50
80.9834918777742843
 51
99.0165081359964603
  0
ARC
  5
37B
  8
0
 10
32.2423291685306665
 20
5.3678433148458371
 30
0.0
 40
0.290767852222364
 50
72.0808315453776061
 51
107.9191684270806064
  0
LINE
  5
37C
  8
0
 10
32.1528671816471601
 20
5.644506461587623
 30
0.0
 11
32.1528671816471601
 21
5.6182993712876206
 31
0.0
  0
ARC
  5
37D
  8
0
 10
32.1536988520378131
 20
5.6041283241209898
 30
0.0
 40
0.0143725688683247
 50
25.4923238918278692
 51
80.394054944100489
  0
ARC
  5
37E
  8
0
 10
32.130894946267432
 20
5.5932551689510239
 30
0.0
 40
0.0396360528270802
 50
0.0638965708227051
 51
25.4923238918286614
  0
LINE
  5
37F
  8
0
 10
32.1705309744471606
 20
5.593299371287622
 30
0.0
 11
32.1705546411570609
 21
5.5720775433842462
 31
0.0
  0
LINE
  5
380
  8
0
 10
31.6642031700471591
 20
5.5720775301876211
 30
0.0
 11
32.2836832455471594
 21
5.5720775301876211
 31
0.0
  0
LINE
  5
381
  8
0
 10
32.2836832455471594
 20
5.5720775301876211
 30
0.0
 11
32.2837152211471619
 21
4.9491376765876209
 31
0.0
  0
LINE
  5
382
  8
0
 10
32.2837152211471619
 20
4.9491376765876209
 30
0.0
 11
31.6641711944471602
 21
4.9491376765876209
 31
0.0
  0
LINE
  5
383
  8
0
 10
31.7285629155471582
 20
5.5076070105876207
 30
0.0
 11
32.2193235000471603
 21
5.5076070105876207
 31
0.0
  0
LINE
  5
384
  8
0
 10
32.2193235000471603
 20
5.5076070105876207
 30
0.0
 11
32.2193235000471603
 21
5.0135641620876221
 31
0.0
  0
LINE
  5
385
  8
0
 10
32.2193235000471603
 20
5.0135641620876221
 30
0.0
 11
31.7285629155471582
 21
5.0135641620876221
 31
0.0
  0
LINE
  5
386
  8
0
 10
32.2193235000471603
 20
5.0135641620876221
 30
0.0
 11
32.2837152236564435
 21
4.9490887915876209
 31
0.0
  0
LINE
  5
387
  8
0
 10
32.2193235000471603
 20
5.5076070105876207
 30
0.0
 11
32.2836832455471594
 21
5.5720775301876211
 31
0.0
  0
LINE
  5
388
  8
0
 10
32.2151198518471631
 20
4.9490887915876209
 30
0.0
 11
32.2153761098259892
 21
4.765168026387621
 31
0.0
  0
ARC
  5
389
  8
0
 10
19.4107781375201895
 20
1.4780788610569731
 30
0.0
 40
13.2297754994940995
 50
14.7858974386483197
 51
15.2103489814332509
  0
ARC
  5
38A
  8
0
 10
31.7328364614157898
 20
4.7304626892035451
 30
0.0
 40
0.485713278087842
 50
6.583484850887527
 51
14.7858974386483908
  0
LINE
  5
38B
  8
0
 10
32.1996871630471588
 20
4.765168026387621
 30
0.0
 11
32.1989735264471619
 21
4.7297720465876214
 31
0.0
  0
ARC
  5
38C
  8
0
 10
32.1627683903559003
 20
4.7252164432955146
 30
0.0
 40
0.0364906207228898
 50
291.080960896502404
 51
7.1716968072357696
  0
ARC
  5
38D
  8
0
 10
32.8333542244828465
 20
4.6770711887971013
 30
0.0
 40
0.66320314704873
 50
178.7820471993429976
 51
200.8169405487716119
  0
ARC
  5
38E
  8
0
 10
32.5779612599261981
 20
4.5735272679836241
 30
0.0
 40
0.3877310578405798
 50
199.9269874238316902
 51
224.8488931093631891
  0
ARC
  5
38F
  8
0
 10
32.2883439237791166
 20
4.2829987361208302
 30
0.0
 40
0.0225570402618102
 50
355.406496479971679
 51
49.2378032083109431
  0
LINE
  5
390
  8
0
 10
32.3108285100471591
 20
4.2811922351582048
 30
0.0
 11
32.3108285100471591
 21
4.2321672893582054
 31
0.0
  0
ARC
  5
391
  8
0
 10
32.3051300207677414
 20
4.1862435869062491
 30
0.0
 40
0.0462759033079156
 50
37.233416916012338
 51
82.9265512083711656
  0
ARC
  5
392
  8
0
 10
32.2290492593568914
 20
4.1318273736988873
 30
0.0
 40
0.1398011808586763
 50
3.3563681473457638
 51
36.1231992271100069
  0
ARC
  5
393
  8
0
 10
31.6787278056780295
 20
4.0705673236892448
 30
0.0
 40
0.6933692486413984
 50
359.1876849603976893
 51
5.7481358020258551
  0
ARC
  5
394
  8
0
 10
32.4009701864306834
 20
4.04928421663584
 30
0.0
 40
0.011668979942184
 50
24.8401984824173887
 51
78.9629034929237861
  0
ARC
  5
395
  8
0
 10
32.3927196709075176
 20
4.0426122541406677
 30
0.0
 40
0.0221110661365384
 50
355.1358004368680099
 51
31.5637544169500792
  0
LINE
  5
396
  8
0
 10
32.4147511034471592
 20
4.0407373605582064
 30
0.0
 11
32.4147511034471592
 21
3.5637373605582061
 31
0.0
  0
LINE
  5
397
  8
0
 10
31.6160952600471603
 20
5.6445064615914591
 30
0.0
 11
31.6160952600471603
 21
5.6182993712876206
 31
0.0
  0
ARC
  5
398
  8
0
 10
31.6077371461466896
 20
5.5913243745739907
 30
0.0
 40
0.027041690227807
 50
85.9751304050931964
 51
175.8116590100179906
  0
LINE
  5
399
  8
0
 10
31.5807676745471611
 20
5.593299371287622
 30
0.0
 11
31.5807676745471611
 21
5.5641680263876214
 31
0.0
  0
LINE
  5
39A
  8
0
 10
31.6642031700471591
 20
5.5641680263876214
 30
0.0
 11
31.5744168215471497
 21
5.5641680263876214
 31
0.0
  0
LINE
  5
39B
  8
0
 10
31.5744168215471497
 20
5.5641680263876214
 30
0.0
 11
31.4924330833471586
 21
5.5141686569876232
 31
0.0
  0
LINE
  5
39C
  8
0
 10
31.4924330833471586
 20
5.5141686569876232
 30
0.0
 11
31.4924330833471586
 21
4.765168026387621
 31
0.0
  0
LINE
  5
39D
  8
0
 10
31.6642031700471591
 20
5.5141686569876232
 30
0.0
 11
31.4924330833471586
 21
5.5141686569876232
 31
0.0
  0
LINE
  5
39E
  8
0
 10
31.522455297347161
 20
4.765168026387621
 30
0.0
 11
31.5238825705471584
 21
4.7297720465876214
 31
0.0
  0
ARC
  5
39F
  8
0
 10
31.5697799000948507
 20
4.7377534115523323
 30
0.0
 40
0.046586125040723
 50
189.8648626587439026
 51
270.3229158667185175
  0
ARC
  5
3A0
  8
0
 10
31.1759904603491087
 20
4.6916439066025788
 30
0.0
 40
0.4053226935881705
 50
326.3412060917686972
 51
359.9327303046034103
  0
ARC
  5
3A1
  8
0
 10
31.1161682152402399
 20
4.7376169621650641
 30
0.0
 40
0.4806234564707814
 50
294.102657097127917
 51
325.7320757328707259
  0
ARC
  5
3A2
  8
0
 10
31.3200361986464202
 20
4.2805284121578611
 30
0.0
 40
0.0198762139257821
 50
112.4630078494405012
 51
178.0860876908963064
  0
LINE
  5
3A3
  8
0
 10
31.3001710729471583
 20
4.2811922351582048
 30
0.0
 11
31.3001710729471583
 21
4.2321672893582063
 31
0.0
  0
ARC
  5
3A4
  8
0
 10
31.3001710729471583
 20
4.1124578373798286
 30
0.0
 40
0.1197094519783772
 50
90.0
 51
175.2515986173297051
  0
ARC
  5
3A5
  8
0
 10
31.6047367912684507
 20
4.0701544340267226
 30
0.0
 40
0.427068081730574
 50
172.977494853242689
 51
181.2635041631104116
  0
ARC
  5
3A6
  8
0
 10
31.115418582247159
 20
4.0374039688750019
 30
0.0
 40
0.0233333916832037
 50
90.00000000000081
 51
171.7866652143844988
  0
LINE
  5
3A7
  8
0
 10
31.0923245209471588
 20
4.0407373605582064
 30
0.0
 11
31.0923245209471588
 21
3.5637373605582061
 31
0.0
  0
ARC
  5
3A8
  8
0
 10
31.1340592616519807
 20
3.4495930637488579
 30
0.0
 40
0.0400539353079613
 50
90.0842224869838759
 51
179.7665591810809076
  0
ARC
  5
3A9
  8
0
 10
-157359.9579196163977031
 20
4553.1251605278748684
 30
0.0
 40
157456.7965266311075538
 50
358.3439213705719908
 51
358.3442220867340779
  0
ARC
  5
3AA
  8
0
 10
14.7821011365277304
 20
3.9146410640093232
 30
0.0
 40
16.3391021373601113
 50
352.7673671292176891
 51
355.468347071077801
  0
ARC
  5
3AB
  8
0
 10
26.1372835380865283
 20
2.722907109317183
 30
0.0
 40
4.9304421374053966
 50
339.5997133118456759
 51
349.8917928297233857
  0
ARC
  5
3AC
  8
0
 10
30.6699739173023609
 20
0.9808337176151891
 30
0.0
 40
0.0234359587356015
 50
90.0
 51
169.368075124993311
  0
LINE
  5
3AD
  8
0
 10
30.6469402907023714
 20
0.9851576287507906
 30
0.0
 11
30.6429483038023598
 21
0.9006390740507902
 31
0.0
  0
ARC
  5
3AE
  8
0
 10
30.6337616258152892
 20
0.7322849569278134
 30
0.0
 40
0.1686045782435807
 50
86.8766051864503766
 51
149.1083667726302906
  0
ARC
  5
3AF
  8
0
 10
30.6815106258458812
 20
0.7079424412890676
 30
0.0
 40
0.2221073324166723
 50
150.0437392583162932
 51
181.7977648831841861
  0
ARC
  5
3B0
  8
0
 10
30.3715612721344606
 20
0.6794139322613884
 30
0.0
 40
0.0216126161548557
 50
86.0161570174159067
 51
175.770632362372794
  0
LINE
  5
3B1
  8
0
 10
30.3500075113023691
 20
0.6810078491507908
 30
0.0
 11
30.3500075113023691
 21
0.3663056621507907
 31
0.0
  0
LINE
  5
3B2
  8
0
 10
31.7006615731023693
 20
2.0379233058507911
 30
0.0
 11
31.7006724222908787
 21
3.4896469557829262
 31
0.0
  0
LINE
  5
3B3
  8
0
 10
31.7006615731023693
 20
2.0379233058507911
 30
0.0
 11
31.4192577383023703
 21
2.0077995008507901
 31
0.0
  0
LINE
  5
3B4
  8
0
 10
31.4192577383023703
 20
2.0077995008507901
 30
0.0
 11
31.6441216490023685
 21
1.9780537606185751
 31
0.0
  0
ARC
  5
3B5
  8
0
 10
31.4187975996457602
 20
2.0469287420414268
 30
0.0
 40
0.0391319465876457
 50
178.4500817345883945
 51
270.6737362408791796
  0
LINE
  5
3B6
  8
0
 10
31.3796799699023694
 20
2.047987178150791
 30
0.0
 11
31.37872970375237
 21
2.9620883081507889
 31
0.0
  0
ARC
  5
3B7
  8
0
 10
27.9953349849726507
 20
3.9923257061756519
 30
0.0
 40
3.5367709735513722
 50
339.3811803263301954
 51
343.064605037353374
  0
ARC
  5
3B8
  8
0
 10
-250.1451673103804865
 20
82.9813323778231791
 30
0.0
 40
292.6637661766271208
 50
343.9264702954706081
 51
344.0884901796391091
  0
ARC
  5
3B9
  8
0
 10
20.3601092706226297
 20
5.0781740747946857
 30
0.0
 40
11.1642630351594008
 50
339.3457693765574277
 51
343.7350673211735739
  0
LINE
  5
3BA
  8
0
 10
31.5279230391214398
 20
1.9934248962272321
 30
0.0
 11
31.4861679002694714
 21
1.6836315476507899
 31
0.0
  0
LINE
  5
3BB
  8
0
 10
31.4861679002694714
 20
1.6836315476507899
 30
0.0
 11
31.3857459043023717
 21
1.00426969615079
 31
0.0
  0
ARC
  5
3BC
  8
0
 10
31.327595219104019
 20
0.9878473690007173
 30
0.0
 40
0.0173622784117979
 50
108.9443682634362034
 51
188.912033883617795
  0
LINE
  5
3BD
  8
0
 10
31.3104425494023708
 20
0.9851576415507903
 30
0.0
 11
31.3084453510023693
 21
0.9006390853507908
 31
0.0
  0
ARC
  5
3BE
  8
0
 10
31.3146784006861587
 20
0.8266697689212723
 30
0.0
 40
0.0742314669221263
 50
94.8166694233523941
 51
150.1945449154773939
  0
ARC
  5
3BF
  8
0
 10
31.5481353294884705
 20
0.7173725533342635
 30
0.0
 40
0.3318112584747737
 50
153.8581353032570007
 51
182.8326939005494864
  0
ARC
  5
3C0
  8
0
 10
31.1774760225887313
 20
0.6871877955145154
 30
0.0
 40
0.0143475881306216
 50
106.0759866895557053
 51
168.1747717771548878
  0
ARC
  5
3C1
  8
0
 10
31.2578082181355583
 20
0.6703686068421728
 30
0.0
 40
0.0964216202538869
 50
168.1747717771571899
 51
173.6650362902495033
  0
LINE
  5
3C2
  8
0
 10
31.1619753669023716
 20
0.6810078491507908
 30
0.0
 11
31.1619753669023716
 21
0.3663056621507907
 31
0.0
  0
ARC
  5
3C3
  8
0
 10
31.9699614395536003
 20
-3.4244121129691729
 30
0.0
 40
5.4559621943610557
 50
89.9581855905944963
 51
91.6196970024588069
  0
ARC
  5
3C4
  8
0
 10
31.9107988633733299
 20
-1.3321300982769591
 30
0.0
 40
3.362843889194147
 50
91.6196970024588069
 51
93.6062118450767571
  0
ARC
  5
3C5
  8
0
 10
31.7439875874110804
 20
1.1735939715788819
 30
0.0
 40
0.8516353858309248
 50
93.0091728201613535
 51
98.6275202668775535
  0
ARC
  5
3C6
  8
0
 10
31.6325448656185486
 20
1.899977940665587
 30
0.0
 40
0.1167596454527194
 50
98.0304812419626757
 51
102.1646410139289998
  0
ARC
  5
3C7
  8
0
 10
31.7055572470636484
 20
5.3678433148458371
 30
0.0
 40
0.290767852222364
 50
72.0808315729195783
 51
107.9191684546223939
  0
LINE
  5
3C8
  8
0
 10
31.7950192339471585
 20
5.644506461587623
 30
0.0
 11
31.7950192339471585
 21
5.6182993712876206
 31
0.0
  0
ARC
  5
3C9
  8
0
 10
31.794187563556509
 20
5.6041283241209898
 30
0.0
 40
0.0143725688683247
 50
99.6059450558995252
 51
154.5076761081720917
  0
ARC
  5
3CA
  8
0
 10
31.81699146932689
 20
5.5932551689510239
 30
0.0
 40
0.0396360528270802
 50
154.5076761081712959
 51
179.936103429177308
  0
LINE
  5
3CB
  8
0
 10
31.7773554411471615
 20
5.593299371287622
 30
0.0
 11
31.7773317744372683
 21
5.5720775433842462
 31
0.0
  0
LINE
  5
3CC
  8
0
 10
31.6642031700471591
 20
5.5720775301876211
 30
0.0
 11
31.6641711944471602
 21
4.9491376765876209
 31
0.0
  0
LINE
  5
3CD
  8
0
 10
31.7285629155471582
 20
5.5076070105876207
 30
0.0
 11
31.7285629155471582
 21
5.0135641620876221
 31
0.0
  0
LINE
  5
3CE
  8
0
 10
31.7285629155471582
 20
5.0135641620876221
 30
0.0
 11
31.6641711944471602
 21
4.9491376765876209
 31
0.0
  0
LINE
  5
3CF
  8
0
 10
31.7285629155471582
 20
5.5076070105876207
 30
0.0
 11
31.6642031700471591
 21
5.5720775301876211
 31
0.0
  0
LINE
  5
3D0
  8
0
 10
31.732766563747159
 20
4.9490887915876209
 30
0.0
 11
31.7325103057683187
 21
4.765168026387621
 31
0.0
  0
ARC
  5
3D1
  8
0
 10
44.5371082780741219
 20
1.4780788610569731
 30
0.0
 40
13.2297754994940995
 50
164.7896510185667012
 51
165.2141025613516092
  0
ARC
  5
3D2
  8
0
 10
32.215049954178518
 20
4.7304626892035451
 30
0.0
 40
0.485713278087842
 50
165.2141025613516092
 51
173.416515149112513
  0
LINE
  5
3D3
  8
0
 10
31.7481992525471597
 20
4.765168026387621
 30
0.0
 11
31.7489128891471601
 21
4.7297720465876214
 31
0.0
  0
ARC
  5
3D4
  8
0
 10
31.7851180252384182
 20
4.7252164432955146
 30
0.0
 40
0.0364906207228898
 50
172.8283031927641957
 51
248.919039103497596
  0
ARC
  5
3D5
  8
0
 10
31.1135455170166715
 20
4.677145489832518
 30
0.0
 40
0.6641880257379361
 50
339.7134152456850984
 51
1.209735540302082
  0
ARC
  5
3D6
  8
0
 10
31.3660538012915886
 20
4.5763248849063727
 30
0.0
 40
0.3924494292054297
 50
315.2601373845564012
 51
340.7380713499989042
  0
ARC
  5
3D7
  8
0
 10
31.6595424918151984
 20
4.2829987361208302
 30
0.0
 40
0.0225570402618102
 50
130.7621967916890071
 51
184.5935035200280083
  0
LINE
  5
3D8
  8
0
 10
31.6370579055471595
 20
4.2811922351582048
 30
0.0
 11
31.6370579055471595
 21
4.2321672893582054
 31
0.0
  0
ARC
  5
3D9
  8
0
 10
31.6427563948265913
 20
4.1862435869062491
 30
0.0
 40
0.0462759033079156
 50
97.0734487916286355
 51
142.766583083987598
  0
ARC
  5
3DA
  8
0
 10
31.7188371562374307
 20
4.1318273736988873
 30
0.0
 40
0.1398011808586763
 50
143.8768007728899931
 51
176.6436318526542095
  0
ARC
  5
3DB
  8
0
 10
32.2691586099162819
 20
4.0705673236892448
 30
0.0
 40
0.6933692486413984
 50
174.2518641979741005
 51
180.8123150396021117
  0
ARC
  5
3DC
  8
0
 10
31.5469162291636316
 20
4.04928421663584
 30
0.0
 40
0.011668979942184
 50
101.0370965070761997
 51
155.1598015175825935
  0
ARC
  5
3DD
  8
0
 10
31.5551667446868009
 20
4.0426122541406677
 30
0.0
 40
0.0221110661365384
 50
148.4362455830498959
 51
184.8641995631317911
  0
LINE
  5
3DE
  8
0
 10
31.5331353121471594
 20
4.0407373605582064
 30
0.0
 11
31.5331353121471594
 21
3.5637373605582061
 31
0.0
  0
LINE
  5
3DF
  8
0
 10
32.3037647421023735
 20
1.9780537606185751
 30
0.0
 11
31.6441216490023685
 21
1.9780537606185751
 31
0.0
  0
ARC
  5
3E0
  8
0
 10
31.4146260103108794
 20
2.965007368515288
 30
0.0
 40
0.0360147988742686
 50
147.3330747168816117
 51
184.6490195401406993
  0
ARC
  5
3E1
  8
0
 10
25.9357394132231391
 20
6.4779254193981997
 30
0.0
 40
6.4723484036495931
 50
327.3330747168815833
 51
332.2982444508947992
  0
ARC
  5
3E2
  8
0
 10
31.7017733801569292
 20
3.4486186454958112
 30
0.0
 40
0.0410430792368043
 50
91.537111924277184
 51
150.0161542957104075
  0
ARC
  5
3E3
  8
0
 10
31.9739431955023008
 20
3.4817390415507932
 30
0.0
 40
0.5708661416999327
 50
171.7415580968884967
 51
179.2062857313075881
  0
ARC
  5
3E4
  8
0
 10
31.9739431955023399
 20
3.4817390415507909
 30
0.0
 40
0.57086614170003
 50
0.7937142686924591
 51
8.2584419031103344
  0
ARC
  5
3E5
  8
0
 10
31.9739431955529305
 20
161.3921360350971952
 30
0.0
 40
159.402171987599786
 50
269.9774002114504015
 51
270.0225997885492006
  0
LINE
  5
3E6
  8
0
 10
31.7876437625023698
 20
2.028457922325964
 30
0.0
 11
31.7876437625023698
 21
1.999525624750788
 31
0.0
  0
LINE
  5
3E7
  8
0
 10
31.6740174470023703
 20
2.0223501261077148
 30
0.0
 11
31.6740174470023703
 21
2.0030056783507879
 31
0.0
  0
LINE
  5
3E8
  8
0
 10
31.7078800316023717
 20
2.0044777697507881
 30
0.0
 11
31.7078800316023717
 21
2.0245860009490571
 31
0.0
  0
LINE
  5
3E9
  8
0
 10
31.6540745356023692
 20
2.0125425067507869
 30
0.0
 11
31.6540745356023692
 21
2.0204696847232801
 31
0.0
  0
ARC
  5
3EA
  8
0
 10
31.6199940565616906
 20
2.022588529669183
 30
0.0
 40
0.0147329491113715
 50
215.1053578260506072
 51
254.1116578111681008
  0
LINE
  5
3EB
  8
0
 10
31.6159607124023694
 20
2.0084184229507871
 30
0.0
 11
31.6501973396859917
 21
2.008570649150609
 31
0.0
  0
ARC
  5
3EC
  8
0
 10
31.6501197401766987
 20
2.012524723180098
 30
0.0
 40
0.0039548354092546
 50
271.1242970047009067
 51
0.2576408051248249
  0
LINE
  5
3ED
  8
0
 10
31.6772424551023697
 20
1.9992164646507871
 30
0.0
 11
31.7046550237841984
 21
2.0004081577630402
 31
0.0
  0
LINE
  5
3EE
  8
0
 10
31.7660201104023692
 20
1.993690192650788
 30
0.0
 11
31.7853855875422617
 21
1.995395986833153
 31
0.0
  0
ARC
  5
3EF
  8
0
 10
31.6777427707347101
 20
2.0029092969715192
 30
0.0
 40
0.0037265703107546
 50
178.5179772208321083
 51
262.2843810612931179
  0
ARC
  5
3F0
  8
0
 10
31.7039653137011115
 20
2.0042673780483291
 30
0.0
 40
0.0039203674464145
 50
280.1327763089918221
 51
3.0763316471146691
  0
ARC
  5
3F1
  8
0
 10
31.7827164328839409
 20
1.999537766345346
 30
0.0
 40
0.0049273445776601
 50
302.7996072050278826
 51
359.858815874778827
  0
LINE
  5
3F2
  8
0
 10
31.9103732128023694
 20
1.995420329750788
 30
0.0
 11
31.9103732128023694
 21
2.0263698508080732
 31
0.0
  0
ARC
  5
3F3
  8
0
 10
31.9457424580273717
 20
4.5576679517533076
 30
0.0
 40
2.5315451920431391
 50
267.3954416891269261
 51
270.6382728873879273
  0
ARC
  5
3F4
  8
0
 10
31.9249259265722287
 20
1.9945390090843089
 30
0.0
 40
0.0145892263477782
 50
176.536281585777914
 51
198.2241306471273106
  0
LINE
  5
3F5
  8
0
 10
31.9175417205023706
 20
2.0262798389267149
 30
0.0
 11
31.9175417205023706
 21
1.996185101353924
 31
0.0
  0
ARC
  5
3F6
  8
0
 10
31.9056984865165205
 20
1.99598558610142
 30
0.0
 40
0.0118449144184412
 50
340.414279990385694
 51
0.9651334091637696
  0
LINE
  5
3F7
  8
0
 10
31.9168580663760508
 20
1.9920149721767331
 30
0.0
 11
31.9110684896243413
 21
1.9899764476696951
 31
0.0
  0
LINE
  5
3F8
  8
0
 10
31.7660201104023692
 20
1.993690192650788
 30
0.0
 11
31.7162905977551013
 21
1.996309563797517
 31
0.0
  0
LINE
  5
3F9
  8
0
 10
31.7162905977551013
 20
1.996309563797517
 30
0.0
 11
31.6772424551023803
 21
1.9992164646507871
 31
0.0
  0
ARC
  5
3FA
  8
0
 10
31.866591046791001
 20
3.9159715674442448
 30
0.0
 40
1.918071355545137
 50
265.2536279740206737
 51
267.6410552510116077
  0
ARC
  5
3FB
  8
0
 10
31.9739431955523692
 20
6.5820047831172204
 30
0.0
 40
4.586166512461114
 50
269.2953487547384839
 51
270.7046512452615161
  0
LINE
  5
3FC
  8
0
 10
31.6189543732097391
 20
2.0160009550173319
 30
0.0
 11
31.6501973397023697
 21
2.015658929250788
 31
0.0
  0
ARC
  5
3FD
  8
0
 10
31.6502125056392494
 20
2.0195341185352511
 30
0.0
 40
0.0038752189610471
 50
269.7757684398371225
 51
355.2715515597129752
  0
LINE
  5
3FE
  8
0
 10
32.1602426286023686
 20
2.028457922325964
 30
0.0
 11
32.1602426286023686
 21
1.999525624750788
 31
0.0
  0
LINE
  5
3FF
  8
0
 10
32.2738689441023681
 20
2.0223501261077148
 30
0.0
 11
32.2738689441023681
 21
2.0030056783507879
 31
0.0
  0
LINE
  5
400
  8
0
 10
32.2400063595023667
 20
2.0044777697507881
 30
0.0
 11
32.2400063595023667
 21
2.0245860009490571
 31
0.0
  0
LINE
  5
401
  8
0
 10
32.2938118555023692
 20
2.0125425067507869
 30
0.0
 11
32.2938118555023692
 21
2.0204696847232801
 31
0.0
  0
ARC
  5
402
  8
0
 10
32.3278923345430513
 20
2.022588529669183
 30
0.0
 40
0.0147329491113715
 50
285.8883421888318139
 51
324.8946421739494212
  0
LINE
  5
403
  8
0
 10
32.331925678702369
 20
2.0084184229507871
 30
0.0
 11
32.2976890514187502
 21
2.008570649150609
 31
0.0
  0
ARC
  5
404
  8
0
 10
32.2977666509280397
 20
2.012524723180098
 30
0.0
 40
0.0039548354092546
 50
179.7423591948750925
 51
268.8757029952990933
  0
LINE
  5
405
  8
0
 10
32.2706439360023722
 20
1.9992164646507871
 30
0.0
 11
32.24323136732054
 21
2.0004081577630402
 31
0.0
  0
LINE
  5
406
  8
0
 10
32.1818662807023728
 20
1.993690192650788
 30
0.0
 11
32.1625008035624731
 21
1.995395986833153
 31
0.0
  0
ARC
  5
407
  8
0
 10
32.2701436203700283
 20
2.0029092969715192
 30
0.0
 40
0.0037265703107546
 50
277.7156189387068821
 51
1.482022779167887
  0
ARC
  5
408
  8
0
 10
32.2439210774036269
 20
2.0042673780483291
 30
0.0
 40
0.0039203674464145
 50
176.923668352885386
 51
259.8672236910081779
  0
ARC
  5
409
  8
0
 10
32.165169958220801
 20
1.999537766345346
 30
0.0
 40
0.0049273445776601
 50
180.1411841252210877
 51
237.2003927949720037
  0
LINE
  5
40A
  8
0
 10
32.037513178302369
 20
1.995420329750788
 30
0.0
 11
32.037513178302369
 21
2.0263698508080732
 31
0.0
  0
ARC
  5
40B
  8
0
 10
32.0021439330773632
 20
4.5576679517533076
 30
0.0
 40
2.5315451920431391
 50
269.3617271126120158
 51
272.6045583108731876
  0
ARC
  5
40C
  8
0
 10
32.0229604645325097
 20
1.9945390090843089
 30
0.0
 40
0.0145892263477782
 50
341.7758693528725757
 51
3.46371841422213
  0
LINE
  5
40D
  8
0
 10
32.0303446706023678
 20
2.0262798389267149
 30
0.0
 11
32.0303446706023678
 21
1.996185101353924
 31
0.0
  0
ARC
  5
40E
  8
0
 10
32.0421879045882179
 20
1.99598558610142
 30
0.0
 40
0.0118449144184412
 50
179.0348665908362022
 51
199.5857200096141923
  0
LINE
  5
40F
  8
0
 10
32.0310283247286804
 20
1.9920149721767331
 30
0.0
 11
32.03681790148039
 21
1.9899764476696951
 31
0.0
  0
LINE
  5
410
  8
0
 10
32.1818662807023728
 20
1.993690192650788
 30
0.0
 11
32.2315957933496335
 21
1.996309563797517
 31
0.0
  0
LINE
  5
411
  8
0
 10
32.2315957933496335
 20
1.996309563797517
 30
0.0
 11
32.270643936002358
 21
1.9992164646507871
 31
0.0
  0
ARC
  5
412
  8
0
 10
32.0812953443137374
 20
3.9159715674442448
 30
0.0
 40
1.918071355545137
 50
272.3589447489883923
 51
274.7463720259793263
  0
LINE
  5
413
  8
0
 10
32.3289320178949993
 20
2.0160009550173319
 30
0.0
 11
32.297689051402358
 21
2.015658929250788
 31
0.0
  0
ARC
  5
414
  8
0
 10
32.2976738854654926
 20
2.0195341185352511
 30
0.0
 40
0.0038752189610471
 50
184.7284484402869964
 51
270.2242315601628775
  0
ARC
  5
416
  8
0
 10
32.5332603806938607
 20
2.965007368515288
 30
0.0
 40
0.0360147988742686
 50
355.3509804598592154
 51
32.6669252831184096
  0
ARC
  5
417
  8
0
 10
38.0121469777815975
 20
6.4779254193981997
 30
0.0
 40
6.4723484036495931
 50
207.7017555491050871
 51
212.6669252831183883
  0
ARC
  5
418
  8
0
 10
32.2461130108478073
 20
3.4486186454958112
 30
0.0
 40
0.0410430792368043
 50
29.9838457042895783
 51
88.462888075722816
  0
ENDSEC
  0
EOF
