  0
SECTION
  2
HEADER
  9
$ACADVER
  1
AC1009
  9
$INSBASE
 10
4217.290292675598721
 20
132.1366605271865069
 30
0.0
  9
$EXTMIN
 10
4210.4661106795902015
 20
132.1315129997890949
 30
-0.0015258207003583
  9
$EXTMAX
 10
4224.324168185346025
 20
140.7773167879977052
 30
0.0000000349246037
  9
$LIMMIN
 10
0.0
 20
0.0
  9
$LIMMAX
 10
11.6929133858000007
 20
8.2677165353999982
  9
$ORTHOMODE
 70
     0
  9
$REGENMODE
 70
     1
  9
$FILLMODE
 70
     1
  9
$QTEXTMODE
 70
     0
  9
$MIRRTEXT
 70
     0
  9
$DRAGMODE
 70
     2
  9
$LTSCALE
 40
0.6431102362
  9
$OSMODE
 70
  4095
  9
$ATTMODE
 70
     1
  9
$TEXTSIZE
 40
0.2
  9
$TRACEWID
 40
0.05
  9
$TEXTSTYLE
  7
STANDARD
  9
$CLAYER
  8
0
  9
$CELTYPE
  6
BYLAYER
  9
$CECOLOR
 62
   256
  9
$DIMSCALE
 40
1.0
  9
$DIMASZ
 40
0.1875
  9
$DIMEXO
 40
0.0625
  9
$DIMDLI
 40
0.4443307087
  9
$DIMRND
 40
0.0
  9
$DIMDLE
 40
0.0
  9
$DIMEXE
 40
0.125
  9
$DIMTP
 40
0.01
  9
$DIMTM
 40
0.01
  9
$DIMTXT
 40
2.0
  9
$DIMCEN
 40
0.1052362205
  9
$DIMTSZ
 40
0.0
  9
$DIMTOL
 70
     1
  9
$DIMLIM
 70
     0
  9
$DIMTIH
 70
     1
  9
$DIMTOH
 70
     1
  9
$DIMSE1
 70
     0
  9
$DIMSE2
 70
     0
  9
$DIMTAD
 70
     0
  9
$DIMZIN
 70
     0
  9
$DIMBLK
  1

  9
$DIMASO
 70
     1
  9
$DIMSHO
 70
     1
  9
$DIMPOST
  1
\X
  9
$DIMAPOST
  1

  9
$DIMALT
 70
     1
  9
$DIMALTD
 70
     2
  9
$DIMALTF
 40
25.3999999999999986
  9
$DIMLFAC
 40
1.0
  9
$DIMTOFL
 70
     0
  9
$DIMTVP
 40
0.0
  9
$DIMTIX
 70
     0
  9
$DIMSOXD
 70
     0
  9
$DIMSAH
 70
     0
  9
$DIMBLK1
  1

  9
$DIMBLK2
  1

  9
$DIMSTYLE
  2
STANDARD
  9
$DIMCLRD
 70
     0
  9
$DIMCLRE
 70
     0
  9
$DIMCLRT
 70
     0
  9
$DIMTFAC
 40
1.0
  9
$DIMGAP
 40
0.09
  9
$LUNITS
 70
     2
  9
$LUPREC
 70
     4
  9
$SKETCHINC
 40
0.1
  9
$FILLETRAD
 40
0.0
  9
$AUNITS
 70
     0
  9
$AUPREC
 70
     0
  9
$MENU
  1
.
  9
$ELEVATION
 40
0.0
  9
$PELEVATION
 40
0.0
  9
$THICKNESS
 40
0.0
  9
$LIMCHECK
 70
     0
  9
$BLIPMODE
 70
     0
  9
$CHAMFERA
 40
0.0
  9
$CHAMFERB
 40
0.0
  9
$SKPOLY
 70
     0
  9
$TDCREATE
 40
2458060.468368056230247
  9
$TDUPDATE
 40
2459397.8216782407835126
  9
$TDINDWG
 40
0.3694746528
  9
$TDUSRTIMER
 40
0.3694746528
  9
$USRTIMER
 70
     1
  9
$ANGBASE
 50
0.0
  9
$ANGDIR
 70
     0
  9
$PDMODE
 70
     0
  9
$PDSIZE
 40
0.3125
  9
$PLINEWID
 40
0.0
  9
$COORDS
 70
     1
  9
$SPLFRAME
 70
     0
  9
$SPLINETYPE
 70
     6
  9
$SPLINESEGS
 70
     8
  9
$ATTDIA
 70
     1
  9
$ATTREQ
 70
     1
  9
$HANDLING
 70
     1
  9
$HANDSEED
  5
AAD5
  9
$SURFTAB1
 70
     6
  9
$SURFTAB2
 70
     6
  9
$SURFTYPE
 70
     6
  9
$SURFU
 70
     6
  9
$SURFV
 70
     6
  9
$UCSNAME
  2

  9
$UCSORG
 10
0.0
 20
0.0
 30
0.0
  9
$UCSXDIR
 10
1.0
 20
0.0
 30
0.0
  9
$UCSYDIR
 10
0.0
 20
1.0
 30
0.0
  9
$PUCSNAME
  2

  9
$PUCSORG
 10
0.0
 20
0.0
 30
0.0
  9
$PUCSXDIR
 10
1.0
 20
0.0
 30
0.0
  9
$PUCSYDIR
 10
0.0
 20
1.0
 30
0.0
  9
$USERI1
 70
     0
  9
$USERI2
 70
     0
  9
$USERI3
 70
     0
  9
$USERI4
 70
     0
  9
$USERI5
 70
     0
  9
$USERR1
 40
0.0
  9
$USERR2
 40
0.0
  9
$USERR3
 40
0.0
  9
$USERR4
 40
0.0
  9
$USERR5
 40
0.0
  9
$WORLDVIEW
 70
     1
  9
$SHADEDGE
 70
     3
  9
$SHADEDIF
 70
    70
  9
$TILEMODE
 70
     1
  9
$MAXACTVP
 70
    64
  9
$PLIMCHECK
 70
     0
  9
$PEXTMIN
 10
1.0000000000000000E+20
 20
1.0000000000000000E+20
 30
1.0000000000000000E+20
  9
$PEXTMAX
 10
-1.0000000000000000E+20
 20
-1.0000000000000000E+20
 30
-1.0000000000000000E+20
  9
$PLIMMIN
 10
0.0
 20
0.0
  9
$PLIMMAX
 10
12.0
 20
9.0
  9
$UNITMODE
 70
     0
  9
$VISRETAIN
 70
     1
  9
$PLINEGEN
 70
     0
  9
$PSLTSCALE
 70
     1
  0
ENDSEC
  0
SECTION
  2
TABLES
  0
TABLE
  2
VPORT
 70
     1
  0
VPORT
  2
*ACTIVE
 70
     0
 10
0.0
 20
0.0
 11
1.0
 21
1.0
 12
413.8510720496560111
 22
10.4591526971434892
 13
0.0
 23
0.0
 14
1.0
 24
1.0
 15
0.0
 25
0.0
 16
0.0
 26
0.0
 36
17.1152628219792007
 17
3803.5440673828129547
 27
125.9952621967499056
 37
0.0
 40
8.7233446293583761
 41
2.3458083832335319
 42
50.0
 43
0.0
 44
0.0
 50
0.0
 51
0.0
 71
     0
 72
   100
 73
     1
 74
     1
 75
     0
 76
     0
 77
     0
 78
     0
  0
ENDTAB
  0
TABLE
  2
LTYPE
 70
     2
  0
LTYPE
  2
CONTINUOUS
 70
     0
  3
Solid line
 72
    65
 73
     0
 40
0.0
  0
LTYPE
  2
PHANTOM2
 70
     0
  3
___ _ _ ___ _ _ ___ _ _ ___ _ _
 72
    65
 73
     6
 40
1.25
 49
0.625
 49
-0.125
 49
0.125
 49
-0.125
 49
0.125
 49
-0.125
  0
ENDTAB
  0
TABLE
  2
LAYER
 70
     2
  0
LAYER
  2
0
 70
     0
 62
   255
  6
CONTINUOUS
  0
LAYER
  2
DEFPOINTS
 70
     0
 62
     7
  6
CONTINUOUS
  0
ENDTAB
  0
TABLE
  2
STYLE
 70
     1
  0
STYLE
  2
STANDARD
 70
     0
 40
0.0
 41
0.8
 50
0.0
 71
     0
 42
0.2
  3
txt
  4

  0
ENDTAB
  0
TABLE
  2
VIEW
 70
     0
  0
ENDTAB
  0
TABLE
  2
UCS
 70
     0
  0
ENDTAB
  0
TABLE
  2
APPID
 70
     9
  0
APPID
  2
ACAD
 70
     0
  0
APPID
  2
ACAD_MLEADERVER
 70
     0
  0
APPID
  2
ACAD_EXEMPT_FROM_CAD_STANDARDS
 70
     0
  0
APPID
  2
ACAD_NAV_VCDISPLAY
 70
     0
  0
APPID
  2
ACAECLAYERSTANDARD
 70
     0
  0
APPID
  2
ACCMTRANSPARENCY
 70
     0
  0
APPID
  2
ACAD_DSTYLE_DIMJAG
 70
     0
  0
APPID
  2
ACAD_DSTYLE_DIMTALN
 70
     0
  0
APPID
  2
ACDBATTR
 70
     0
  0
ENDTAB
  0
TABLE
  2
DIMSTYLE
 70
     1
  0
DIMSTYLE
  2
STANDARD
 70
     0
  3

  4

  5

  6

  7

 40
1.0
 41
0.1875
 42
0.0625
 43
0.38
 44
0.125
 45
0.0
 46
0.0
 47
0.01
 48
0.01
140
0.15625
141
0.09
142
0.0
143
25.3999999999999986
144
1.0
145
0.0
146
1.0
147
0.09
 71
     1
 72
     0
 73
     1
 74
     1
 75
     0
 76
     0
 77
     0
 78
     4
170
     0
171
     2
172
     0
173
     0
174
     0
175
     0
176
     0
177
     0
178
     0
  0
ENDTAB
  0
ENDSEC
  0
SECTION
  2
BLOCKS
  0
BLOCK
  8
0
  2
$MODEL_SPACE
 70
     0
 10
0.0
 20
0.0
 30
0.0
  3
$MODEL_SPACE
  1

  0
ENDBLK
  5
21
  8
0
  0
BLOCK
 67
     1
  8
0
  2
$PAPER_SPACE
 70
     0
 10
0.0
 20
0.0
 30
0.0
  3
$PAPER_SPACE
  1

  0
ENDBLK
  5
1D
 67
     1
  8
0
  0
ENDSEC
  0
SECTION
  2
ENTITIES
  0
ATTDEF
  5
3930
  8
DEFPOINTS
 10
4217.2869182481235839
 20
132.1407678539250128
 30
0.0
 40
0.001
  1
P22732-LV
  3

  2
MODELNUMBER
 70
     0
1001
ACDBATTR
1070
     0
1070
     1
  0
ATTDEF
  5
3931
  8
DEFPOINTS
 10
4217.2869182481235839
 20
132.1391011872582908
 30
0.0
 40
0.001
  1

  3

  2
TRADENAME
 70
     0
1001
ACDBATTR
1070
     0
1070
     1
  0
ATTDEF
  5
3932
  8
DEFPOINTS
 10
4217.2869182481235839
 20
132.1374345205917109
 30
0.0
 40
0.001
  1
BATHROOM SINK FAUCET
  3

  2
PRODUCT
 70
     0
1001
ACDBATTR
1070
     0
1070
     1
  0
LINE
  5
A5FF
  8
0
 10
4215.7107168919183096
 20
132.1366605271865069
 30
0.0
 11
4218.8698684592809514
 21
132.1366605271865069
 31
0.0
  0
LINE
  5
A600
  8
0
 10
4215.7107168919183096
 20
132.4126605271864889
 30
0.0
 11
4218.8698684592809514
 21
132.4126605271864889
 31
0.0
  0
LINE
  5
A601
  8
0
 10
4216.0211465453121491
 20
132.5963013359632043
 30
0.0
 11
4216.0611224928297815
 21
132.6828535949128138
 31
0.0
  0
LINE
  5
A602
  8
0
 10
4216.0702009388996885
 20
132.6886605271864994
 30
0.0
 11
4218.5103844123359522
 21
132.6886605271864994
 31
0.0
  0
ARC
  5
A603
  8
0
 10
4215.9753547329783032
 20
132.4114229096576025
 30
0.0
 40
0.1615961748856286
 50
143.1482551872059048
 51
176.245084242994011
  0
ARC
  5
A604
  8
0
 10
4216.0019515377989592
 20
132.3914884694426064
 30
0.0
 40
0.194834284539686
 50
115.2120853505640952
 51
143.1482551872059048
  0
ARC
  5
A605
  8
0
 10
4216.0169123948653578
 20
132.359712429022494
 30
0.0
 40
0.2299561294354873
 50
91.9093940551584154
 51
115.2120853505640952
  0
ARC
  5
A606
  8
0
 10
4216.0086354380800913
 20
132.6044698486583968
 30
0.0
 40
0.0149416332381863
 50
272.3591162521819911
 51
326.8594485541411245
  0
ARC
  5
A607
  8
0
 10
4216.0702009388996885
 20
132.6786605271865085
 30
0.0
 40
0.01
 50
90.0
 51
155.2091711146082957
  0
LINE
  5
A608
  8
0
 10
4216.767209681019267
 20
136.5921655840533049
 30
0.0
 11
4216.767209681019267
 21
140.3136605271209874
 31
0.0
  0
ARC
  5
A609
  8
0
 10
4216.1047227622921127
 20
132.6988084663285861
 30
0.0
 40
0.0101896648838346
 50
275.1869017698846278
 51
320.1792742491491026
  0
ARC
  5
A60A
  8
0
 10
4214.3028045894589013
 20
134.2012147024366016
 30
0.0
 40
2.3562786657278858
 50
320.1792742491491026
 51
325.552221798617893
  0
ARC
  5
A60B
  8
0
 10
4214.5099419965408742
 20
134.0591309043122124
 30
0.0
 40
2.1050940501512039
 50
325.552221798617893
 51
334.1902082153753213
  0
ARC
  5
A60C
  8
0
 10
4214.8086520505667067
 20
133.9146658378382142
 30
0.0
 40
1.7732840867576189
 50
334.1902082153753213
 51
356.1223436878415782
  0
ARC
  5
A60D
  8
0
 10
4184.7706736538993937
 20
137.5083085055505023
 30
0.0
 40
32.023252661086282
 50
353.3407361250564236
 51
355.9008037515919796
  0
ARC
  5
A60E
  8
0
 10
4193.2741651180640474
 20
136.8103167431933116
 30
0.0
 40
23.4917862161761306
 50
356.1162805574812751
 51
358.4739443453560739
  0
ARC
  5
A60F
  8
0
 10
4292.4605515282628403
 20
134.6067566521157914
 30
0.0
 40
75.7193756487115337
 50
178.4974969701802081
 51
178.8059106045988074
  0
LINE
  5
A610
  8
0
 10
4217.025090924318647
 20
140.7630034347862988
 30
0.0
 11
4216.768549426980826
 21
140.3186605271206986
 31
0.0
  0
ARC
  5
A611
  8
0
 10
4216.7772096810176663
 20
140.3136605271209874
 30
0.0
 40
0.01
 50
150.0000000015010073
 51
179.9999999999893987
  0
LINE
  5
A612
  8
0
 10
4216.4918445297189464
 20
132.1466605271864978
 30
0.0
 11
4216.4918445297189464
 21
132.402660527186498
 31
0.0
  0
ARC
  5
A613
  8
0
 10
4216.5387920178191052
 20
132.4222497976782904
 30
0.0
 40
0.0097569432472164
 50
280.6374101560792269
 51
359.2720620385068742
  0
ARC
  5
A614
  8
0
 10
4216.7971964462776668
 20
132.4189666149380002
 30
0.0
 40
0.248668341769659
 50
154.853576798711714
 51
179.2720620385069878
  0
ARC
  5
A615
  8
0
 10
4216.6805078595707528
 20
132.4737428786291957
 30
0.0
 40
0.1197626966978895
 50
104.7802337859043007
 51
154.8535767987123961
  0
ARC
  5
A616
  8
0
 10
4216.6416096827852016
 20
132.5960978377630113
 30
0.0
 40
0.0106118666696631
 50
321.8510419264792972
 51
358.5109919880795246
  0
LINE
  5
A617
  8
0
 10
4216.6522179661296832
 20
132.5958220866334045
 30
0.0
 11
4216.6718679181030893
 21
132.6809106582086031
 31
0.0
  0
ARC
  5
A618
  8
0
 10
4216.6816114754810769
 20
132.6786605271865085
 30
0.0
 40
0.01
 50
90.0
 51
166.9963513788713954
  0
ARC
  5
A619
  8
0
 10
4216.6904605204490508
 20
132.6980125974700968
 30
0.0
 40
0.009726548891688
 50
285.9505284659866788
 51
327.7807655889599801
  0
ARC
  5
A61A
  8
0
 10
4213.9398812259332772
 20
133.8361985038847024
 30
0.0
 40
2.986355802178684
 50
337.4887268469250898
 51
343.1893935516068836
  0
ARC
  5
A61B
  8
0
 10
4213.6972430300584165
 20
133.8864019351786965
 30
0.0
 40
3.2332200104353341
 50
343.5812977992770243
 51
357.4927573737683133
  0
LINE
  5
A61C
  8
0
 10
4217.0250909580736334
 20
136.0498059957006944
 30
0.0
 11
4217.0250909580736334
 21
137.733545504351298
 31
0.0
  0
LINE
  5
A61D
  8
0
 10
4217.0250909580736334
 20
137.866605138029712
 30
0.0
 11
4217.0250909580736334
 21
140.7630034932518868
 31
0.0
  0
ARC
  5
A61E
  8
0
 10
4149.1164141999261119
 20
137.7375013977029994
 30
0.0
 40
67.9283873299734466
 50
356.6304582048485941
 51
357.6122261302851939
  0
ARC
  5
A61F
  8
0
 10
4138.903669759269178
 20
138.1633591443213049
 30
0.0
 40
78.1500067628481361
 50
357.6122261302851939
 51
358.4502567903621184
  0
ARC
  5
A620
  8
0
 10
4216.5018445297191647
 20
132.402660527186498
 30
0.0
 40
0.01
 50
90.0
 51
180.0
  0
ARC
  5
A621
  8
0
 10
4216.5018445297191647
 20
132.1466605271864978
 30
0.0
 40
0.01
 50
179.9999999999951115
 51
270.0
  0
LINE
  5
A622
  8
0
 10
4217.0311675501034188
 20
137.7319203620174051
 30
0.0
 11
4216.7746260528538187
 21
137.8005306036772026
 31
0.0
  0
LINE
  5
A623
  8
0
 10
4217.0324816728098085
 20
137.8685817333553132
 30
0.0
 11
4216.7763284059037687
 21
137.8000753211775873
 31
0.0
  0
LINE
  5
A624
  8
0
 10
4217.0350653009763846
 20
137.8689212537865103
 30
0.0
 11
4217.5455200502601656
 21
137.8689212537865103
 31
0.0
  0
ARC
  5
A625
  8
0
 10
4217.0350653009763846
 20
137.8589212537866047
 30
0.0
 40
0.01
 50
89.9999999999478888
 51
104.9729396250879034
  0
ARC
  5
A626
  8
0
 10
4216.7772096810176663
 20
137.8101910832463091
 30
0.0
 40
0.01
 50
179.9999999999893987
 51
255.0270603805739995
  0
ARC
  5
A627
  8
0
 10
4217.2902586564332523
 20
135.4839838424989011
 30
0.0
 40
2.3733038397313808
 50
89.9991787162866927
 51
91.3556573581999345
  0
ARC
  5
A628
  8
0
 10
4217.2857247740203093
 20
135.675569015371309
 30
0.0
 40
2.1816650269760229
 50
91.3556573581999345
 51
93.5850144815723155
  0
ARC
  5
A629
  8
0
 10
4217.2479629073759497
 20
136.2782921942390999
 30
0.0
 40
1.5777600767422519
 50
93.5850144815723155
 51
96.9739781319966596
  0
ARC
  5
A62A
  8
0
 10
4217.1484894431414432
 20
137.0914916651151998
 30
0.0
 40
0.7584992211412586
 50
96.9739781319966596
 51
103.3329121319065962
  0
ARC
  5
A62B
  8
0
 10
4217.0157469677687914
 20
137.6515945579560878
 30
0.0
 40
0.1828814527073859
 50
103.3329121319065962
 51
116.2681870885139972
  0
ARC
  5
A62C
  8
0
 10
4216.9498387278053997
 20
137.7851363693347082
 30
0.0
 40
0.0339609655964573
 50
116.2681870885143951
 51
131.048852329580086
  0
ARC
  5
A62D
  8
0
 10
4216.9433665040851338
 20
137.7925690023380128
 30
0.0
 40
0.0241053218708368
 50
131.0488523295811945
 51
153.2299147796765055
  0
ARC
  5
A62E
  8
0
 10
4216.931579362222692
 20
137.8002635911936125
 30
0.0
 40
0.0102354886035753
 50
162.0012701731787956
 51
223.9737860522668029
  0
ARC
  5
A62F
  8
0
 10
4216.998455825036217
 20
137.8907734675939025
 30
0.0
 40
0.1226416137198277
 50
232.7451414458296028
 51
261.0558614016277943
  0
ARC
  5
A630
  8
0
 10
4217.1971002677346405
 20
138.7960475645000997
 30
0.0
 40
1.0492595065324071
 50
258.0246520412949849
 51
266.5990617955033031
  0
ARC
  5
A631
  8
0
 10
4217.2854131268768469
 20
139.9010359556257015
 30
0.0
 40
2.157659243844479
 50
265.9987465921278726
 51
269.3108567313136064
  0
ARC
  5
A632
  8
0
 10
4217.2900152885176794
 20
140.0953675078858112
 30
0.0
 40
2.3520331821993161
 50
269.2556932521333124
 51
270.0067571797098935
  0
ARC
  5
A633
  8
0
 10
4217.0604035765773006
 20
137.9031302189372923
 30
0.0
 40
0.0933921922539318
 50
229.9245395418693931
 51
254.7397835473256009
  0
ARC
  5
A634
  8
0
 10
4217.1729835249552707
 20
138.3157787270914127
 30
0.0
 40
0.5211222894632791
 50
254.7397835473256009
 51
261.9019190417413938
  0
ARC
  5
A635
  8
0
 10
4217.2276042451212561
 20
138.6996560811545862
 30
0.0
 40
0.9088660786256797
 50
261.9019190417413938
 51
265.489387787089413
  0
ARC
  5
A636
  8
0
 10
4217.292041802703352
 20
139.5164786201590914
 30
0.0
 40
1.72822635289635
 50
265.489387787089413
 51
268.2492350727347912
  0
ARC
  5
A637
  8
0
 10
4217.2868248458362359
 20
139.3458008959889867
 30
0.0
 40
1.5574689162593109
 50
268.2492350727347912
 51
270.12757376580862
  0
ARC
  5
A638
  8
0
 10
4217.2902901204079171
 20
140.0760545085771014
 30
0.0
 40
2.3317181617919509
 50
268.4518636525073134
 51
270.000062787537388
  0
LINE
  5
A639
  8
0
 10
4217.2267128310186308
 20
137.7835324992865083
 30
0.0
 11
4217.2267128310186308
 21
137.7473329842557916
 31
0.0
  0
LINE
  5
A63A
  8
0
 10
4217.2267128310186308
 20
137.7835324992865083
 30
0.0
 11
4217.2325238921175696
 21
137.7886212052864892
 31
0.0
  0
ARC
  5
A63B
  8
0
 10
4217.2771156755761695
 20
139.7479356460897861
 30
0.0
 40
1.965049660927189
 50
264.9456435242967132
 51
268.5302218681267732
  0
ARC
  5
A63C
  8
0
 10
4217.2322741029920508
 20
137.7476892859648956
 30
0.0
 40
0.0055726741216666
 50
183.6658376966485946
 51
206.6759139057564028
  0
LINE
  5
A63D
  8
0
 10
4217.2339632879102282
 20
137.7892284318641885
 30
0.0
 11
4217.2332075464191803
 21
137.7503219584864951
 31
0.0
  0
LINE
  5
A63E
  8
0
 10
4217.2332075464191803
 20
137.7503219584864951
 30
0.0
 11
4217.2272945832191908
 21
137.7451874706864885
 31
0.0
  0
ARC
  5
A63F
  8
0
 10
4217.2902926749911785
 20
139.8627499067929989
 30
0.0
 40
2.113199126606458
 50
268.4520460827230863
 51
270.0000000170400085
  0
LINE
  5
A640
  8
0
 10
4217.2325238921175696
 20
137.7886212052864892
 30
0.0
 11
4217.2329074456383751
 21
137.7892642574757076
 31
0.0
  0
LINE
  5
A641
  8
0
 10
4217.1039932426192536
 20
137.8446426093686057
 30
0.0
 11
4217.1039932426192536
 21
137.8494699675642892
 31
0.0
  0
LINE
  5
A642
  8
0
 10
4217.0823292032728205
 20
137.7544513367911065
 30
0.0
 11
4217.1020202891140798
 21
137.7587935743412118
 31
0.0
  0
LINE
  5
A643
  8
0
 10
4216.9903669271188846
 20
137.7709978853366124
 30
0.0
 11
4216.9903669271188846
 21
137.8067811233082125
 31
0.0
  0
ARC
  5
A644
  8
0
 10
4216.9938187202942572
 20
137.7716213906271037
 30
0.0
 40
0.0035076537723353
 50
190.2390603656710937
 51
252.6262805892812082
  0
ARC
  5
A645
  8
0
 10
4217.1802979077629061
 20
138.6862489682980026
 30
0.0
 40
0.936933665283311
 50
258.454312274172878
 51
263.9980035454057088
  0
ARC
  5
A646
  8
0
 10
4217.0991891499861595
 20
137.7626975589973028
 30
0.0
 40
0.0048224936468826
 50
305.9493285438902035
 51
354.9931930283901806
  0
LINE
  5
A647
  8
0
 10
4217.0242295116177047
 20
137.775019784530798
 30
0.0
 11
4217.0242295116177047
 21
137.8170283107214971
 31
0.0
  0
LINE
  5
A648
  8
0
 10
4216.9931881806887759
 20
137.768188707108294
 30
0.0
 11
4217.0210050385157956
 21
137.7711962064184092
 31
0.0
  0
ARC
  5
A649
  8
0
 10
4217.0201043201623179
 20
137.7752272029983089
 30
0.0
 40
0.0041304027634892
 50
282.5957204115211994
 51
357.1215389720345001
  0
ARC
  5
A64A
  8
0
 10
4217.1463904699003251
 20
138.3194253280059911
 30
0.0
 40
0.5623848114593459
 50
257.1174583821435249
 51
265.4748619281854189
  0
LINE
  5
A64B
  8
0
 10
4217.0177794955343415
 20
137.8097453857880907
 30
0.0
 11
4216.9903669271188846
 21
137.8067811233082125
 31
0.0
  0
ARC
  5
A64C
  8
0
 10
4217.0161771888733711
 20
137.8175431594812039
 30
0.0
 40
0.0079606947683272
 50
281.6116583694883957
 51
356.6121701020081787
  0
LINE
  5
A64D
  8
0
 10
4216.9903669271188846
 20
137.8067811233082125
 30
0.0
 11
4216.9704240157188906
 21
137.8112366876160877
 31
0.0
  0
LINE
  5
A64E
  8
0
 10
4216.9704240157188906
 20
137.7955227786324883
 30
0.0
 11
4216.9704240157188906
 21
137.8287708988198119
 31
0.0
  0
ARC
  5
A64F
  8
0
 10
4216.9616443090471876
 20
137.8064332337486917
 30
0.0
 40
0.0374997162835967
 50
178.9455266514779055
 51
188.0432505972358967
  0
ARC
  5
A650
  8
0
 10
4216.9437507542415915
 20
137.8070934853018912
 30
0.0
 40
0.0201238126723915
 50
197.0702770072624901
 51
230.6714368457207911
  0
ARC
  5
A651
  8
0
 10
4216.9334858860793247
 20
137.7943953890772946
 30
0.0
 40
0.0037975175875848
 50
229.049243204817401
 51
271.5809206798941773
  0
ARC
  5
A652
  8
0
 10
4216.9883837028810376
 20
136.3837730027773034
 30
0.0
 40
1.407892949217542
 50
90.8887120350038771
 51
92.2304277140615767
  0
ARC
  5
A653
  8
0
 10
4216.966410975918734
 20
137.7955073627535967
 30
0.0
 40
0.0040130694095279
 50
271.9398541432855154
 51
0.220097605426068
  0
ARC
  5
A654
  8
0
 10
4216.9337248190149694
 20
137.8140335981817088
 30
0.0
 40
0.0040131343588831
 50
199.9286613142203066
 51
268.084173510041694
  0
ARC
  5
A655
  8
0
 10
4217.022221049154723
 20
140.4596649609219128
 30
0.0
 40
2.6511241804360508
 50
268.084173510041694
 51
268.7966867408742928
  0
ARC
  5
A656
  8
0
 10
4216.9666288765401987
 20
137.8130319884861876
 30
0.0
 40
0.0039074192999338
 50
268.7966867408221106
 51
346.2314077440880737
  0
ARC
  5
A657
  8
0
 10
4216.9736816425520374
 20
137.8031436168720063
 30
0.0
 40
0.0082879013058322
 50
129.0383723709605874
 51
246.8550816563383137
  0
ARC
  5
A658
  8
0
 10
4216.9396575484051937
 20
137.8003110075370046
 30
0.0
 40
0.0114509521315577
 50
121.9929989439405063
 51
238.006919617942998
  0
ARC
  5
A659
  8
0
 10
4217.1780424467870034
 20
137.0838100537567925
 30
0.0
 40
0.7618455477829639
 50
95.7178704380467451
 51
101.5614422360203974
  0
ARC
  5
A65A
  8
0
 10
4217.1011178073467818
 20
137.8445542498064924
 30
0.0
 40
0.0028767925556029
 50
290.8068541293894782
 51
1.760094350396308
  0
LINE
  5
A65B
  8
0
 10
4217.0173487198726434
 20
137.8298211310373915
 30
0.0
 11
4216.9938077857577809
 21
137.8323663266859
 31
0.0
  0
ARC
  5
A65C
  8
0
 10
4217.0201434972068455
 20
137.8556704873089132
 30
0.0
 40
0.026
 50
263.829272065545922
 51
281.5614422359687978
  0
ARC
  5
A65D
  8
0
 10
4216.9940598464199866
 20
137.8357102207154128
 30
0.0
 40
0.003353380659706
 50
219.8087506798250104
 51
265.6892319493697983
  0
LINE
  5
A65E
  8
0
 10
4217.1019434415666183
 20
137.8418453959943122
 30
0.0
 11
4217.0825405806081108
 21
137.8461240747888894
 31
0.0
  0
ARC
  5
A65F
  8
0
 10
4217.0832397707881682
 20
137.8483845160741907
 30
0.0
 40
0.0023661068673329
 50
209.6848239145932098
 51
252.8123363405995008
  0
LINE
  5
A660
  8
0
 10
4217.1039932426201631
 20
137.7622766802329011
 30
0.0
 11
4217.1039932426201631
 21
137.7992351412954122
 31
0.0
  0
ARC
  5
A661
  8
0
 10
4217.2902928868743402
 20
139.6023382684041962
 30
0.0
 40
1.793845946817636
 50
268.6459488674291833
 51
269.1217163545251765
  0
ARC
  5
A662
  8
0
 10
4217.2902928868743402
 20
139.6023382684041962
 30
0.0
 40
1.793845946817636
 50
269.2526458203581115
 51
269.9999932524576138
  0
ARC
  5
A663
  8
0
 10
4217.2862722098207087
 20
139.4322376482006973
 30
0.0
 40
1.623697814775052
 50
266.2414123888518134
 51
267.3766229334839863
  0
ARC
  5
A664
  8
0
 10
4217.2862722098207087
 20
139.4322376482006973
 30
0.0
 40
1.623697814775052
 50
267.5227761300599241
 51
268.6459488674291833
  0
ARC
  5
A665
  8
0
 10
4217.2510817055972439
 20
138.8965645359490111
 30
0.0
 40
1.0868700446504651
 50
261.3936058016801098
 51
261.7889432127487908
  0
ARC
  5
A666
  8
0
 10
4217.2510817055972439
 20
138.8965645359490111
 30
0.0
 40
1.0868700446504651
 50
262.0081433093964165
 51
265.3611186855898154
  0
ARC
  5
A667
  8
0
 10
4217.2510817055972439
 20
138.8965645359490111
 30
0.0
 40
1.0868700446504651
 50
265.6614742199415105
 51
266.2414123888518134
  0
ARC
  5
A668
  8
0
 10
4217.1417765721471369
 20
138.174363146889192
 30
0.0
 40
0.3564438275976756
 50
253.309888418704702
 51
257.254518743386825
  0
ARC
  5
A669
  8
0
 10
4217.1417765721471369
 20
138.174363146889192
 30
0.0
 40
0.3564438275976756
 50
257.6135754751219906
 51
261.3936058016801098
  0
LINE
  5
A66A
  8
0
 10
4217.2648989748677195
 20
137.8123153450181917
 30
0.0
 11
4217.2902926756187298
 21
137.814579134686511
 31
0.0
  0
LINE
  5
A66B
  8
0
 10
4217.2395052741176187
 20
137.814579134686511
 30
0.0
 11
4217.2648989748677195
 21
137.8123153450181917
 31
0.0
  0
LINE
  5
A66C
  8
0
 10
4217.2141115732683829
 20
137.8123153450183054
 30
0.0
 11
4217.2395052741176187
 21
137.814579134686511
 31
0.0
  0
LINE
  5
A66D
  8
0
 10
4217.1887178725191916
 20
137.814579134686511
 30
0.0
 11
4217.2141115732683829
 21
137.8123153450183054
 31
0.0
  0
LINE
  5
A66E
  8
0
 10
4217.1887178725191916
 20
137.814579134686511
 30
0.0
 11
4217.1666414977989916
 21
137.8126110769580919
 31
0.0
  0
ARC
  5
A66F
  8
0
 10
4217.2649092454821584
 20
137.8131599767552871
 30
0.0
 40
0.0049324366900717
 50
184.7370355882279966
 51
355.284466944828182
  0
ARC
  5
A670
  8
0
 10
4217.2142247714646146
 20
137.8146684104125086
 30
0.0
 40
0.0049750402977164
 50
203.1430987438295119
 51
337.1193720715845075
  0
LINE
  5
A671
  8
0
 10
4217.1603586671180892
 20
137.8182655347208936
 30
0.0
 11
4217.1603586671180892
 21
137.8211061357127107
 31
0.0
  0
ARC
  5
A672
  8
0
 10
4217.1658661964429484
 20
137.8180673631526076
 30
0.0
 40
0.0055110934694535
 50
177.9392759548098866
 51
278.0872044457256038
  0
LINE
  5
A673
  8
0
 10
4217.2648989748186068
 20
137.8213705035865075
 30
0.0
 11
4217.2902926756187298
 21
137.8191067139229915
 31
0.0
  0
LINE
  5
A674
  8
0
 10
4217.2395052740675965
 20
137.8191067139181882
 30
0.0
 11
4217.2648989748186068
 21
137.8213705035865075
 31
0.0
  0
LINE
  5
A675
  8
0
 10
4217.2141115733193146
 20
137.8213705035865075
 30
0.0
 11
4217.2395052740675965
 21
137.8191067139181882
 31
0.0
  0
LINE
  5
A676
  8
0
 10
4217.1887178724673504
 20
137.8191067139183872
 30
0.0
 11
4217.2141115733193146
 21
137.8213705035865075
 31
0.0
  0
LINE
  5
A677
  8
0
 10
4217.1633241717190685
 20
137.8213705035865075
 30
0.0
 11
4217.1887178724673504
 21
137.8191067139183872
 31
0.0
  0
LINE
  5
A678
  8
0
 10
4217.1379304709189455
 20
137.8191067139136976
 30
0.0
 11
4217.1633241717190685
 21
137.8213705035865075
 31
0.0
  0
LINE
  5
A679
  8
0
 10
4217.1125367701188225
 20
137.8213705035865075
 30
0.0
 11
4217.1379304709189455
 21
137.8191067139136976
 31
0.0
  0
LINE
  5
A67A
  8
0
 10
4217.1125367701188225
 20
137.8213705035865075
 30
0.0
 11
4217.0978719318427466
 21
137.8200631672102077
 31
0.0
  0
ARC
  5
A67B
  8
0
 10
4217.2383814343857011
 20
137.8194370396406896
 30
0.0
 40
0.0049862066032098
 50
283.0257964255110892
 51
0.1607986639955632
  0
ARC
  5
A67C
  8
0
 10
4217.2399845697682395
 20
137.8187175330197931
 30
0.0
 40
0.0041660610993181
 50
170.1542977568383037
 51
263.3936250546555016
  0
ARC
  5
A67D
  8
0
 10
4217.1875940327845456
 20
137.8194370396406896
 30
0.0
 40
0.0049862066032098
 50
283.0257964255110892
 51
0.1607986639955632
  0
ARC
  5
A67E
  8
0
 10
4217.1891971681670839
 20
137.8187175330197931
 30
0.0
 40
0.0041660610993181
 50
170.1542977568383037
 51
263.3936250546555016
  0
LINE
  5
A67F
  8
0
 10
4217.2648989748677195
 20
137.8258980828182132
 30
0.0
 11
4217.2902926756187298
 21
137.8281618724865041
 31
0.0
  0
LINE
  5
A680
  8
0
 10
4217.2395052741176187
 20
137.8281618724865041
 30
0.0
 11
4217.2648989748677195
 21
137.8258980828182132
 31
0.0
  0
LINE
  5
A681
  8
0
 10
4217.2141115732683829
 20
137.8258980828182985
 30
0.0
 11
4217.2395052741176187
 21
137.8281618724865041
 31
0.0
  0
LINE
  5
A682
  8
0
 10
4217.1887178725191916
 20
137.8281618724865041
 30
0.0
 11
4217.2141115732683829
 21
137.8258980828182985
 31
0.0
  0
LINE
  5
A683
  8
0
 10
4217.1633241716672273
 20
137.8258980828182985
 30
0.0
 11
4217.1887178725191916
 21
137.8281618724865041
 31
0.0
  0
LINE
  5
A684
  8
0
 10
4217.1379304709189455
 20
137.8281618724865041
 30
0.0
 11
4217.1633241716672273
 21
137.8258980828182985
 31
0.0
  0
LINE
  5
A685
  8
0
 10
4217.1125367701697542
 20
137.8258980828182985
 30
0.0
 11
4217.1379304709189455
 21
137.8281618724865041
 31
0.0
  0
LINE
  5
A686
  8
0
 10
4217.0871430693186994
 20
137.8281618724865041
 30
0.0
 11
4217.1125367701697542
 21
137.8258980828182985
 31
0.0
  0
LINE
  5
A687
  8
0
 10
4217.0871430693186994
 20
137.8281618724865041
 30
0.0
 11
4217.0642585116429473
 21
137.8261217671995098
 31
0.0
  0
ARC
  5
A688
  8
0
 10
4217.264192620547874
 20
137.8269904285201903
 30
0.0
 40
0.005664140942552
 50
277.163797458850695
 51
353.3722522364320753
  0
ARC
  5
A689
  8
0
 10
4217.265700209057286
 20
137.8271069065152119
 30
0.0
 40
0.0057920889895413
 50
187.6241966685707894
 51
262.0486324472158799
  0
ARC
  5
A68A
  8
0
 10
4217.2134052190467628
 20
137.8269904285201903
 30
0.0
 40
0.005664140942552
 50
277.163797458850695
 51
353.3722522364320753
  0
ARC
  5
A68B
  8
0
 10
4217.2149128075561748
 20
137.8271069065152119
 30
0.0
 40
0.0057920889895413
 50
187.6241966685707894
 51
262.0486324472158799
  0
ARC
  5
A68C
  8
0
 10
4217.1626178174474262
 20
137.8269904285201903
 30
0.0
 40
0.005664140942552
 50
277.163797458850695
 51
353.3722522364320753
  0
ARC
  5
A68D
  8
0
 10
4217.1641254059559287
 20
137.8271069065152119
 30
0.0
 40
0.0057920889895413
 50
187.6241966685707894
 51
262.0486324472158799
  0
ARC
  5
A68E
  8
0
 10
4217.1118304158480896
 20
137.8269904285201903
 30
0.0
 40
0.005664140942552
 50
277.163797458850695
 51
353.3722522364320753
  0
ARC
  5
A68F
  8
0
 10
4217.1133380043547731
 20
137.8271069065152119
 30
0.0
 40
0.0057920889895413
 50
187.6241966685707894
 51
262.0486324472158799
  0
LINE
  5
A690
  8
0
 10
4217.2648989748186068
 20
137.8349602444833977
 30
0.0
 11
4217.2902926756187298
 21
137.8326964548199101
 31
0.0
  0
LINE
  5
A691
  8
0
 10
4217.2395052740675965
 20
137.8326964548151068
 30
0.0
 11
4217.2648989748186068
 21
137.8349602444833977
 31
0.0
  0
LINE
  5
A692
  8
0
 10
4217.2141115733193146
 20
137.8349602444833977
 30
0.0
 11
4217.2395052740675965
 21
137.8326964548151068
 31
0.0
  0
LINE
  5
A693
  8
0
 10
4217.1887178724673504
 20
137.8326964548153057
 30
0.0
 11
4217.2141115733193146
 21
137.8349602444833977
 31
0.0
  0
LINE
  5
A694
  8
0
 10
4217.1633241717190685
 20
137.8349602444833977
 30
0.0
 11
4217.1887178724673504
 21
137.8326964548153057
 31
0.0
  0
LINE
  5
A695
  8
0
 10
4217.1379304709189455
 20
137.8326964548105877
 30
0.0
 11
4217.1633241717190685
 21
137.8349602444833977
 31
0.0
  0
LINE
  5
A696
  8
0
 10
4217.1125367701188225
 20
137.8349602444833977
 30
0.0
 11
4217.1379304709189455
 21
137.8326964548105877
 31
0.0
  0
LINE
  5
A697
  8
0
 10
4217.1125367701188225
 20
137.8349602444833977
 30
0.0
 11
4217.0871037916358546
 21
137.83269295334091
 31
0.0
  0
LINE
  5
A698
  8
0
 10
4217.2648989748677195
 20
137.8394878237151033
 30
0.0
 11
4217.2902926756187298
 21
137.8417516133833942
 31
0.0
  0
LINE
  5
A699
  8
0
 10
4217.2395052741176187
 20
137.8417516133833942
 30
0.0
 11
4217.2648989748677195
 21
137.8394878237151033
 31
0.0
  0
LINE
  5
A69A
  8
0
 10
4217.2141115732683829
 20
137.8394878237151886
 30
0.0
 11
4217.2395052741176187
 21
137.8417516133833942
 31
0.0
  0
LINE
  5
A69B
  8
0
 10
4217.1887178725191916
 20
137.8417516133833942
 30
0.0
 11
4217.2141115732683829
 21
137.8394878237151886
 31
0.0
  0
LINE
  5
A69C
  8
0
 10
4217.1633241716672273
 20
137.8394878237151886
 30
0.0
 11
4217.1887178725191916
 21
137.8417516133833942
 31
0.0
  0
LINE
  5
A69D
  8
0
 10
4217.1379304709189455
 20
137.8417516133833942
 30
0.0
 11
4217.1633241716672273
 21
137.8394878237151886
 31
0.0
  0
LINE
  5
A69E
  8
0
 10
4217.1125367701697542
 20
137.8394878237153023
 30
0.0
 11
4217.1379304709189455
 21
137.8417516133833942
 31
0.0
  0
LINE
  5
A69F
  8
0
 10
4217.0946733599039362
 20
137.8410803054034091
 30
0.0
 11
4217.1125367701697542
 21
137.8394878237153023
 31
0.0
  0
ARC
  5
A6A0
  8
0
 10
4217.264192620547874
 20
137.8405801694171089
 30
0.0
 40
0.005664140942552
 50
277.163797458850695
 51
353.3722522364320753
  0
ARC
  5
A6A1
  8
0
 10
4217.265700209057286
 20
137.840696647412102
 30
0.0
 40
0.0057920889895413
 50
187.6241966685707894
 51
262.0486324472158799
  0
ARC
  5
A6A2
  8
0
 10
4217.2134052190467628
 20
137.8405801694171089
 30
0.0
 40
0.005664140942552
 50
277.163797458850695
 51
353.3722522364320753
  0
ARC
  5
A6A3
  8
0
 10
4217.2149128075561748
 20
137.840696647412102
 30
0.0
 40
0.0057920889895413
 50
187.6241966685707894
 51
262.0486324472158799
  0
ARC
  5
A6A4
  8
0
 10
4217.1626178174474262
 20
137.8405801694171089
 30
0.0
 40
0.005664140942552
 50
277.163797458850695
 51
353.3722522364320753
  0
ARC
  5
A6A5
  8
0
 10
4217.1641254059559287
 20
137.840696647412102
 30
0.0
 40
0.0057920889895413
 50
187.6241966685707894
 51
262.0486324472158799
  0
ARC
  5
A6A6
  8
0
 10
4217.1118304158480896
 20
137.8405801694171089
 30
0.0
 40
0.005664140942552
 50
277.163797458850695
 51
353.3722522364320753
  0
ARC
  5
A6A7
  8
0
 10
4217.1133380043547731
 20
137.840696647412102
 30
0.0
 40
0.0057920889895413
 50
187.6241966685707894
 51
262.0486324472158799
  0
LINE
  5
A6A8
  8
0
 10
4217.2648989748186068
 20
137.8485384852376967
 30
0.0
 11
4217.2902926756187298
 21
137.8462746955740954
 31
0.0
  0
LINE
  5
A6A9
  8
0
 10
4217.2395052740675965
 20
137.8462746955694058
 30
0.0
 11
4217.2648989748186068
 21
137.8485384852376967
 31
0.0
  0
LINE
  5
A6AA
  8
0
 10
4217.2141115733193146
 20
137.8485384852376967
 30
0.0
 11
4217.2395052740675965
 21
137.8462746955694058
 31
0.0
  0
LINE
  5
A6AB
  8
0
 10
4217.1887178724673504
 20
137.8462746955694911
 30
0.0
 11
4217.2141115733193146
 21
137.8485384852376967
 31
0.0
  0
LINE
  5
A6AC
  8
0
 10
4217.1633241717190685
 20
137.8485384852376967
 30
0.0
 11
4217.1887178724673504
 21
137.8462746955694911
 31
0.0
  0
LINE
  5
A6AD
  8
0
 10
4217.1379304709189455
 20
137.8462746955648868
 30
0.0
 11
4217.1633241717190685
 21
137.8485384852376967
 31
0.0
  0
LINE
  5
A6AE
  8
0
 10
4217.1125367701188225
 20
137.8485384852376967
 30
0.0
 11
4217.1379304709189455
 21
137.8462746955648868
 31
0.0
  0
LINE
  5
A6AF
  8
0
 10
4217.1125367701188225
 20
137.8485384852376967
 30
0.0
 11
4217.1039932426192536
 21
137.8477768495432088
 31
0.0
  0
LINE
  5
A6B0
  8
0
 10
4217.2141115732683829
 20
137.8530660644694876
 30
0.0
 11
4217.2285763567206232
 21
137.8543555664419955
 31
0.0
  0
LINE
  5
A6B1
  8
0
 10
4217.190621254006146
 20
137.8551601720820088
 30
0.0
 11
4217.2141115732683829
 21
137.8530660644694876
 31
0.0
  0
LINE
  5
A6B2
  8
0
 10
4217.1633241716672273
 20
137.8530660644694876
 30
0.0
 11
4217.1828608329460621
 21
137.854807712613308
 31
0.0
  0
LINE
  5
A6B3
  8
0
 10
4217.1583294729161935
 20
137.8535113303069011
 30
0.0
 11
4217.1633241716672273
 21
137.8530660644694876
 31
0.0
  0
ARC
  5
A6B4
  8
0
 10
4217.264192620547874
 20
137.8541584101712942
 30
0.0
 40
0.005664140942552
 50
277.163797458850695
 51
325.0654848126495153
  0
ARC
  5
A6B5
  8
0
 10
4217.265700209057286
 20
137.8542748881662874
 30
0.0
 40
0.0057920889895413
 50
216.6022368110967875
 51
262.0486324472158799
  0
ARC
  5
A6B6
  8
0
 10
4217.2134052190467628
 20
137.8541584101714079
 30
0.0
 40
0.005664140942552
 50
277.163797458850695
 51
353.3722522364320753
  0
ARC
  5
A6B7
  8
0
 10
4217.2149128075561748
 20
137.8542748881662874
 30
0.0
 40
0.0057920889895413
 50
187.6241966685707894
 51
262.0486324472158799
  0
ARC
  5
A6B8
  8
0
 10
4217.1626178174474262
 20
137.8541584101714079
 30
0.0
 40
0.005664140942552
 50
277.163797458850695
 51
353.3722522364320753
  0
ARC
  5
A6B9
  8
0
 10
4217.1641254059559287
 20
137.8542748881662874
 30
0.0
 40
0.0057920889895413
 50
187.6241966685707894
 51
262.0486324472158799
  0
ARC
  5
A6BA
  8
0
 10
4217.1118304158480896
 20
137.8541584101712942
 30
0.0
 40
0.005664140942552
 50
277.163797458850695
 51
320.2915082287601081
  0
ARC
  5
A6BB
  8
0
 10
4217.1133380043547731
 20
137.8542748881662874
 30
0.0
 40
0.0057920889895413
 50
228.121479860685298
 51
262.0486324472158799
  0
ARC
  5
A6BC
  8
0
 10
4217.2902926756187298
 20
135.7417811755830996
 30
0.0
 40
2.109242859503428
 50
90.0
 51
91.5493935068453339
  0
LINE
  5
A6BD
  8
0
 10
4217.227396485319332
 20
137.8553887716865063
 30
0.0
 11
4217.2332614434990319
 21
137.8502528682859065
 31
0.0
  0
LINE
  5
A6BE
  8
0
 10
4217.227396485319332
 20
137.8553887716865063
 30
0.0
 11
4217.2269996844879643
 21
137.8564435311996874
 31
0.0
  0
LINE
  5
A6BF
  8
0
 10
4217.0936064374182024
 20
137.824903348991711
 30
0.0
 11
4217.0936064374182024
 21
137.8275856781770869
 31
0.0
  0
ARC
  5
A6C0
  8
0
 10
4217.0986142460142219
 20
137.8250169559798053
 30
0.0
 40
0.0050090970743975
 50
181.2995880086853049
 51
261.4777651073123934
  0
LINE
  5
A6C1
  8
0
 10
4217.0608104546190589
 20
137.8306394401865873
 30
0.0
 11
4217.0608104546190589
 21
137.8348695393864034
 31
0.0
  0
ARC
  5
A6C2
  8
0
 10
4217.0661446495250857
 20
137.8311360177368101
 30
0.0
 40
0.0053572590529972
 50
185.3185217191195875
 51
249.3859342206123983
  0
LINE
  5
A6C3
  8
0
 10
4217.0617493685176669
 20
137.8349532413865006
 30
0.0
 11
4217.0871037916358546
 21
137.83269295334091
 31
0.0
  0
LINE
  5
A6C4
  8
0
 10
4217.0617493685176669
 20
137.8349532413865006
 30
0.0
 11
4217.0396788765601741
 21
137.8329857081334069
 31
0.0
  0
ARC
  5
A6C5
  8
0
 10
4217.0864393211677452
 20
137.8337686818256032
 30
0.0
 40
0.0056508028124714
 50
277.1541632159991195
 51
353.5540416450693897
  0
ARC
  5
A6C6
  8
0
 10
4217.0879146797651629
 20
137.8338642768181046
 30
0.0
 40
0.0057543720633905
 50
187.3366022292873936
 51
262.2939304032790915
  0
ARC
  5
A6C7
  8
0
 10
4217.1372267227679913
 20
137.8337686818256032
 30
0.0
 40
0.0056508028124714
 50
277.1541632159991195
 51
353.5540416450693897
  0
ARC
  5
A6C8
  8
0
 10
4217.1387020813663185
 20
137.8338642768181046
 30
0.0
 40
0.0057543720633905
 50
187.3366022292873936
 51
262.2939304032790915
  0
ARC
  5
A6C9
  8
0
 10
4217.1880141243673279
 20
137.8337686818256032
 30
0.0
 40
0.0056508028124714
 50
277.1541632159991195
 51
353.5540416450693897
  0
ARC
  5
A6CA
  8
0
 10
4217.1894894829665645
 20
137.8338642768181046
 30
0.0
 40
0.0057543720633905
 50
187.3366022292873936
 51
262.2939304032790915
  0
ARC
  5
A6CB
  8
0
 10
4217.238801525967574
 20
137.8337686818256032
 30
0.0
 40
0.0056508028124714
 50
277.1541632159991195
 51
353.5540416450693897
  0
ARC
  5
A6CC
  8
0
 10
4217.2402768845668106
 20
137.8338642768181046
 30
0.0
 40
0.0057543720633905
 50
187.3366022292873936
 51
262.2939304032790915
  0
ARC
  5
A6CD
  8
0
 10
4217.238801525967574
 20
137.8473584227224933
 30
0.0
 40
0.0056508028124714
 50
277.1541632159991195
 51
353.4354758531342213
  0
ARC
  5
A6CE
  8
0
 10
4217.2402768845668106
 20
137.8474540177149947
 30
0.0
 40
0.0057543720633905
 50
187.3822776761097089
 51
262.2939304032790915
  0
ARC
  5
A6CF
  8
0
 10
4217.1880141243682374
 20
137.847358422722408
 30
0.0
 40
0.0056508028124714
 50
277.1541632159991195
 51
353.4354758531342213
  0
ARC
  5
A6D0
  8
0
 10
4217.1894894829683835
 20
137.8474540177149095
 30
0.0
 40
0.0057543720633905
 50
187.3822776761097089
 51
262.2939304032790915
  0
ARC
  5
A6D1
  8
0
 10
4217.1372267227679913
 20
137.847358422722408
 30
0.0
 40
0.0056508028124714
 50
277.1541632159991195
 51
353.4354758531342213
  0
ARC
  5
A6D2
  8
0
 10
4217.1387020813672279
 20
137.8474540177149095
 30
0.0
 40
0.0057543720633905
 50
187.3822776761097089
 51
262.2939304032790915
  0
ARC
  5
A6D3
  8
0
 10
4215.8041269221894254
 20
132.4226605271865083
 30
0.0
 40
0.01
 50
269.999999999895806
 51
356.2450842432094191
  0
LINE
  5
A6D4
  8
0
 10
4216.0092504762405952
 20
132.5895408791064085
 30
0.0
 11
4218.571334874995955
 21
132.5895408791064085
 31
0.0
  0
LINE
  5
A6D5
  8
0
 10
4215.7007168919562901
 20
132.402660527186498
 30
0.0
 11
4215.7007168919562901
 21
132.1466605271864978
 31
0.0
  0
ARC
  5
A6D6
  8
0
 10
4215.7107168919555988
 20
132.402660527186498
 30
0.0
 40
0.01
 50
90.0
 51
179.9999999999951115
  0
ARC
  5
A6D7
  8
0
 10
4215.7107168919555988
 20
132.1466605271864978
 30
0.0
 40
0.01
 50
180.0
 51
270.0
  0
LINE
  5
A6D8
  8
0
 10
4218.5594388059244011
 20
132.5963013359632043
 30
0.0
 11
4218.5194628584067686
 21
132.6828535949128138
 31
0.0
  0
ARC
  5
A6D9
  8
0
 10
4218.6052306182591565
 20
132.4114229096576025
 30
0.0
 40
0.1615961748856286
 50
3.7549157570060321
 51
36.8517448127940526
  0
ARC
  5
A6DA
  8
0
 10
4218.578633813437591
 20
132.3914884694426064
 30
0.0
 40
0.194834284539686
 50
36.8517448127940526
 51
64.7879146494358622
  0
ARC
  5
A6DB
  8
0
 10
4218.5636729563730114
 20
132.359712429022494
 30
0.0
 40
0.2299561294354873
 50
64.7879146494358622
 51
88.0906059448415988
  0
ARC
  5
A6DC
  8
0
 10
4218.5719499131582779
 20
132.6044698486583968
 30
0.0
 40
0.0149416332381863
 50
213.1405514458303969
 51
267.6408837478180089
  0
ARC
  5
A6DD
  8
0
 10
4218.5103844123359522
 20
132.6786605271865085
 30
0.0
 40
0.01
 50
24.7908288853917114
 51
90.0
  0
LINE
  5
A6DE
  8
0
 10
4217.8133756702191022
 20
136.5921655840533049
 30
0.0
 11
4217.8133756702191022
 21
140.3136605271209874
 31
0.0
  0
ARC
  5
A6DF
  8
0
 10
4218.4758625889462564
 20
132.6988084663285861
 30
0.0
 40
0.0101896648838346
 50
219.8207257508514942
 51
264.8130982301153722
  0
ARC
  5
A6E0
  8
0
 10
4220.2777807617785584
 20
134.2012147024366016
 30
0.0
 40
2.3562786657278858
 50
214.4477782013819933
 51
219.8207257508514942
  0
ARC
  5
A6E1
  8
0
 10
4220.0706433546947665
 20
134.0591309043122124
 30
0.0
 40
2.1050940501512039
 50
205.8097917846247071
 51
214.4477782013819933
  0
ARC
  5
A6E2
  8
0
 10
4219.7719333006707529
 20
133.9146658378382142
 30
0.0
 40
1.7732840867576189
 50
183.8776563121583933
 51
205.8097917846247071
  0
ARC
  5
A6E3
  8
0
 10
4249.8099116973389755
 20
137.5083085055505023
 30
0.0
 40
32.023252661086282
 50
184.099196248407992
 51
186.6592638749436048
  0
ARC
  5
A6E4
  8
0
 10
4241.3064202331752313
 20
136.8103167431933116
 30
0.0
 40
23.4917862161761306
 50
181.5260556546429882
 51
183.8837194425186112
  0
ARC
  5
A6E5
  8
0
 10
4142.1200338229746194
 20
134.6067566521157914
 30
0.0
 40
75.7193756487115337
 50
1.194089395400393
 51
1.5025030298198281
  0
LINE
  5
A6E6
  8
0
 10
4217.5554944269179032
 20
140.7630034347862988
 30
0.0
 11
4217.8120359242557242
 21
140.3186605271206986
 31
0.0
  0
ARC
  5
A6E7
  8
0
 10
4217.8033756702188839
 20
140.3136605271209874
 30
0.0
 40
0.01
 50
0.0000000000105849
 51
29.9999999984990318
  0
LINE
  5
A6E8
  8
0
 10
4218.0887408215176038
 20
132.1466605271864978
 30
0.0
 11
4218.0887408215176038
 21
132.402660527186498
 31
0.0
  0
ARC
  5
A6E9
  8
0
 10
4218.0417933334183545
 20
132.4222497976782904
 30
0.0
 40
0.0097569432472164
 50
180.7279379614930122
 51
259.3625898439207731
  0
ARC
  5
A6EA
  8
0
 10
4217.7833889049597929
 20
132.4189666149380002
 30
0.0
 40
0.248668341769659
 50
0.7279379614930284
 51
25.1464232012883002
  0
ARC
  5
A6EB
  8
0
 10
4217.9000774916648879
 20
132.4737428786291957
 30
0.0
 40
0.1197626966978895
 50
25.1464232012875613
 51
75.2197662140956282
  0
ARC
  5
A6EC
  8
0
 10
4217.9389756684531676
 20
132.5960978377630113
 30
0.0
 40
0.0106118666696631
 50
181.4890080119205038
 51
218.1489580735207028
  0
LINE
  5
A6ED
  8
0
 10
4217.9283673851077765
 20
132.5958220866334045
 30
0.0
 11
4217.9087174331343704
 21
132.6809106582086031
 31
0.0
  0
ARC
  5
A6EE
  8
0
 10
4217.8989738757563828
 20
132.6786605271865085
 30
0.0
 40
0.01
 50
13.0036486211285602
 51
90.0
  0
ARC
  5
A6EF
  8
0
 10
4217.8901248307884089
 20
132.6980125974700968
 30
0.0
 40
0.009726548891688
 50
212.2192344110399915
 51
254.0494715340132075
  0
ARC
  5
A6F0
  8
0
 10
4220.6407041253041825
 20
133.8361985038847024
 30
0.0
 40
2.986355802178684
 50
196.8106064483930879
 51
202.5112731530749102
  0
ARC
  5
A6F1
  8
0
 10
4220.8833423211790432
 20
133.8864019351786965
 30
0.0
 40
3.2332200104353341
 50
182.5072426262316014
 51
196.4187022007228904
  0
LINE
  5
A6F2
  8
0
 10
4217.5554943931629168
 20
136.0498059957006944
 30
0.0
 11
4217.5554943931629168
 21
137.733545504351298
 31
0.0
  0
LINE
  5
A6F3
  8
0
 10
4217.5554943931629168
 20
137.866605138029712
 30
0.0
 11
4217.5554943931629168
 21
140.7630034932518868
 31
0.0
  0
ARC
  5
A6F4
  8
0
 10
4285.4641711513122573
 20
137.7375013977029994
 30
0.0
 40
67.9283873299734466
 50
182.3877738697148061
 51
183.3695417951512923
  0
ARC
  5
A6F5
  8
0
 10
4295.6769155919691912
 20
138.1633591443213049
 30
0.0
 40
78.1500067628481361
 50
181.5497432096377963
 51
182.3877738697148061
  0
ARC
  5
A6F6
  8
0
 10
4218.0787408215192045
 20
132.402660527186498
 30
0.0
 40
0.01
 50
0.0
 51
90.0
  0
ARC
  5
A6F7
  8
0
 10
4218.0787408215192045
 20
132.1466605271864978
 30
0.0
 40
0.01
 50
270.0
 51
0.0000000000048853
  0
LINE
  5
A6F8
  8
0
 10
4217.5494178011340409
 20
137.7319203620174051
 30
0.0
 11
4217.805959298383641
 21
137.8005306036772026
 31
0.0
  0
LINE
  5
A6F9
  8
0
 10
4217.5481036784267417
 20
137.8685817333553132
 30
0.0
 11
4217.804256945333691
 21
137.8000753211775873
 31
0.0
  0
ARC
  5
A6FA
  8
0
 10
4217.5455200502601656
 20
137.8589212537866047
 30
0.0
 40
0.01
 50
75.0270603749120824
 51
90.0000000000521254
  0
ARC
  5
A6FB
  8
0
 10
4217.8033756702188839
 20
137.8101910832463091
 30
0.0
 40
0.01
 50
284.9729396194259152
 51
0.0000000000105849
  0
ARC
  5
A6FC
  8
0
 10
4217.2903266948032979
 20
135.4839838424989011
 30
0.0
 40
2.3733038397313808
 50
88.6443426418000939
 51
90.000821283713293
  0
ARC
  5
A6FD
  8
0
 10
4217.2948605772171504
 20
135.675569015371309
 30
0.0
 40
2.1816650269760229
 50
86.4149855184276703
 51
88.6443426418000939
  0
ARC
  5
A6FE
  8
0
 10
4217.3326224438606005
 20
136.2782921942390999
 30
0.0
 40
1.5777600767422519
 50
83.0260218680033262
 51
86.4149855184276703
  0
ARC
  5
A6FF
  8
0
 10
4217.4320959080960165
 20
137.0914916651151998
 30
0.0
 40
0.7584992211412586
 50
76.6670878680933896
 51
83.0260218680033262
  0
ARC
  5
A700
  8
0
 10
4217.5648383834686683
 20
137.6515945579560878
 30
0.0
 40
0.1828814527073859
 50
63.7318129114859317
 51
76.6670878680933896
  0
ARC
  5
A701
  8
0
 10
4217.63074662343206
 20
137.7851363693347082
 30
0.0
 40
0.0339609655964573
 50
48.9511476704198785
 51
63.7318129114855765
  0
ARC
  5
A702
  8
0
 10
4217.6372188471523259
 20
137.7925690023380128
 30
0.0
 40
0.0241053218708368
 50
26.7700852203234483
 51
48.9511476704188127
  0
ARC
  5
A703
  8
0
 10
4217.6490059890138582
 20
137.8002635911936125
 30
0.0
 40
0.0102354886035753
 50
316.0262139477331971
 51
17.9987298268212008
  0
ARC
  5
A704
  8
0
 10
4217.5821295262021522
 20
137.8907734675939025
 30
0.0
 40
0.1226416137198277
 50
278.9441385983722057
 51
307.2548585541704256
  0
ARC
  5
A705
  8
0
 10
4217.3834850835019097
 20
138.7960475645000997
 30
0.0
 40
1.0492595065324071
 50
273.4009382044966969
 51
281.9753479587049014
  0
ARC
  5
A706
  8
0
 10
4217.2951722243597033
 20
139.9010359556257015
 30
0.0
 40
2.157659243844479
 50
270.68914326868628
 51
274.0012534078721274
  0
ARC
  5
A707
  8
0
 10
4217.2905700627188708
 20
140.0953675078858112
 30
0.0
 40
2.3520331821993161
 50
269.9932428202901065
 51
270.7443067478666876
  0
ARC
  5
A708
  8
0
 10
4217.5201817746610686
 20
137.9031302189372923
 30
0.0
 40
0.0933921922539318
 50
285.2602164526743991
 51
310.0754604581306921
  0
ARC
  5
A709
  8
0
 10
4217.407601826282189
 20
138.3157787270914127
 30
0.0
 40
0.5211222894632791
 50
278.0980809582587199
 51
285.2602164526743991
  0
ARC
  5
A70A
  8
0
 10
4217.3529811061162036
 20
138.6996560811545862
 30
0.0
 40
0.9088660786256797
 50
274.5106122129107007
 51
278.0980809582587199
  0
ARC
  5
A70B
  8
0
 10
4217.2885435485341077
 20
139.5164786201590914
 30
0.0
 40
1.72822635289635
 50
271.7507649272652088
 51
274.5106122129107007
  0
ARC
  5
A70C
  8
0
 10
4217.2937605054021333
 20
139.3458008959889867
 30
0.0
 40
1.5574689162593109
 50
269.87242623419138
 51
271.7507649272652088
  0
ARC
  5
A70D
  8
0
 10
4217.2902952308304521
 20
140.0760545085771014
 30
0.0
 40
2.3317181617919509
 50
269.999937212462612
 51
271.5481363474926866
  0
LINE
  5
A70E
  8
0
 10
4217.3538725202188289
 20
137.7835324992865083
 30
0.0
 11
4217.3538725202188289
 21
137.7473329842557916
 31
0.0
  0
LINE
  5
A70F
  8
0
 10
4217.3538725202188289
 20
137.7835324992865083
 30
0.0
 11
4217.3480614591189806
 21
137.7886212052864892
 31
0.0
  0
ARC
  5
A710
  8
0
 10
4217.3034696756621997
 20
139.7479356460897861
 30
0.0
 40
1.965049660927189
 50
271.4697781318732268
 51
275.0543564757032868
  0
ARC
  5
A711
  8
0
 10
4217.3483112482435899
 20
137.7476892859648956
 30
0.0
 40
0.0055726741216666
 50
333.324086094243512
 51
356.334162303351377
  0
LINE
  5
A712
  8
0
 10
4217.3466220633272314
 20
137.7892284318641885
 30
0.0
 11
4217.3473778048191889
 21
137.7503219584864951
 31
0.0
  0
LINE
  5
A713
  8
0
 10
4217.3473778048191889
 20
137.7503219584864951
 30
0.0
 11
4217.3532907680191784
 21
137.7451874706864885
 31
0.0
  0
ARC
  5
A714
  8
0
 10
4217.2902926762471907
 20
139.8627499067929989
 30
0.0
 40
2.113199126606458
 50
269.9999999829599915
 51
271.5479539172768
  0
LINE
  5
A715
  8
0
 10
4217.3480614591189806
 20
137.7886212052864892
 30
0.0
 11
4217.3476779055990846
 21
137.7892642574757076
 31
0.0
  0
LINE
  5
A716
  8
0
 10
4217.4765921086191156
 20
137.8446426093686057
 30
0.0
 11
4217.4765921086191156
 21
137.8494699675642892
 31
0.0
  0
LINE
  5
A717
  8
0
 10
4217.4982561479646392
 20
137.7544513367911065
 30
0.0
 11
4217.4785650621233799
 21
137.7587935743412118
 31
0.0
  0
LINE
  5
A718
  8
0
 10
4217.5902184241185751
 20
137.7709978853366124
 30
0.0
 11
4217.5902184241185751
 21
137.8067811233082125
 31
0.0
  0
ARC
  5
A719
  8
0
 10
4217.5867666309432025
 20
137.7716213906271037
 30
0.0
 40
0.0035076537723353
 50
287.3737194107187065
 51
349.7609396343289063
  0
ARC
  5
A71A
  8
0
 10
4217.4002874434736441
 20
138.6862489682980026
 30
0.0
 40
0.936933665283311
 50
276.0019964545944049
 51
281.5456877258270083
  0
ARC
  5
A71B
  8
0
 10
4217.4813962012522097
 20
137.7626975589973028
 30
0.0
 40
0.0048224936468826
 50
185.0068069716089951
 51
234.0506714561097112
  0
LINE
  5
A71C
  8
0
 10
4217.5563558396188455
 20
137.775019784530798
 30
0.0
 11
4217.5563558396188455
 21
137.8170283107214971
 31
0.0
  0
LINE
  5
A71D
  8
0
 10
4217.5873971705477743
 20
137.768188707108294
 30
0.0
 11
4217.5595803127216641
 21
137.7711962064184092
 31
0.0
  0
ARC
  5
A71E
  8
0
 10
4217.5604810310760513
 20
137.7752272029983089
 30
0.0
 40
0.0041304027634892
 50
182.8784610279654999
 51
257.4042795884788006
  0
ARC
  5
A71F
  8
0
 10
4217.4341948813371346
 20
138.3194253280059911
 30
0.0
 40
0.5623848114593459
 50
274.5251380718145242
 51
282.8825416178564751
  0
LINE
  5
A720
  8
0
 10
4217.5628058557031181
 20
137.8097453857880907
 30
0.0
 11
4217.5902184241185751
 21
137.8067811233082125
 31
0.0
  0
ARC
  5
A721
  8
0
 10
4217.5644081623640886
 20
137.8175431594812039
 30
0.0
 40
0.0079606947683272
 50
183.3878298979917076
 51
258.3883416305116043
  0
LINE
  5
A722
  8
0
 10
4217.5902184241185751
 20
137.8067811233082125
 30
0.0
 11
4217.6101613355176596
 21
137.8112366876160877
 31
0.0
  0
LINE
  5
A723
  8
0
 10
4217.6101613355176596
 20
137.7955227786324883
 30
0.0
 11
4217.6101613355176596
 21
137.8287708988198119
 31
0.0
  0
ARC
  5
A724
  8
0
 10
4217.6189410421902721
 20
137.8064332337486917
 30
0.0
 40
0.0374997162835967
 50
351.9567494027641033
 51
1.054473348522057
  0
ARC
  5
A725
  8
0
 10
4217.6368345969940492
 20
137.8070934853018912
 30
0.0
 40
0.0201238126723915
 50
309.3285631542792089
 51
342.9297229927374246
  0
ARC
  5
A726
  8
0
 10
4217.647099465158135
 20
137.7943953890772946
 30
0.0
 40
0.0037975175875848
 50
268.4190793201058227
 51
310.950756795182599
  0
ARC
  5
A727
  8
0
 10
4217.5922016483573316
 20
136.3837730027773034
 30
0.0
 40
1.407892949217542
 50
87.7695722859384091
 51
89.1112879649961656
  0
ARC
  5
A728
  8
0
 10
4217.6141743753178162
 20
137.7955073627535967
 30
0.0
 40
0.0040130694095279
 50
179.7799023945738952
 51
268.0601458567144846
  0
ARC
  5
A729
  8
0
 10
4217.6468605322215808
 20
137.8140335981817088
 30
0.0
 40
0.0040131343588831
 50
271.9158264899584196
 51
340.0713386857796081
  0
ARC
  5
A72A
  8
0
 10
4217.5583643020818272
 20
140.4596649609219128
 30
0.0
 40
2.6511241804360508
 50
271.2033132591257072
 51
271.9158264899584196
  0
ARC
  5
A72B
  8
0
 10
4217.613956474697261
 20
137.8130319884861876
 30
0.0
 40
0.0039074192999338
 50
193.7685922559118978
 51
271.2033132591777758
  0
ARC
  5
A72C
  8
0
 10
4217.6069037086863318
 20
137.8031436168720063
 30
0.0
 40
0.0082879013058322
 50
293.1449183436618
 51
50.9616276290393699
  0
ARC
  5
A72D
  8
0
 10
4217.640927802832266
 20
137.8003110075370046
 30
0.0
 40
0.0114509521315577
 50
301.9930803820569736
 51
58.007001056059508
  0
ARC
  5
A72E
  8
0
 10
4217.4025429044513658
 20
137.0838100537567925
 30
0.0
 40
0.7618455477829639
 50
78.4385577639795741
 51
84.2821295619532691
  0
ARC
  5
A72F
  8
0
 10
4217.4794675438906779
 20
137.8445542498064924
 30
0.0
 40
0.0028767925556029
 50
178.2399056496037133
 51
249.1931458706104934
  0
LINE
  5
A730
  8
0
 10
4217.5632366313648163
 20
137.8298211310373915
 30
0.0
 11
4217.5867775654778598
 21
137.8323663266859
 31
0.0
  0
ARC
  5
A731
  8
0
 10
4217.5604418540287952
 20
137.8556704873089132
 30
0.0
 40
0.026
 50
258.4385577640310885
 51
276.170727934454078
  0
ARC
  5
A732
  8
0
 10
4217.5865255048165636
 20
137.8357102207154128
 30
0.0
 40
0.003353380659706
 50
274.3107680506302017
 51
320.1912493201750181
  0
LINE
  5
A733
  8
0
 10
4217.4786419096708414
 20
137.8418453959943122
 30
0.0
 11
4217.4980447706293489
 21
137.8461240747888894
 31
0.0
  0
ARC
  5
A734
  8
0
 10
4217.4973455804502009
 20
137.8483845160741907
 30
0.0
 40
0.0023661068673329
 50
287.1876636594005276
 51
330.3151760854067902
  0
LINE
  5
A735
  8
0
 10
4217.4765921086172966
 20
137.7622766802329011
 30
0.0
 11
4217.4765921086172966
 21
137.7992351412954122
 31
0.0
  0
ARC
  5
A736
  8
0
 10
4217.2902924643631195
 20
139.6023382684041962
 30
0.0
 40
1.793845946817636
 50
270.8782836454748235
 51
271.3540511325708167
  0
ARC
  5
A737
  8
0
 10
4217.2902924643631195
 20
139.6023382684041962
 30
0.0
 40
1.793845946817636
 50
270.0000067475423862
 51
270.7473541796418885
  0
ARC
  5
A738
  8
0
 10
4217.2943131414176605
 20
139.4322376482006973
 30
0.0
 40
1.623697814775052
 50
272.6233770665160137
 51
273.7585876111483003
  0
ARC
  5
A739
  8
0
 10
4217.2943131414176605
 20
139.4322376482006973
 30
0.0
 40
1.623697814775052
 50
271.3540511325708167
 51
272.4772238699400759
  0
ARC
  5
A73A
  8
0
 10
4217.3295036456411253
 20
138.8965645359490111
 30
0.0
 40
1.0868700446504651
 50
278.2110567872512092
 51
278.6063941983198902
  0
ARC
  5
A73B
  8
0
 10
4217.3295036456411253
 20
138.8965645359490111
 30
0.0
 40
1.0868700446504651
 50
274.6388813144101846
 51
277.9918566906036972
  0
ARC
  5
A73C
  8
0
 10
4217.3295036456411253
 20
138.8965645359490111
 30
0.0
 40
1.0868700446504651
 50
273.7585876111483003
 51
274.3385257800583759
  0
ARC
  5
A73D
  8
0
 10
4217.4388087790894133
 20
138.174363146889192
 30
0.0
 40
0.3564438275976756
 50
282.745481256613175
 51
286.690111581295298
  0
ARC
  5
A73E
  8
0
 10
4217.4388087790894133
 20
138.174363146889192
 30
0.0
 40
0.3564438275976756
 50
278.6063941983198902
 51
282.3864245248778957
  0
LINE
  5
A73F
  8
0
 10
4217.3156863763688307
 20
137.8123153450181917
 30
0.0
 11
4217.2902926756187298
 21
137.814579134686511
 31
0.0
  0
LINE
  5
A740
  8
0
 10
4217.341080077118022
 20
137.814579134686511
 30
0.0
 11
4217.3156863763688307
 21
137.8123153450181917
 31
0.0
  0
LINE
  5
A741
  8
0
 10
4217.3664737779699863
 20
137.8123153450183054
 30
0.0
 11
4217.341080077118022
 21
137.814579134686511
 31
0.0
  0
LINE
  5
A742
  8
0
 10
4217.3918674787200871
 20
137.814579134686511
 30
0.0
 11
4217.3664737779699863
 21
137.8123153450183054
 31
0.0
  0
LINE
  5
A743
  8
0
 10
4217.3918674787200871
 20
137.814579134686511
 30
0.0
 11
4217.4139438534375586
 21
137.8126110769580919
 31
0.0
  0
ARC
  5
A744
  8
0
 10
4217.3156761057553013
 20
137.8131599767552871
 30
0.0
 40
0.0049324366900717
 50
184.7155330551717896
 51
355.2629644117719749
  0
ARC
  5
A745
  8
0
 10
4217.3663605797719356
 20
137.8146684104125086
 30
0.0
 40
0.0049750402977164
 50
202.8806279284154925
 51
336.8569012561704881
  0
LINE
  5
A746
  8
0
 10
4217.4202266841175515
 20
137.8182655347208936
 30
0.0
 11
4217.4202266841175515
 21
137.8211061357127107
 31
0.0
  0
ARC
  5
A747
  8
0
 10
4217.4147191547954208
 20
137.8180673631526076
 30
0.0
 40
0.0055110934694535
 50
261.9127955542742825
 51
2.0607240451901072
  0
LINE
  5
A748
  8
0
 10
4217.3156863764179434
 20
137.8213705035865075
 30
0.0
 11
4217.2902926756187298
 21
137.8191067139229915
 31
0.0
  0
LINE
  5
A749
  8
0
 10
4217.3410800771689537
 20
137.8191067139181882
 30
0.0
 11
4217.3156863764179434
 21
137.8213705035865075
 31
0.0
  0
LINE
  5
A74A
  8
0
 10
4217.3664737779190546
 20
137.8213705035865075
 30
0.0
 11
4217.3410800771689537
 21
137.8191067139181882
 31
0.0
  0
LINE
  5
A74B
  8
0
 10
4217.3918674787710188
 20
137.8191067139183872
 30
0.0
 11
4217.3664737779190546
 21
137.8213705035865075
 31
0.0
  0
LINE
  5
A74C
  8
0
 10
4217.4172611795193006
 20
137.8213705035865075
 30
0.0
 11
4217.3918674787710188
 21
137.8191067139183872
 31
0.0
  0
LINE
  5
A74D
  8
0
 10
4217.4426548803176047
 20
137.8191067139136976
 30
0.0
 11
4217.4172611795193006
 21
137.8213705035865075
 31
0.0
  0
LINE
  5
A74E
  8
0
 10
4217.4680485811177277
 20
137.8213705035865075
 30
0.0
 11
4217.4426548803176047
 21
137.8191067139136976
 31
0.0
  0
LINE
  5
A74F
  8
0
 10
4217.4680485811177277
 20
137.8213705035865075
 30
0.0
 11
4217.4827134193938036
 21
137.8200631672102077
 31
0.0
  0
ARC
  5
A750
  8
0
 10
4217.3422039168517585
 20
137.8194370396406896
 30
0.0
 40
0.0049862066032098
 50
179.8392013360052033
 51
256.9742035744889108
  0
ARC
  5
A751
  8
0
 10
4217.3406007814701297
 20
137.8187175330197931
 30
0.0
 40
0.0041660610993181
 50
276.6063749453444984
 51
9.8457022431617034
  0
ARC
  5
A752
  8
0
 10
4217.3929913184520046
 20
137.8194370396406896
 30
0.0
 40
0.0049862066032098
 50
179.8392013360052033
 51
256.9742035744889108
  0
ARC
  5
A753
  8
0
 10
4217.3913881830703758
 20
137.8187175330197931
 30
0.0
 40
0.0041660610993181
 50
276.6063749453444984
 51
9.8457022431617034
  0
LINE
  5
A754
  8
0
 10
4217.3156863763688307
 20
137.8258980828182132
 30
0.0
 11
4217.2902926756187298
 21
137.8281618724865041
 31
0.0
  0
LINE
  5
A755
  8
0
 10
4217.341080077118022
 20
137.8281618724865041
 30
0.0
 11
4217.3156863763688307
 21
137.8258980828182132
 31
0.0
  0
LINE
  5
A756
  8
0
 10
4217.3664737779699863
 20
137.8258980828182985
 30
0.0
 11
4217.341080077118022
 21
137.8281618724865041
 31
0.0
  0
LINE
  5
A757
  8
0
 10
4217.3918674787200871
 20
137.8281618724865041
 30
0.0
 11
4217.3664737779699863
 21
137.8258980828182985
 31
0.0
  0
LINE
  5
A758
  8
0
 10
4217.4172611795702323
 20
137.8258980828182985
 30
0.0
 11
4217.3918674787200871
 21
137.8281618724865041
 31
0.0
  0
LINE
  5
A759
  8
0
 10
4217.4426548803176047
 20
137.8281618724865041
 30
0.0
 11
4217.4172611795702323
 21
137.8258980828182985
 31
0.0
  0
LINE
  5
A75A
  8
0
 10
4217.468048581066796
 20
137.8258980828182985
 30
0.0
 11
4217.4426548803176047
 21
137.8281618724865041
 31
0.0
  0
LINE
  5
A75B
  8
0
 10
4217.4934422819187603
 20
137.8281618724865041
 30
0.0
 11
4217.468048581066796
 21
137.8258980828182985
 31
0.0
  0
LINE
  5
A75C
  8
0
 10
4217.4934422819187603
 20
137.8281618724865041
 30
0.0
 11
4217.5163268395954219
 21
137.8261217671995098
 31
0.0
  0
ARC
  5
A75D
  8
0
 10
4217.3163927306895857
 20
137.8269904285201903
 30
0.0
 40
0.005664140942552
 50
186.6277477635678963
 51
262.836202541149305
  0
ARC
  5
A75E
  8
0
 10
4217.3148851421819927
 20
137.8271069065152119
 30
0.0
 40
0.0057920889895413
 50
277.9513675527841201
 51
352.3758033314292106
  0
ARC
  5
A75F
  8
0
 10
4217.3671801321906969
 20
137.8269904285201903
 30
0.0
 40
0.005664140942552
 50
186.6277477635678963
 51
262.836202541149305
  0
ARC
  5
A760
  8
0
 10
4217.3656725436812849
 20
137.8271069065152119
 30
0.0
 40
0.0057920889895413
 50
277.9513675527841201
 51
352.3758033314292106
  0
ARC
  5
A761
  8
0
 10
4217.4179675337900335
 20
137.8269904285201903
 30
0.0
 40
0.005664140942552
 50
186.6277477635678963
 51
262.836202541149305
  0
ARC
  5
A762
  8
0
 10
4217.4164599452806215
 20
137.8271069065152119
 30
0.0
 40
0.0057920889895413
 50
277.9513675527841201
 51
352.3758033314292106
  0
ARC
  5
A763
  8
0
 10
4217.4687549353902796
 20
137.8269904285201903
 30
0.0
 40
0.005664140942552
 50
186.6277477635678963
 51
262.836202541149305
  0
ARC
  5
A764
  8
0
 10
4217.4672473468808676
 20
137.8271069065152119
 30
0.0
 40
0.0057920889895413
 50
277.9513675527841201
 51
352.3758033314292106
  0
LINE
  5
A765
  8
0
 10
4217.3156863764179434
 20
137.8349602444833977
 30
0.0
 11
4217.2902926756187298
 21
137.8326964548199101
 31
0.0
  0
LINE
  5
A766
  8
0
 10
4217.3410800771689537
 20
137.8326964548151068
 30
0.0
 11
4217.3156863764179434
 21
137.8349602444833977
 31
0.0
  0
LINE
  5
A767
  8
0
 10
4217.3664737779190546
 20
137.8349602444833977
 30
0.0
 11
4217.3410800771689537
 21
137.8326964548151068
 31
0.0
  0
LINE
  5
A768
  8
0
 10
4217.3918674787710188
 20
137.8326964548153057
 30
0.0
 11
4217.3664737779190546
 21
137.8349602444833977
 31
0.0
  0
LINE
  5
A769
  8
0
 10
4217.4172611795193006
 20
137.8349602444833977
 30
0.0
 11
4217.3918674787710188
 21
137.8326964548153057
 31
0.0
  0
LINE
  5
A76A
  8
0
 10
4217.4426548803176047
 20
137.8326964548105877
 30
0.0
 11
4217.4172611795193006
 21
137.8349602444833977
 31
0.0
  0
LINE
  5
A76B
  8
0
 10
4217.4680485811177277
 20
137.8349602444833977
 30
0.0
 11
4217.4426548803176047
 21
137.8326964548105877
 31
0.0
  0
LINE
  5
A76C
  8
0
 10
4217.4680485811177277
 20
137.8349602444833977
 30
0.0
 11
4217.4934815596016051
 21
137.83269295334091
 31
0.0
  0
LINE
  5
A76D
  8
0
 10
4217.3156863763688307
 20
137.8394878237151033
 30
0.0
 11
4217.2902926756187298
 21
137.8417516133833942
 31
0.0
  0
LINE
  5
A76E
  8
0
 10
4217.341080077118022
 20
137.8417516133833942
 30
0.0
 11
4217.3156863763688307
 21
137.8394878237151033
 31
0.0
  0
LINE
  5
A76F
  8
0
 10
4217.3664737779699863
 20
137.8394878237151886
 30
0.0
 11
4217.341080077118022
 21
137.8417516133833942
 31
0.0
  0
LINE
  5
A770
  8
0
 10
4217.3918674787200871
 20
137.8417516133833942
 30
0.0
 11
4217.3664737779699863
 21
137.8394878237151886
 31
0.0
  0
LINE
  5
A771
  8
0
 10
4217.4172611795702323
 20
137.8394878237151886
 30
0.0
 11
4217.3918674787200871
 21
137.8417516133833942
 31
0.0
  0
LINE
  5
A772
  8
0
 10
4217.4426548803176047
 20
137.8417516133833942
 30
0.0
 11
4217.4172611795702323
 21
137.8394878237151886
 31
0.0
  0
LINE
  5
A773
  8
0
 10
4217.468048581066796
 20
137.8394878237153023
 30
0.0
 11
4217.4426548803176047
 21
137.8417516133833942
 31
0.0
  0
LINE
  5
A774
  8
0
 10
4217.485911991334433
 20
137.8410803054034091
 30
0.0
 11
4217.468048581066796
 21
137.8394878237153023
 31
0.0
  0
ARC
  5
A775
  8
0
 10
4217.3163927306895857
 20
137.8405801694171089
 30
0.0
 40
0.005664140942552
 50
186.6277477635678963
 51
262.836202541149305
  0
ARC
  5
A776
  8
0
 10
4217.3148851421819927
 20
137.840696647412102
 30
0.0
 40
0.0057920889895413
 50
277.9513675527841201
 51
352.3758033314292106
  0
ARC
  5
A777
  8
0
 10
4217.3671801321906969
 20
137.8405801694171089
 30
0.0
 40
0.005664140942552
 50
186.6277477635678963
 51
262.836202541149305
  0
ARC
  5
A778
  8
0
 10
4217.3656725436812849
 20
137.840696647412102
 30
0.0
 40
0.0057920889895413
 50
277.9513675527841201
 51
352.3758033314292106
  0
ARC
  5
A779
  8
0
 10
4217.4179675337900335
 20
137.8405801694171089
 30
0.0
 40
0.005664140942552
 50
186.6277477635678963
 51
262.836202541149305
  0
ARC
  5
A77A
  8
0
 10
4217.4164599452806215
 20
137.840696647412102
 30
0.0
 40
0.0057920889895413
 50
277.9513675527841201
 51
352.3758033314292106
  0
ARC
  5
A77B
  8
0
 10
4217.4687549353902796
 20
137.8405801694171089
 30
0.0
 40
0.005664140942552
 50
186.6277477635678963
 51
262.836202541149305
  0
ARC
  5
A77C
  8
0
 10
4217.4672473468808676
 20
137.840696647412102
 30
0.0
 40
0.0057920889895413
 50
277.9513675527841201
 51
352.3758033314292106
  0
LINE
  5
A77D
  8
0
 10
4217.3156863764179434
 20
137.8485384852376967
 30
0.0
 11
4217.2902926756187298
 21
137.8462746955740954
 31
0.0
  0
LINE
  5
A77E
  8
0
 10
4217.3410800771689537
 20
137.8462746955694058
 30
0.0
 11
4217.3156863764179434
 21
137.8485384852376967
 31
0.0
  0
LINE
  5
A77F
  8
0
 10
4217.3664737779190546
 20
137.8485384852376967
 30
0.0
 11
4217.3410800771689537
 21
137.8462746955694058
 31
0.0
  0
LINE
  5
A780
  8
0
 10
4217.3918674787710188
 20
137.8462746955694911
 30
0.0
 11
4217.3664737779190546
 21
137.8485384852376967
 31
0.0
  0
LINE
  5
A781
  8
0
 10
4217.4172611795193006
 20
137.8485384852376967
 30
0.0
 11
4217.3918674787710188
 21
137.8462746955694911
 31
0.0
  0
LINE
  5
A782
  8
0
 10
4217.4426548803176047
 20
137.8462746955648868
 30
0.0
 11
4217.4172611795193006
 21
137.8485384852376967
 31
0.0
  0
LINE
  5
A783
  8
0
 10
4217.4680485811177277
 20
137.8485384852376967
 30
0.0
 11
4217.4426548803176047
 21
137.8462746955648868
 31
0.0
  0
LINE
  5
A784
  8
0
 10
4217.4680485811177277
 20
137.8485384852376967
 30
0.0
 11
4217.4765921086191156
 21
137.8477768495432088
 31
0.0
  0
LINE
  5
A785
  8
0
 10
4217.3664737779699863
 20
137.8530660644694876
 30
0.0
 11
4217.352008994515927
 21
137.8543555664419955
 31
0.0
  0
LINE
  5
A786
  8
0
 10
4217.3899640972322231
 20
137.8551601720820088
 30
0.0
 11
4217.3664737779699863
 21
137.8530660644694876
 31
0.0
  0
LINE
  5
A787
  8
0
 10
4217.4172611795702323
 20
137.8530660644694876
 30
0.0
 11
4217.3977245182913975
 21
137.854807712613308
 31
0.0
  0
LINE
  5
A788
  8
0
 10
4217.4222558783221757
 20
137.8535113303069011
 30
0.0
 11
4217.4172611795702323
 21
137.8530660644694876
 31
0.0
  0
ARC
  5
A789
  8
0
 10
4217.3163927306895857
 20
137.8541584101712942
 30
0.0
 40
0.005664140942552
 50
214.9345151873505131
 51
262.836202541149305
  0
ARC
  5
A78A
  8
0
 10
4217.3148851421819927
 20
137.8542748881662874
 30
0.0
 40
0.0057920889895413
 50
277.9513675527841201
 51
323.3977631889031841
  0
ARC
  5
A78B
  8
0
 10
4217.3671801321906969
 20
137.8541584101714079
 30
0.0
 40
0.005664140942552
 50
186.6277477635678963
 51
262.836202541149305
  0
ARC
  5
A78C
  8
0
 10
4217.3656725436812849
 20
137.8542748881662874
 30
0.0
 40
0.0057920889895413
 50
277.9513675527841201
 51
352.3758033314292106
  0
ARC
  5
A78D
  8
0
 10
4217.4179675337900335
 20
137.8541584101714079
 30
0.0
 40
0.005664140942552
 50
186.6277477635678963
 51
262.836202541149305
  0
ARC
  5
A78E
  8
0
 10
4217.4164599452806215
 20
137.8542748881662874
 30
0.0
 40
0.0057920889895413
 50
277.9513675527841201
 51
352.3758033314292106
  0
ARC
  5
A78F
  8
0
 10
4217.4687549353902796
 20
137.8541584101712942
 30
0.0
 40
0.005664140942552
 50
219.7084917712398919
 51
262.836202541149305
  0
ARC
  5
A790
  8
0
 10
4217.4672473468808676
 20
137.8542748881662874
 30
0.0
 40
0.0057920889895413
 50
277.9513675527841201
 51
311.8785201393146735
  0
ARC
  5
A791
  8
0
 10
4217.2902926756187298
 20
135.7417811755830996
 30
0.0
 40
2.109242859503428
 50
88.4506064931546945
 51
90.0
  0
LINE
  5
A792
  8
0
 10
4217.3531888659190372
 20
137.8553887716865063
 30
0.0
 11
4217.3473239077393373
 21
137.8502528682859065
 31
0.0
  0
LINE
  5
A793
  8
0
 10
4217.3531888659190372
 20
137.8553887716865063
 30
0.0
 11
4217.3535856667485859
 21
137.8564435311996874
 31
0.0
  0
LINE
  5
A794
  8
0
 10
4217.4869789138192573
 20
137.824903348991711
 30
0.0
 11
4217.4869789138192573
 21
137.8275856781770869
 31
0.0
  0
ARC
  5
A795
  8
0
 10
4217.4819711052223283
 20
137.8250169559798053
 30
0.0
 40
0.0050090970743975
 50
278.5222348926874929
 51
358.7004119913146951
  0
LINE
  5
A796
  8
0
 10
4217.5197748966193103
 20
137.8306394401865873
 30
0.0
 11
4217.5197748966193103
 21
137.8348695393864034
 31
0.0
  0
ARC
  5
A797
  8
0
 10
4217.514440701710555
 20
137.8311360177368101
 30
0.0
 40
0.0053572590529972
 50
290.6140657793876017
 51
354.6814782808802988
  0
LINE
  5
A798
  8
0
 10
4217.5188359827179738
 20
137.8349532413865006
 30
0.0
 11
4217.4934815596016051
 21
137.83269295334091
 31
0.0
  0
LINE
  5
A799
  8
0
 10
4217.5188359827179738
 20
137.8349532413865006
 30
0.0
 11
4217.5409064746781951
 21
137.8329857081334069
 31
0.0
  0
ARC
  5
A79A
  8
0
 10
4217.4941460300697145
 20
137.8337686818256032
 30
0.0
 40
0.0056508028124714
 50
186.4459583549306103
 51
262.8458367840008805
  0
ARC
  5
A79B
  8
0
 10
4217.4926706714713873
 20
137.8338642768181046
 30
0.0
 40
0.0057543720633905
 50
277.7060695967207948
 51
352.6633977707126064
  0
ARC
  5
A79C
  8
0
 10
4217.4433586284712874
 20
137.8337686818256032
 30
0.0
 40
0.0056508028124714
 50
186.4459583549306103
 51
262.8458367840008805
  0
ARC
  5
A79D
  8
0
 10
4217.4418832698711412
 20
137.8338642768181046
 30
0.0
 40
0.0057543720633905
 50
277.7060695967207948
 51
352.6633977707126064
  0
ARC
  5
A79E
  8
0
 10
4217.3925712268701318
 20
137.8337686818256032
 30
0.0
 40
0.0056508028124714
 50
186.4459583549306103
 51
262.8458367840008805
  0
ARC
  5
A79F
  8
0
 10
4217.3910958682708952
 20
137.8338642768181046
 30
0.0
 40
0.0057543720633905
 50
277.7060695967207948
 51
352.6633977707126064
  0
ARC
  5
A7A0
  8
0
 10
4217.3417838252689762
 20
137.8337686818256032
 30
0.0
 40
0.0056508028124714
 50
186.4459583549306103
 51
262.8458367840008805
  0
ARC
  5
A7A1
  8
0
 10
4217.3403084666706491
 20
137.8338642768181046
 30
0.0
 40
0.0057543720633905
 50
277.7060695967207948
 51
352.6633977707126064
  0
ARC
  5
A7A2
  8
0
 10
4217.3417838252689762
 20
137.8473584227224933
 30
0.0
 40
0.0056508028124714
 50
186.5645241468658071
 51
262.8458367840008805
  0
ARC
  5
A7A3
  8
0
 10
4217.3403084666706491
 20
137.8474540177149947
 30
0.0
 40
0.0057543720633905
 50
277.7060695967207948
 51
352.6177223238902911
  0
ARC
  5
A7A4
  8
0
 10
4217.3925712268692223
 20
137.847358422722408
 30
0.0
 40
0.0056508028124714
 50
186.5645241468658071
 51
262.8458367840008805
  0
ARC
  5
A7A5
  8
0
 10
4217.3910958682699857
 20
137.8474540177149095
 30
0.0
 40
0.0057543720633905
 50
277.7060695967207948
 51
352.6177223238902911
  0
ARC
  5
A7A6
  8
0
 10
4217.4433586284685589
 20
137.847358422722408
 30
0.0
 40
0.0056508028124714
 50
186.5645241468658071
 51
262.8458367840008805
  0
ARC
  5
A7A7
  8
0
 10
4217.4418832698702317
 20
137.8474540177149095
 30
0.0
 40
0.0057543720633905
 50
277.7060695967207948
 51
352.6177223238902911
  0
ARC
  5
A7A8
  8
0
 10
4218.7764584290480343
 20
132.4226605271865083
 30
0.0
 40
0.01
 50
183.7549157567904956
 51
270.000000000104194
  0
LINE
  5
A7A9
  8
0
 10
4218.8798684592811696
 20
132.402660527186498
 30
0.0
 11
4218.8798684592811696
 21
132.1466605271864978
 31
0.0
  0
ARC
  5
A7AA
  8
0
 10
4218.8698684592809514
 20
132.402660527186498
 30
0.0
 40
0.01
 50
0.0000000000048853
 51
90.0
  0
ARC
  5
A7AB
  8
0
 10
4218.8698684592809514
 20
132.1466605271864978
 30
0.0
 40
0.01
 50
270.0
 51
0.0
  0
LINE
  5
A7AC
  8
0
 10
4219.9196631366176007
 20
132.1366605271865069
 30
0.0
 11
4222.6609222147189939
 21
132.1366605271865069
 31
0.0
  0
LINE
  5
A7AD
  8
0
 10
4219.9196631366176007
 20
132.3726605271864969
 30
0.0
 11
4222.6609222147189939
 21
132.3726605271864969
 31
0.0
  0
LINE
  5
A7AE
  8
0
 10
4219.9196631366176007
 20
132.3726605271864969
 30
0.0
 11
4219.9196631366176007
 21
132.1366605271865069
 31
0.0
  0
ARC
  5
A7AF
  8
0
 10
4220.2221054478177393
 20
132.348422628420991
 30
0.0
 40
0.2062133331994255
 50
102.8057521699305994
 51
173.2499663528328142
  0
ARC
  5
A7B0
  8
0
 10
4220.2740585154933797
 20
132.554471712818895
 30
0.0
 40
0.0977856319540799
 50
107.8196437643290011
 51
182.9103319687272062
  0
LINE
  5
A7B1
  8
0
 10
4220.2441339879178486
 20
132.7655660330864862
 30
0.0
 11
4220.2441339879178486
 21
132.6475660330864912
 31
0.0
  0
LINE
  5
A7B2
  8
0
 10
4220.2441339879178486
 20
132.7655660330864862
 30
0.0
 11
4222.3364513634178365
 21
132.7655660330864862
 31
0.0
  0
ARC
  5
A7B3
  8
0
 10
4219.923635747129083
 20
133.51176271497161
 30
0.0
 40
0.8121136684023516
 50
293.2439615510089084
 51
317.5311146195904826
  0
ARC
  5
A7B4
  8
0
 10
4220.030070520038862
 20
133.4143394935925926
 30
0.0
 40
0.667823526852596
 50
317.5311146195904826
 51
336.2448055330136185
  0
ARC
  5
A7B5
  8
0
 10
4218.8363406529770145
 20
133.9397223887119992
 30
0.0
 40
1.9720544044202879
 50
336.2448055330128796
 51
347.6377192599725277
  0
ARC
  5
A7B6
  8
0
 10
4219.0077853828288426
 20
133.9021461254401117
 30
0.0
 40
1.7965401002867949
 50
347.6377192599725277
 51
1.8452145734986409
  0
LINE
  5
A7B7
  8
0
 10
4220.8353406635178544
 20
133.987660527186506
 30
0.0
 11
4220.8033939080187338
 21
133.9599938237865047
 31
0.0
  0
LINE
  5
A7B8
  8
0
 10
4220.8353406635178544
 20
134.0569605271865044
 30
0.0
 11
4220.8353406635178544
 21
133.987660527186506
 31
0.0
  0
LINE
  5
A7B9
  8
0
 10
4220.8550406635185936
 20
134.0766605271865046
 30
0.0
 11
4221.7255446878189105
 21
134.0766605271865046
 31
0.0
  0
LINE
  5
A7BA
  8
0
 10
4220.869981679718876
 20
134.1023605271865051
 30
0.0
 11
4220.869981679718876
 21
134.0766605271865046
 31
0.0
  0
LINE
  5
A7BB
  8
0
 10
4220.9282816797176565
 20
134.1606605271865078
 30
0.0
 11
4220.9695459427302922
 21
134.1606605271865078
 31
0.0
  0
LINE
  5
A7BC
  8
0
 10
4221.0752731341890467
 20
134.1606605271865078
 30
0.0
 11
4221.18037378459303
 21
134.1606605271865078
 31
0.0
  0
ARC
  5
A7BD
  8
0
 10
4220.9282816797176565
 20
134.1023605271865051
 30
0.0
 40
0.0583
 50
90.0
 51
179.9999999999967031
  0
ARC
  5
A7BE
  8
0
 10
4220.8550406635185936
 20
134.0569605271865044
 30
0.0
 40
0.0197
 50
90.0
 51
180.0000000000154046
  0
LINE
  5
A7BF
  8
0
 10
4220.2441339879178486
 20
132.6475660330864912
 30
0.0
 11
4222.3364513634178365
 21
132.6475660330864912
 31
0.0
  0
LINE
  5
A7C0
  8
0
 10
4220.1763990057179399
 20
132.5495068394864973
 30
0.0
 11
4222.4041863456177452
 21
132.5495068394864973
 31
0.0
  0
LINE
  5
A7C1
  8
0
 10
4220.8033939080187338
 20
133.9599938237865047
 30
0.0
 11
4221.7771914433178608
 21
133.9599938237865047
 31
0.0
  0
LINE
  5
A7C2
  8
0
 10
4220.8353406635178544
 20
133.987660527186506
 30
0.0
 11
4221.7452446878187402
 21
133.987660527186506
 31
0.0
  0
LINE
  5
A7C3
  8
0
 10
4220.835918013817718
 20
134.3569754877865137
 30
0.0
 11
4221.7446673375188766
 21
134.3569754877865137
 31
0.0
  0
LINE
  5
A7C4
  8
0
 10
4220.9777926756178204
 20
134.2589754877865005
 30
0.0
 11
4221.6027926757178648
 21
134.2589754877865005
 31
0.0
  0
LINE
  5
A7C5
  8
0
 10
4220.9777926756178204
 20
134.2589754877865005
 30
0.0
 11
4220.9777926756178204
 21
134.1589992586604012
 31
0.0
  0
ARC
  5
A7C6
  8
0
 10
4221.0100564666627179
 20
134.340460034091393
 30
0.0
 40
0.1843067151045031
 50
257.3027430239715159
 51
263.5146582311083989
  0
ARC
  5
A7C7
  8
0
 10
4221.0068625514950327
 20
134.3123634945096114
 30
0.0
 40
0.1560292217471358
 50
263.5146582311083989
 51
273.0173267097238181
  0
ARC
  5
A7C8
  8
0
 10
4220.9363365889639681
 20
135.650337200202614
 30
0.0
 40
1.49586038593046
 50
273.0173267097238181
 51
274.9521995305531732
  0
ARC
  5
A7C9
  8
0
 10
4221.0821959057411732
 20
133.9669837454393075
 30
0.0
 40
0.193800465824749
 50
92.0471054723214621
 51
94.9521995305532016
  0
ARC
  5
A7CA
  8
0
 10
4220.9859797338313001
 20
134.3079834043342089
 30
0.0
 40
0.049687058742834
 50
99.5941869945019249
 51
260.5159843365797201
  0
LINE
  5
A7CB
  8
0
 10
4220.835918013817718
 20
135.1050069838865113
 30
0.0
 11
4220.835918013817718
 21
134.3569754877865137
 31
0.0
  0
LINE
  5
A7CC
  8
0
 10
4220.9704406265182115
 20
135.1439754877864914
 30
0.0
 11
4220.835918013817718
 21
135.1050069838865113
 31
0.0
  0
LINE
  5
A7CD
  8
0
 10
4220.9704406265182115
 20
135.1439754877864914
 30
0.0
 11
4221.6101447248192926
 21
135.1439754877864914
 31
0.0
  0
LINE
  5
A7CE
  8
0
 10
4220.9959406265188591
 20
135.1839754877865118
 30
0.0
 11
4221.584644724818645
 21
135.1839754877865118
 31
0.0
  0
LINE
  5
A7CF
  8
0
 10
4220.9704406265182115
 20
135.1584754877864896
 30
0.0
 11
4220.9704406265182115
 21
135.1439754877864914
 31
0.0
  0
ARC
  5
A7D0
  8
0
 10
4220.9959406265188591
 20
135.1584754877864896
 30
0.0
 40
0.0255
 50
90.0
 51
180.0
  0
LINE
  5
A7D1
  8
0
 10
4221.0177833486177406
 20
135.1839754877865118
 30
0.0
 11
4221.0177833486177406
 21
135.1932453375617058
 31
0.0
  0
ARC
  5
A7D2
  8
0
 10
4221.2902926756178204
 20
134.6916211570865016
 30
0.0
 40
0.5708661416999942
 50
61.4868030323134107
 51
98.9192020772134128
  0
ARC
  5
A7D3
  8
0
 10
4221.2902926756178204
 20
134.6916211570865016
 30
0.0
 40
0.5708661416999942
 50
105.7591086009576031
 51
118.5131969628253046
  0
LINE
  5
A7D4
  8
0
 10
4220.60497790611862
 20
132.3726605271864969
 30
0.0
 11
4220.60497790611862
 21
132.1366605271865069
 31
0.0
  0
LINE
  5
A7D5
  8
0
 10
4220.7672133317191765
 20
132.7655660330864862
 30
0.0
 11
4220.7672133317191765
 21
132.6475660330864912
 31
0.0
  0
ARC
  5
A7D6
  8
0
 10
4220.2614576740797929
 20
133.271849194722904
 30
0.0
 40
0.7156196091424708
 50
314.9701357798713843
 51
349.8159833006645272
  0
ARC
  5
A7D7
  8
0
 10
4217.489497398029016
 20
133.9024975331350902
 30
0.0
 40
3.5578105125217192
 50
347.7122722534653008
 51
0.925973485475415
  0
ARC
  5
A7D8
  8
0
 10
4220.8864016789339075
 20
132.375211563136105
 30
0.0
 40
0.2319589052401572
 50
131.2876966160100096
 51
180.6301398075545137
  0
ARC
  5
A7D9
  8
0
 10
4220.8555487089361122
 20
132.5621787911242961
 30
0.0
 40
0.1228581293932068
 50
135.9722366357385965
 51
185.9201853011103083
  0
LINE
  5
A7DA
  8
0
 10
4221.0468432934658267
 20
133.9599938219633088
 30
0.0
 11
4221.0628166696178596
 21
133.987660527186506
 31
0.0
  0
LINE
  5
A7DB
  8
0
 10
4221.0628166696178596
 20
133.987660527186506
 30
0.0
 11
4221.0628166696178596
 21
134.056960527184998
 31
0.0
  0
LINE
  5
A7DC
  8
0
 10
4221.0801371776187807
 20
134.0766605271865046
 30
0.0
 11
4221.0801371776187807
 21
134.1016605271863114
 31
0.0
  0
ARC
  5
A7DD
  8
0
 10
4221.0850389622110015
 20
134.05884315370119
 30
0.0
 40
0.0223018961226438
 50
126.9731516812719008
 51
184.8424167548799915
  0
ARC
  5
A7DE
  8
0
 10
4221.1546469827753754
 20
134.1024970467670983
 30
0.0
 40
0.074514500800424
 50
128.6875795801732068
 51
180.643231152734387
  0
ARC
  5
A7DF
  8
0
 10
4221.2905059785007325
 20
134.996706582838101
 30
0.0
 40
0.8403012199241416
 50
268.18222282717079
 51
269.9854559831848064
  0
ARC
  5
A7E0
  8
0
 10
4221.3035273587729534
 20
135.4069987836730036
 30
0.0
 40
1.250799997522946
 50
267.2826965847697238
 51
268.18222282717079
  0
ARC
  5
A7E1
  8
0
 10
4221.3561669666933085
 20
136.5161004693721054
 30
0.0
 40
2.3611501574016129
 50
266.6326790657740844
 51
267.2826965847697238
  0
ARC
  5
A7E2
  8
0
 10
4221.1436366645184535
 20
132.9040105003066969
 30
0.0
 40
1.2571869017963699
 50
86.6326790657741839
 51
88.3254823876331443
  0
LINE
  5
A7E3
  8
0
 10
4222.6609222147189939
 20
132.3726605271864969
 30
0.0
 11
4222.6609222147189939
 21
132.1366605271865069
 31
0.0
  0
ARC
  5
A7E4
  8
0
 10
4222.3584799035197648
 20
132.348422628420991
 30
0.0
 40
0.2062133331994255
 50
6.750033647167232
 51
77.1942478300693296
  0
ARC
  5
A7E5
  8
0
 10
4222.3065268358432149
 20
132.554471712818895
 30
0.0
 40
0.0977856319540799
 50
357.0896680312728222
 51
72.1803562356709847
  0
LINE
  5
A7E6
  8
0
 10
4222.3364513634178365
 20
132.7655660330864862
 30
0.0
 11
4222.3364513634178365
 21
132.6475660330864912
 31
0.0
  0
ARC
  5
A7E7
  8
0
 10
4222.6569496042102401
 20
133.51176271497161
 30
0.0
 40
0.8121136684023516
 50
222.468885380409489
 51
246.7560384489910916
  0
ARC
  5
A7E8
  8
0
 10
4222.5505148312968231
 20
133.4143394935925926
 30
0.0
 40
0.667823526852596
 50
203.7551944669864099
 51
222.468885380409489
  0
ARC
  5
A7E9
  8
0
 10
4223.7442446983613991
 20
133.9397223887119992
 30
0.0
 40
1.9720544044202879
 50
192.3622807400273871
 51
203.7551944669864099
  0
ARC
  5
A7EA
  8
0
 10
4223.5727999685086616
 20
133.9021461254401117
 30
0.0
 40
1.7965401002867949
 50
178.1547854265014053
 51
192.3622807400273871
  0
LINE
  5
A7EB
  8
0
 10
4221.7452446878187402
 20
133.987660527186506
 30
0.0
 11
4221.7771914433178608
 21
133.9599938237865047
 31
0.0
  0
LINE
  5
A7EC
  8
0
 10
4221.7452446878187402
 20
134.0569605271865044
 30
0.0
 11
4221.7452446878187402
 21
133.987660527186506
 31
0.0
  0
LINE
  5
A7ED
  8
0
 10
4221.7106036716186281
 20
134.1023605271865051
 30
0.0
 11
4221.7106036716186281
 21
134.0766605271865046
 31
0.0
  0
LINE
  5
A7EE
  8
0
 10
4221.6523036716189381
 20
134.1606605271865078
 30
0.0
 11
4221.611039408607212
 21
134.1606605271865078
 31
0.0
  0
LINE
  5
A7EF
  8
0
 10
4221.5053122171466384
 20
134.1606605271865078
 30
0.0
 11
4221.4002115667453836
 21
134.1606605271865078
 31
0.0
  0
ARC
  5
A7F0
  8
0
 10
4221.6523036716189381
 20
134.1023605271865051
 30
0.0
 40
0.0583
 50
0.0000000000032569
 51
90.0
  0
ARC
  5
A7F1
  8
0
 10
4221.7255446878189105
 20
134.0569605271865044
 30
0.0
 40
0.0197
 50
359.9999999999844817
 51
90.0
  0
LINE
  5
A7F2
  8
0
 10
4221.6027926757178648
 20
134.2589754877865005
 30
0.0
 11
4221.6027926757178648
 21
134.1589992586604012
 31
0.0
  0
ARC
  5
A7F3
  8
0
 10
4221.5705288846738767
 20
134.340460034091393
 30
0.0
 40
0.1843067151045031
 50
276.4853417688917148
 51
282.6972569760284841
  0
ARC
  5
A7F4
  8
0
 10
4221.5737227998415619
 20
134.3123634945096114
 30
0.0
 40
0.1560292217471358
 50
266.9826732902761819
 51
276.4853417688917148
  0
ARC
  5
A7F5
  8
0
 10
4221.6442487623726265
 20
135.650337200202614
 30
0.0
 40
1.49586038593046
 50
265.0478004694468268
 51
266.9826732902761819
  0
ARC
  5
A7F6
  8
0
 10
4221.4983894455963309
 20
133.9669837454393075
 30
0.0
 40
0.193800465824749
 50
85.0478004694468126
 51
87.9528945276785237
  0
ARC
  5
A7F7
  8
0
 10
4221.594605617506204
 20
134.3079834043342089
 30
0.0
 40
0.049687058742834
 50
279.4840156634202799
 51
80.4058130054980751
  0
LINE
  5
A7F8
  8
0
 10
4221.7446673375188766
 20
134.4022025912958043
 30
0.0
 11
4221.7446673375188766
 21
134.3569754877865137
 31
0.0
  0
LINE
  5
A7F9
  8
0
 10
4221.6101447248192926
 20
135.1439754877864914
 30
0.0
 11
4221.7416197369184374
 21
135.1058898126800045
 31
0.0
  0
LINE
  5
A7FA
  8
0
 10
4221.6101447248192926
 20
135.1584754877864896
 30
0.0
 11
4221.6101447248192926
 21
135.1439754877864914
 31
0.0
  0
ARC
  5
A7FB
  8
0
 10
4221.584644724818645
 20
135.1584754877864896
 30
0.0
 40
0.0255
 50
0.0
 51
90.0
  0
LINE
  5
A7FC
  8
0
 10
4221.5628020027179446
 20
135.1839754877865118
 30
0.0
 11
4221.5628020027179446
 21
135.1932453375617058
 31
0.0
  0
LINE
  5
A7FD
  8
0
 10
4221.9756074452188841
 20
132.3726605271864969
 30
0.0
 11
4221.9756074452188841
 21
132.1366605271865069
 31
0.0
  0
LINE
  5
A7FE
  8
0
 10
4221.8133720196192371
 20
132.7655660330864862
 30
0.0
 11
4221.8133720196192371
 21
132.6475660330864912
 31
0.0
  0
ARC
  5
A7FF
  8
0
 10
4222.3191276772558922
 20
133.271849194722904
 30
0.0
 40
0.7156196091424708
 50
190.1840166993353876
 51
225.0298642201285872
  0
ARC
  5
A800
  8
0
 10
4225.0910879533075786
 20
133.9024975331350902
 30
0.0
 40
3.5578105125217192
 50
179.0740265145244905
 51
192.2877277465346992
  0
ARC
  5
A801
  8
0
 10
4221.6941836724026871
 20
132.375211563136105
 30
0.0
 40
0.2319589052401572
 50
359.3698601924455147
 51
48.7123033839899406
  0
ARC
  5
A802
  8
0
 10
4221.7250366424023014
 20
132.5621787911242961
 30
0.0
 40
0.1228581293932068
 50
354.0798146988888107
 51
44.0277633642613608
  0
LINE
  5
A803
  8
0
 10
4221.5337420578716774
 20
133.9599938219633088
 30
0.0
 11
4221.5177686817178255
 21
133.987660527186506
 31
0.0
  0
LINE
  5
A804
  8
0
 10
4221.5177686817178255
 20
133.987660527186506
 30
0.0
 11
4221.5177686817178255
 21
134.056960527184998
 31
0.0
  0
LINE
  5
A805
  8
0
 10
4221.5004481737187234
 20
134.0766605271865046
 30
0.0
 11
4221.5004481737187234
 21
134.1016605271863114
 31
0.0
  0
ARC
  5
A806
  8
0
 10
4221.4955463891255931
 20
134.05884315370119
 30
0.0
 40
0.0223018961226438
 50
355.1575832451200085
 51
53.0268483187281205
  0
ARC
  5
A807
  8
0
 10
4221.4259383685621287
 20
134.1024970467670983
 30
0.0
 40
0.074514500800424
 50
359.3567688472655277
 51
51.3124204198267577
  0
ARC
  5
A808
  8
0
 10
4221.2900793728358622
 20
134.996706582838101
 30
0.0
 40
0.8403012199241416
 50
270.0145440168153073
 51
271.81777717282921
  0
ARC
  5
A809
  8
0
 10
4221.2770579925645507
 20
135.4069987836730036
 30
0.0
 40
1.250799997522946
 50
271.81777717282921
 51
272.7173034152302762
  0
ARC
  5
A80A
  8
0
 10
4221.2244183846441956
 20
136.5161004693721054
 30
0.0
 40
2.3611501574016129
 50
272.7173034152302762
 51
273.3673209342259156
  0
ARC
  5
A80B
  8
0
 10
4221.4369486868190506
 20
132.9040105003066969
 30
0.0
 40
1.2571869017963699
 50
91.6745176123668841
 51
93.3673209342258161
  0
ARC
  5
A80C
  8
0
 10
4221.0859106803445684
 20
135.0631748420562985
 30
0.0
 40
0.1468321052399272
 50
62.3556950714521676
 51
117.6443049181418985
  0
ARC
  5
A80D
  8
0
 10
4221.2902926756178204
 20
134.6916211570865016
 30
0.0
 40
0.5198001075000273
 50
74.8035751007826661
 51
105.1964248992173054
  0
ARC
  5
A80E
  8
0
 10
4221.4946746708892533
 20
135.0591330466492934
 30
0.0
 40
0.1504241998530264
 50
63.0700118186781822
 51
116.9299881460178057
  0
ARC
  5
A80F
  8
0
 10
4221.2568488277729557
 20
137.0269968774566962
 30
0.0
 40
1.790102094760303
 50
266.1049615355614151
 51
271.0704991798477863
  0
ARC
  5
A810
  8
0
 10
4221.0800515059418103
 20
148.2853281408567057
 30
0.0
 40
13.0498145933310692
 50
270.923112951040082
 51
271.5266050052417768
  0
ARC
  5
A811
  8
0
 10
4221.3894861249791575
 20
135.1515480555048043
 30
0.0
 40
0.0964925514437437
 50
66.6611972376436484
 51
78.7592021965398033
  0
ARC
  5
A812
  8
0
 10
4221.3998236930056009
 20
135.2059869840518047
 30
0.0
 40
0.0410855346023376
 50
78.100020357711287
 51
86.8920397125612851
  0
ARC
  5
A813
  8
0
 10
4221.3406624805129468
 20
137.1450301752030896
 30
0.0
 40
1.899010595221992
 50
269.0055594741019149
 51
271.8525069270722838
  0
ARC
  5
A814
  8
0
 10
4221.3205422940673088
 20
136.0020444075616979
 30
0.0
 40
0.755847837917149
 50
260.9603267509797888
 51
269.0267989791889249
  0
LINE
  5
A815
  8
0
 10
4221.201784743013377
 20
135.2555843629833134
 30
0.0
 11
4221.201784743013377
 21
135.2377418771185944
 31
0.0
  0
LINE
  5
A816
  8
0
 10
4221.0631053447177692
 20
135.1050069838865113
 30
0.0
 11
4221.0631053447177692
 21
134.3569754877865137
 31
0.0
  0
LINE
  5
A817
  8
0
 10
4221.5174800066179159
 20
135.1050069838865113
 30
0.0
 11
4221.5174800066179159
 21
134.3569754877865137
 31
0.0
  0
LINE
  5
A818
  8
0
 10
4221.0631053447177692
 20
135.1050069838865113
 30
0.0
 11
4221.1303666511175834
 21
135.1439754877864914
 31
0.0
  0
LINE
  5
A819
  8
0
 10
4221.5174800066179159
 20
135.1050069838865113
 30
0.0
 11
4221.4502187002181017
 21
135.1439754877864914
 31
0.0
  0
LINE
  5
A81A
  8
0
 10
4221.1303666511175834
 20
135.1584754877864896
 30
0.0
 11
4221.1303666511175834
 21
135.1439754877864914
 31
0.0
  0
ARC
  5
A81B
  8
0
 10
4221.1558666511191404
 20
135.1584754877864896
 30
0.0
 40
0.0255
 50
90.0
 51
180.0
  0
LINE
  5
A81C
  8
0
 10
4221.4502187002181017
 20
135.1584754877864896
 30
0.0
 11
4221.4502187002181017
 21
135.1439754877864914
 31
0.0
  0
ARC
  5
A81D
  8
0
 10
4221.4247187002192732
 20
135.1584754877864896
 30
0.0
 40
0.0255
 50
0.0
 51
90.0
  0
LINE
  5
A81E
  8
0
 10
4221.8613805400309502
 20
134.5227399429547006
 30
0.0
 11
4223.9675096756463972
 21
134.5909754878468902
 31
0.0
  0
LINE
  5
A81F
  8
0
 10
4224.0462134687422804
 20
134.6719896857368042
 30
0.0
 11
4224.0462029790178349
 21
135.0499748697864959
 31
0.0
  0
LINE
  5
A820
  8
0
 10
4223.9675096756463972
 20
134.5909754878468902
 30
0.0
 11
4224.0462134687422804
 21
134.6719896857368042
 31
0.0
  0
LINE
  5
A821
  8
0
 10
4223.9674809186799394
 20
135.1229723212211127
 30
0.0
 11
4224.0462029790178349
 21
135.0499748697864959
 31
0.0
  0
LINE
  5
A822
  8
0
 10
4221.759254681859602
 20
134.9589592842303034
 30
0.0
 11
4223.9674809186799394
 21
135.1229723212211127
 31
0.0
  0
ARC
  5
A826
  8
0
 10
4221.8652673375190716
 20
134.4022025912958043
 30
0.0
 40
0.1206
 50
91.846896017910737
 51
180.0000000000007958
  0
LINE
  5
A828
  8
0
 10
4221.7416197369184374
 20
134.979316878295208
 30
0.0
 11
4221.7416197369184374
 21
135.1058898126800045
 31
0.0
  0
ARC
  5
A829
  8
0
 10
4221.7618857287252467
 20
134.9790555003673092
 30
0.0
 40
0.0202676772797523
 50
179.2610762908016966
 51
262.5411170466035742
  0
LINE
  5
A82B
  8
0
 10
4223.9675096756463972
 20
134.5909754878468902
 30
0.0
 11
4223.9674809186799394
 21
135.1229723212211127
 31
0.0
  0
LINE
  5
A82C
  8
0
 10
4214.66092221461804
 20
132.1366605271865069
 30
0.0
 11
4211.9196631365175563
 21
132.1366605271865069
 31
0.0
  0
LINE
  5
A82D
  8
0
 10
4214.66092221461804
 20
132.3726605271864969
 30
0.0
 11
4211.9196631365175563
 21
132.3726605271864969
 31
0.0
  0
LINE
  5
A82E
  8
0
 10
4214.66092221461804
 20
132.3726605271864969
 30
0.0
 11
4214.66092221461804
 21
132.1366605271865069
 31
0.0
  0
ARC
  5
A82F
  8
0
 10
4214.3584799034188109
 20
132.348422628420991
 30
0.0
 40
0.2062133331994255
 50
6.750033647167232
 51
77.1942478300693296
  0
ARC
  5
A830
  8
0
 10
4214.30652683574408
 20
132.554471712818895
 30
0.0
 40
0.0977856319540799
 50
357.0896680312728222
 51
72.1803562356709847
  0
LINE
  5
A831
  8
0
 10
4214.3364513633177921
 20
132.7655660330864862
 30
0.0
 11
4214.3364513633177921
 21
132.6475660330864912
 31
0.0
  0
LINE
  5
A832
  8
0
 10
4214.3364513633177921
 20
132.7655660330864862
 30
0.0
 11
4212.2441339878187136
 21
132.7655660330864862
 31
0.0
  0
ARC
  5
A833
  8
0
 10
4214.6569496041092862
 20
133.51176271497161
 30
0.0
 40
0.8121136684023516
 50
222.468885380409489
 51
246.7560384489910916
  0
ARC
  5
A834
  8
0
 10
4214.5505148311985977
 20
133.4143394935925926
 30
0.0
 40
0.667823526852596
 50
203.7551944669864099
 51
222.468885380409489
  0
ARC
  5
A835
  8
0
 10
4215.7442446982604451
 20
133.9397223887119992
 30
0.0
 40
1.9720544044202879
 50
192.3622807400273871
 51
203.7551944669864099
  0
ARC
  5
A836
  8
0
 10
4215.5727999684077076
 20
133.9021461254401117
 30
0.0
 40
1.7965401002867949
 50
178.1547854265014053
 51
192.3622807400273871
  0
LINE
  5
A837
  8
0
 10
4213.7452446877186958
 20
133.987660527186506
 30
0.0
 11
4213.7771914432178164
 21
133.9599938237865047
 31
0.0
  0
LINE
  5
A838
  8
0
 10
4213.7452446877186958
 20
134.0569605271865044
 30
0.0
 11
4213.7452446877186958
 21
133.987660527186506
 31
0.0
  0
LINE
  5
A839
  8
0
 10
4213.725544687718866
 20
134.0766605271865046
 30
0.0
 11
4212.8550406634176397
 21
134.0766605271865046
 31
0.0
  0
LINE
  5
A83A
  8
0
 10
4213.7106036715176742
 20
134.1023605271865051
 30
0.0
 11
4213.7106036715176742
 21
134.0766605271865046
 31
0.0
  0
LINE
  5
A83B
  8
0
 10
4213.6523036715179842
 20
134.1606605271865078
 30
0.0
 11
4213.6110394085071675
 21
134.1606605271865078
 31
0.0
  0
LINE
  5
A83C
  8
0
 10
4213.505312217046594
 20
134.1606605271865078
 30
0.0
 11
4213.4002115666462487
 21
134.1606605271865078
 31
0.0
  0
ARC
  5
A83D
  8
0
 10
4213.6523036715179842
 20
134.1023605271865051
 30
0.0
 40
0.0583
 50
0.0000000000032569
 51
90.0
  0
ARC
  5
A83E
  8
0
 10
4213.725544687718866
 20
134.0569605271865044
 30
0.0
 40
0.0197
 50
359.9999999999844817
 51
90.0
  0
LINE
  5
A83F
  8
0
 10
4214.3364513633177921
 20
132.6475660330864912
 30
0.0
 11
4212.2441339878187136
 21
132.6475660330864912
 31
0.0
  0
LINE
  5
A840
  8
0
 10
4214.4041863455177008
 20
132.5495068394864973
 30
0.0
 11
4212.1763990056188049
 21
132.5495068394864973
 31
0.0
  0
LINE
  5
A841
  8
0
 10
4213.7771914432178164
 20
133.9599938237865047
 30
0.0
 11
4212.8033939079177799
 21
133.9599938237865047
 31
0.0
  0
LINE
  5
A842
  8
0
 10
4213.7452446877186958
 20
133.987660527186506
 30
0.0
 11
4212.8353406634187195
 21
133.987660527186506
 31
0.0
  0
LINE
  5
A843
  8
0
 10
4213.7446673374188322
 20
134.3569754877865137
 30
0.0
 11
4212.8359180137185831
 21
134.3569754877865137
 31
0.0
  0
LINE
  5
A844
  8
0
 10
4213.6027926756178204
 20
134.2589754877865005
 30
0.0
 11
4212.9777926755186854
 21
134.2589754877865005
 31
0.0
  0
LINE
  5
A845
  8
0
 10
4213.6027926756178204
 20
134.2589754877865005
 30
0.0
 11
4213.6027926756178204
 21
134.1589992586604012
 31
0.0
  0
ARC
  5
A846
  8
0
 10
4213.5705288845738323
 20
134.340460034091393
 30
0.0
 40
0.1843067151045031
 50
276.4853417688917148
 51
282.6972569760284841
  0
ARC
  5
A847
  8
0
 10
4213.573722799742427
 20
134.3123634945096114
 30
0.0
 40
0.1560292217471358
 50
266.9826732902761819
 51
276.4853417688917148
  0
ARC
  5
A848
  8
0
 10
4213.6442487622744011
 20
135.650337200202614
 30
0.0
 40
1.49586038593046
 50
265.0478004694468268
 51
266.9826732902761819
  0
ARC
  5
A849
  8
0
 10
4213.4983894454962865
 20
133.9669837454393075
 30
0.0
 40
0.193800465824749
 50
85.0478004694468126
 51
87.9528945276785237
  0
ARC
  5
A84A
  8
0
 10
4213.5946056174070691
 20
134.3079834043342089
 30
0.0
 40
0.049687058742834
 50
279.4840156634202799
 51
80.4058130054980751
  0
LINE
  5
A84B
  8
0
 10
4213.7446673374188322
 20
135.1050069838865113
 30
0.0
 11
4213.7446673374188322
 21
134.3569754877865137
 31
0.0
  0
LINE
  5
A84C
  8
0
 10
4213.6101447247192482
 20
135.1439754877864914
 30
0.0
 11
4213.7446673374188322
 21
135.1050069838865113
 31
0.0
  0
LINE
  5
A84D
  8
0
 10
4213.6101447247192482
 20
135.1439754877864914
 30
0.0
 11
4212.9704406264190766
 21
135.1439754877864914
 31
0.0
  0
LINE
  5
A84E
  8
0
 10
4213.5846447247176911
 20
135.1839754877865118
 30
0.0
 11
4212.9959406264188146
 21
135.1839754877865118
 31
0.0
  0
LINE
  5
A84F
  8
0
 10
4213.6101447247192482
 20
135.1584754877864896
 30
0.0
 11
4213.6101447247192482
 21
135.1439754877864914
 31
0.0
  0
ARC
  5
A850
  8
0
 10
4213.5846447247176911
 20
135.1584754877864896
 30
0.0
 40
0.0255
 50
0.0
 51
90.0
  0
LINE
  5
A851
  8
0
 10
4213.5628020026188096
 20
135.1839754877865118
 30
0.0
 11
4213.5628020026188096
 21
135.1932453375617058
 31
0.0
  0
ARC
  5
A852
  8
0
 10
4213.2902926756178204
 20
134.6916211570865016
 30
0.0
 40
0.5708661416999942
 50
84.3878894618916036
 51
95.6121105452295552
  0
ARC
  5
A853
  8
0
 10
4213.2902926756178204
 20
134.6916211570865016
 30
0.0
 40
0.5708661416999942
 50
100.8476037120973956
 51
118.5131969676865964
  0
ARC
  5
A854
  8
0
 10
4213.2902926756178204
 20
134.6916211570865016
 30
0.0
 40
0.5708661416999942
 50
61.4868030371747167
 51
79.1523962940043759
  0
LINE
  5
A855
  8
0
 10
4213.9756074451188397
 20
132.3726605271864969
 30
0.0
 11
4213.9756074451188397
 21
132.1366605271865069
 31
0.0
  0
LINE
  5
A856
  8
0
 10
4213.8133720195191927
 20
132.7655660330864862
 30
0.0
 11
4213.8133720195191927
 21
132.6475660330864912
 31
0.0
  0
ARC
  5
A857
  8
0
 10
4214.3191276771558478
 20
133.271849194722904
 30
0.0
 40
0.7156196091424708
 50
190.1840166993353876
 51
225.0298642201285872
  0
ARC
  5
A858
  8
0
 10
4217.0910879532093531
 20
133.9024975331350902
 30
0.0
 40
3.5578105125217192
 50
179.0740265145244905
 51
192.2877277465346992
  0
ARC
  5
A859
  8
0
 10
4213.6941836723035522
 20
132.375211563136105
 30
0.0
 40
0.2319589052401572
 50
359.3698601924455147
 51
48.7123033839899406
  0
ARC
  5
A85A
  8
0
 10
4213.725036642300438
 20
132.5621787911242961
 30
0.0
 40
0.1228581293932068
 50
354.0798146988888107
 51
44.0277633642613608
  0
LINE
  5
A85B
  8
0
 10
4213.533742057771633
 20
133.9599938219633088
 30
0.0
 11
4213.5177686816177811
 21
133.987660527186506
 31
0.0
  0
LINE
  5
A85C
  8
0
 10
4213.5177686816177811
 20
133.987660527186506
 30
0.0
 11
4213.5177686816177811
 21
134.056960527184998
 31
0.0
  0
LINE
  5
A85D
  8
0
 10
4213.5004481736177695
 20
134.0766605271865046
 30
0.0
 11
4213.5004481736177695
 21
134.1016605271863114
 31
0.0
  0
ARC
  5
A85E
  8
0
 10
4213.4955463890255487
 20
134.05884315370119
 30
0.0
 40
0.0223018961226438
 50
355.1575832451200085
 51
53.0268483187281205
  0
ARC
  5
A85F
  8
0
 10
4213.4259383684620843
 20
134.1024970467670983
 30
0.0
 40
0.074514500800424
 50
359.3567688472655277
 51
51.3124204198267577
  0
ARC
  5
A860
  8
0
 10
4213.2900793727358177
 20
134.996706582838101
 30
0.0
 40
0.8403012199241416
 50
270.0145440168153073
 51
271.81777717282921
  0
ARC
  5
A861
  8
0
 10
4213.2770579924635967
 20
135.4069987836730036
 30
0.0
 40
1.250799997522946
 50
271.81777717282921
 51
272.7173034152302762
  0
ARC
  5
A862
  8
0
 10
4213.2244183845441512
 20
136.5161004693721054
 30
0.0
 40
2.3611501574016129
 50
272.7173034152302762
 51
273.3673209342259156
  0
ARC
  5
A863
  8
0
 10
4213.4369486867190062
 20
132.9040105003066969
 30
0.0
 40
1.2571869017963699
 50
91.6745176123668841
 51
93.3673209342258161
  0
LINE
  5
A864
  8
0
 10
4211.9196631365175563
 20
132.3726605271864969
 30
0.0
 11
4211.9196631365175563
 21
132.1366605271865069
 31
0.0
  0
ARC
  5
A865
  8
0
 10
4212.2221054477167854
 20
132.348422628420991
 30
0.0
 40
0.2062133331994255
 50
102.8057521699305994
 51
173.2499663528328142
  0
ARC
  5
A866
  8
0
 10
4212.2740585153933353
 20
132.554471712818895
 30
0.0
 40
0.0977856319540799
 50
107.8196437643290011
 51
182.9103319687272062
  0
LINE
  5
A867
  8
0
 10
4212.2441339878187136
 20
132.7655660330864862
 30
0.0
 11
4212.2441339878187136
 21
132.6475660330864912
 31
0.0
  0
ARC
  5
A868
  8
0
 10
4211.9236357470290386
 20
133.51176271497161
 30
0.0
 40
0.8121136684023516
 50
293.2439615510089084
 51
317.5311146195904826
  0
ARC
  5
A869
  8
0
 10
4212.0300705199388176
 20
133.4143394935925926
 30
0.0
 40
0.667823526852596
 50
317.5311146195904826
 51
336.2448055330128796
  0
ARC
  5
A86A
  8
0
 10
4210.8363406528769701
 20
133.9397223887119992
 30
0.0
 40
1.9720544044202879
 50
336.2448055330128796
 51
347.6377192599725277
  0
ARC
  5
A86B
  8
0
 10
4211.0077853827287981
 20
133.9021461254401117
 30
0.0
 40
1.7965401002867949
 50
347.6377192599725277
 51
1.8452145734986409
  0
LINE
  5
A86C
  8
0
 10
4212.8353406634187195
 20
133.987660527186506
 30
0.0
 11
4212.8033939079177799
 21
133.9599938237865047
 31
0.0
  0
LINE
  5
A86D
  8
0
 10
4212.8353406634187195
 20
134.0569605271865044
 30
0.0
 11
4212.8353406634187195
 21
133.987660527186506
 31
0.0
  0
LINE
  5
A86E
  8
0
 10
4212.8699816796188315
 20
134.1023605271865051
 30
0.0
 11
4212.8699816796188315
 21
134.0766605271865046
 31
0.0
  0
LINE
  5
A86F
  8
0
 10
4212.9282816796176121
 20
134.1606605271865078
 30
0.0
 11
4212.9695459426293382
 21
134.1606605271865078
 31
0.0
  0
LINE
  5
A870
  8
0
 10
4213.0752731340899118
 20
134.1606605271865078
 30
0.0
 11
4213.1803737844929856
 21
134.1606605271865078
 31
0.0
  0
ARC
  5
A871
  8
0
 10
4212.9282816796176121
 20
134.1023605271865051
 30
0.0
 40
0.0583
 50
90.0
 51
179.9999999999967031
  0
ARC
  5
A872
  8
0
 10
4212.8550406634176397
 20
134.0569605271865044
 30
0.0
 40
0.0197
 50
90.0
 51
180.0000000000154046
  0
LINE
  5
A873
  8
0
 10
4212.9777926755186854
 20
134.2589754877865005
 30
0.0
 11
4212.9777926755186854
 21
134.1589992586604012
 31
0.0
  0
ARC
  5
A874
  8
0
 10
4213.0100564665635829
 20
134.340460034091393
 30
0.0
 40
0.1843067151045031
 50
257.3027430239715159
 51
263.5146582311083989
  0
ARC
  5
A875
  8
0
 10
4213.0068625513940788
 20
134.3123634945096114
 30
0.0
 40
0.1560292217471358
 50
263.5146582311083989
 51
273.0173267097238181
  0
ARC
  5
A876
  8
0
 10
4212.9363365888639237
 20
135.650337200202614
 30
0.0
 40
1.49586038593046
 50
273.0173267097238181
 51
274.9521995305531732
  0
ARC
  5
A877
  8
0
 10
4213.0821959056411288
 20
133.9669837454393075
 30
0.0
 40
0.193800465824749
 50
92.0471054723214621
 51
94.9521995305532016
  0
ARC
  5
A878
  8
0
 10
4212.9859797337312557
 20
134.3079834043342089
 30
0.0
 40
0.049687058742834
 50
99.5941869945019249
 51
260.5159843365797201
  0
LINE
  5
A879
  8
0
 10
4212.8359180137185831
 20
134.4022025912958043
 30
0.0
 11
4212.8359180137185831
 21
134.3569754877865137
 31
0.0
  0
LINE
  5
A87A
  8
0
 10
4212.9704406264190766
 20
135.1439754877864914
 30
0.0
 11
4212.8389656143190223
 21
135.1058898126800045
 31
0.0
  0
LINE
  5
A87B
  8
0
 10
4212.9704406264190766
 20
135.1584754877864896
 30
0.0
 11
4212.9704406264190766
 21
135.1439754877864914
 31
0.0
  0
ARC
  5
A87C
  8
0
 10
4212.9959406264188146
 20
135.1584754877864896
 30
0.0
 40
0.0255
 50
90.0
 51
180.0
  0
LINE
  5
A87D
  8
0
 10
4213.0177833485176961
 20
135.1839754877865118
 30
0.0
 11
4213.0177833485176961
 21
135.1932453375617058
 31
0.0
  0
LINE
  5
A87E
  8
0
 10
4212.6049779060185756
 20
132.3726605271864969
 30
0.0
 11
4212.6049779060185756
 21
132.1366605271865069
 31
0.0
  0
LINE
  5
A87F
  8
0
 10
4212.7672133316191321
 20
132.7655660330864862
 30
0.0
 11
4212.7672133316191321
 21
132.6475660330864912
 31
0.0
  0
ARC
  5
A880
  8
0
 10
4212.261457673980658
 20
133.271849194722904
 30
0.0
 40
0.7156196091424708
 50
314.9701357798713843
 51
349.8159833006645272
  0
ARC
  5
A881
  8
0
 10
4209.4894973979298811
 20
133.9024975331350902
 30
0.0
 40
3.5578105125217192
 50
347.7122722534653008
 51
0.925973485475415
  0
ARC
  5
A882
  8
0
 10
4212.8864016788338631
 20
132.375211563136105
 30
0.0
 40
0.2319589052401572
 50
131.2876966160100096
 51
180.6301398075545137
  0
ARC
  5
A883
  8
0
 10
4212.8555487088360678
 20
132.5621787911242961
 30
0.0
 40
0.1228581293932068
 50
135.9722366357385965
 51
185.9201853011103083
  0
LINE
  5
A884
  8
0
 10
4213.0468432933657823
 20
133.9599938219633088
 30
0.0
 11
4213.0628166695187247
 21
133.987660527186506
 31
0.0
  0
LINE
  5
A885
  8
0
 10
4213.0628166695187247
 20
133.987660527186506
 30
0.0
 11
4213.0628166695187247
 21
134.056960527184998
 31
0.0
  0
LINE
  5
A886
  8
0
 10
4213.0801371775178268
 20
134.0766605271865046
 30
0.0
 11
4213.0801371775178268
 21
134.1016605271863114
 31
0.0
  0
ARC
  5
A887
  8
0
 10
4213.0850389621118666
 20
134.05884315370119
 30
0.0
 40
0.0223018961226438
 50
126.9731516812719008
 51
184.8424167548799915
  0
ARC
  5
A888
  8
0
 10
4213.1546469826762404
 20
134.1024970467670983
 30
0.0
 40
0.074514500800424
 50
128.6875795801732068
 51
180.643231152734387
  0
ARC
  5
A889
  8
0
 10
4213.2905059784015975
 20
134.996706582838101
 30
0.0
 40
0.8403012199241416
 50
268.18222282717079
 51
269.9854559831848064
  0
ARC
  5
A88A
  8
0
 10
4213.3035273586719995
 20
135.4069987836730036
 30
0.0
 40
1.250799997522946
 50
267.2826965847697238
 51
268.18222282717079
  0
ARC
  5
A88B
  8
0
 10
4213.3561669665932641
 20
136.5161004693721054
 30
0.0
 40
2.3611501574016129
 50
266.6326790657740844
 51
267.2826965847697238
  0
ARC
  5
A88C
  8
0
 10
4213.1436366644184091
 20
132.9040105003066969
 30
0.0
 40
1.2571869017963699
 50
86.6326790657741839
 51
88.3254823876331443
  0
ARC
  5
A88D
  8
0
 10
4213.4946746708928913
 20
135.0631748420562985
 30
0.0
 40
0.1468321052399272
 50
62.3556950818581086
 51
117.6443049285477969
  0
ARC
  5
A88E
  8
0
 10
4213.2902926756178204
 20
134.6916211570865016
 30
0.0
 40
0.5198001075000273
 50
74.8035751007826661
 51
105.1964248992173054
  0
ARC
  5
A88F
  8
0
 10
4213.0859106803482064
 20
135.0591330466492934
 30
0.0
 40
0.1504241998530264
 50
63.0700118539821304
 51
116.9299881813218036
  0
LINE
  5
A890
  8
0
 10
4213.5174800065178715
 20
135.1050069838865113
 30
0.0
 11
4213.5174800065178715
 21
134.3569754877865137
 31
0.0
  0
LINE
  5
A891
  8
0
 10
4213.0631053446186343
 20
135.1050069838865113
 30
0.0
 11
4213.0631053446186343
 21
134.3569754877865137
 31
0.0
  0
LINE
  5
A892
  8
0
 10
4213.5174800065178715
 20
135.1050069838865113
 30
0.0
 11
4213.4502187001189668
 21
135.1439754877864914
 31
0.0
  0
LINE
  5
A893
  8
0
 10
4213.0631053446186343
 20
135.1050069838865113
 30
0.0
 11
4213.1303666510184485
 21
135.1439754877864914
 31
0.0
  0
LINE
  5
A894
  8
0
 10
4213.4502187001189668
 20
135.1584754877864896
 30
0.0
 11
4213.4502187001189668
 21
135.1439754877864914
 31
0.0
  0
ARC
  5
A895
  8
0
 10
4213.4247187001192287
 20
135.1584754877864896
 30
0.0
 40
0.0255
 50
0.0
 51
90.0
  0
LINE
  5
A896
  8
0
 10
4213.1303666510184485
 20
135.1584754877864896
 30
0.0
 11
4213.1303666510184485
 21
135.1439754877864914
 31
0.0
  0
ARC
  5
A897
  8
0
 10
4213.155866651019096
 20
135.1584754877864896
 30
0.0
 40
0.0255
 50
90.0
 51
180.0
  0
LINE
  5
A898
  8
0
 10
4212.7192048108836389
 20
134.522739942965103
 30
0.0
 11
4210.6130756755910625
 21
134.5909754878468902
 31
0.0
  0
LINE
  5
A899
  8
0
 10
4210.5343718824960888
 20
134.6719896857368042
 30
0.0
 11
4210.5343823722187153
 21
135.0499748697864959
 31
0.0
  0
LINE
  5
A89A
  8
0
 10
4210.6130756755910625
 20
134.5909754878468902
 30
0.0
 11
4210.5343718824960888
 21
134.6719896857368042
 31
0.0
  0
LINE
  5
A89B
  8
0
 10
4210.6131044325584298
 20
135.1229723212211127
 30
0.0
 11
4210.5343823722187153
 21
135.0499748697864959
 31
0.0
  0
LINE
  5
A89C
  8
0
 10
4212.8213306693769482
 20
134.9589592842301897
 30
0.0
 11
4210.6131044325584298
 21
135.1229723212211127
 31
0.0
  0
ARC
  5
A8A0
  8
0
 10
4212.7153180137192976
 20
134.4022025912958043
 30
0.0
 40
0.1206
 50
359.9999999999992042
 51
88.1531041351289701
  0
LINE
  5
A8A2
  8
0
 10
4212.8389656143190223
 20
134.979316878295208
 30
0.0
 11
4212.8389656143190223
 21
135.1058898126800045
 31
0.0
  0
ARC
  5
A8A3
  8
0
 10
4212.818699622512213
 20
134.9790555003673092
 30
0.0
 40
0.0202676772797523
 50
277.4588829533964258
 51
0.7389237091983071
  0
LINE
  5
A8A5
  8
0
 10
4210.6130756755910625
 20
134.5909754878468902
 30
0.0
 11
4210.6131044325584298
 21
135.1229723212211127
 31
0.0
  0
ARC
  5
A8A6
  8
0
 10
4213.1583575238873891
 20
135.2388919757071051
 30
0.0
 40
0.0174289954041392
 50
242.3596740771513964
 51
288.4446559732569995
  0
ARC
  5
A8A7
  8
0
 10
4213.2902926756178204
 20
134.6916211570865869
 30
0.0
 40
0.5455860626999032
 50
94.0297070481593948
 51
103.398099119612894
  0
ARC
  5
A8A8
  8
0
 10
4213.2535409352203715
 20
135.2559210903878864
 30
0.0
 40
0.0201254927176369
 50
265.4726532535224806
 51
312.569405935842326
  0
ARC
  5
A8A9
  8
0
 10
4213.2524537015342503
 20
135.2092811366497074
 30
0.0
 40
0.0350506892819562
 50
65.2005417035770449
 51
88.115744966560257
  0
ARC
  5
A8AA
  8
0
 10
4213.2455201298853353
 20
135.314860638655091
 30
0.0
 40
0.0710096575230489
 50
265.2227884459138068
 51
276.5386046117483829
  0
ARC
  5
A8AB
  8
0
 10
4213.2405633048947493
 20
135.2565720710483106
 30
0.0
 40
0.0125110594022496
 50
249.5982029616301077
 51
265.613185162731213
  0
ARC
  5
A8AC
  8
0
 10
4213.2396195596884354
 20
135.2487178672552091
 30
0.0
 40
0.0051645865314153
 50
183.7133494394024069
 51
228.5670723301992098
  0
ARC
  5
A8AD
  8
0
 10
4213.1603270775349301
 20
135.2457565197395866
 30
0.0
 40
0.0227683613082749
 50
339.3329307250360216
 51
351.7036301612768057
  0
ARC
  5
A8AE
  8
0
 10
4213.178506677833866
 20
135.2388989592720066
 30
0.0
 40
0.0033383844006812
 50
301.8142575897813913
 51
339.3329307250322131
  0
ARC
  5
A8AF
  8
0
 10
4213.1524084944476272
 20
135.2960464461218066
 30
0.0
 40
0.0661376627367005
 50
279.9873811833485888
 51
294.9112187844307869
  0
ARC
  5
A8B0
  8
0
 10
4213.1692471683809345
 20
135.2049773174468044
 30
0.0
 40
0.0264835181932416
 50
101.6951691477808026
 51
135.7658217538549081
  0
LINE
  5
A8B1
  8
0
 10
4213.2344658159190658
 20
135.2597509956582087
 30
0.0
 11
4213.2344658159190658
 21
135.2343434742510908
 31
0.0
  0
LINE
  5
A8B2
  8
0
 10
4213.1828571663645562
 20
135.252286621593413
 30
0.0
 11
4213.1828571665146228
 21
135.2265246653907127
 31
0.0
  0
ARC
  5
A8B3
  8
0
 10
4213.4222278273100528
 20
135.2388919759000885
 30
0.0
 40
0.0174289954041392
 50
251.5553441105662955
 51
297.6403260066192047
  0
ARC
  5
A8B4
  8
0
 10
4213.2902926763781579
 20
134.6916211570865869
 30
0.0
 40
0.5455860626999032
 50
76.60190096416828
 51
85.9702930356325368
  0
ARC
  5
A8B5
  8
0
 10
4213.3270444159534236
 20
135.2559210904416886
 30
0.0
 40
0.0201254927176369
 50
227.4305941479420881
 51
274.5273468302717106
  0
ARC
  5
A8B6
  8
0
 10
4213.3281316497050284
 20
135.2092811367049876
 30
0.0
 40
0.0350506892819562
 50
91.884255117226175
 51
114.7994583801825002
  0
ARC
  5
A8B7
  8
0
 10
4213.3350652212002387
 20
135.314860638720603
 30
0.0
 40
0.0710096575230489
 50
263.4613954720686024
 51
274.7772116378578744
  0
ARC
  5
A8B8
  8
0
 10
4213.3400220462754078
 20
135.2565720711210133
 30
0.0
 40
0.0125110594022496
 50
274.3868149210470051
 51
290.4017971221566086
  0
ARC
  5
A8B9
  8
0
 10
4213.3409657914944546
 20
135.2487178673293045
 30
0.0
 40
0.0051645865314153
 50
311.4329277536114091
 51
356.2866506443903063
  0
ARC
  5
A8BA
  8
0
 10
4213.4202582736534168
 20
135.2457565199296994
 30
0.0
 40
0.0227683613082749
 50
188.2963699225161918
 51
200.6670693587664971
  0
ARC
  5
A8BB
  8
0
 10
4213.4020786733626664
 20
135.238898959435403
 30
0.0
 40
0.0033383844006812
 50
200.6670693587703056
 51
238.1857424940376973
  0
ARC
  5
A8BC
  8
0
 10
4213.4281768566652318
 20
135.2960464463234871
 30
0.0
 40
0.0661376627367005
 50
245.088781299343708
 51
260.0126189004633943
  0
ARC
  5
A8BD
  8
0
 10
4213.4113381828647107
 20
135.2049773176237863
 30
0.0
 40
0.0264835181932416
 50
44.2341783299481719
 51
78.304830935980732
  0
LINE
  5
A8BE
  8
0
 10
4213.3461195352474533
 20
135.2597509956650867
 30
0.0
 11
4213.3461195352856521
 21
135.2343434743328032
 31
0.0
  0
LINE
  5
A8BF
  8
0
 10
4213.3977281848137864
 20
135.2522866216048101
 30
0.0
 11
4213.3977281847000995
 21
135.2265246655477995
 31
0.0
  0
LINE
  5
A8C0
  8
0
 10
4217.5468341728810628
 20
140.7680034347868911
 30
0.0
 11
4217.0337511783573063
 21
140.7680034347868911
 31
0.0
  0
ARC
  5
A8C1
  8
0
 10
4217.5468341728810628
 20
140.7580034347870139
 30
0.0
 40
0.01
 50
29.9999999984983212
 51
90.0
  0
ARC
  5
A8C2
  8
0
 10
4217.0337511783573063
 20
140.7580034347870139
 30
0.0
 40
0.01
 50
90.0
 51
150.0000000015087096
  0
LINE
  5
A8C3
  8
0
 10
4220.835918013817718
 20
135.1050069838865113
 30
0.0
 11
4221.7416197369184374
 21
135.1050069838865113
 31
0.0
  0
LINE
  5
A8C4
  8
0
 10
4217.5468341726373183
 20
137.7315808414977027
 30
0.0
 11
4217.0337511786001414
 21
137.7315808414977027
 31
0.0
  0
ARC
  5
A8C5
  8
0
 10
4217.5468341726373183
 20
137.7415808414976937
 30
0.0
 40
0.01
 50
270.0000000000521254
 51
284.9729396194268247
  0
ARC
  5
A8C6
  8
0
 10
4217.0337511786001414
 20
137.7415808414976937
 30
0.0
 40
0.01
 50
255.0270603805736016
 51
270.0
  0
ENDSEC
  0
EOF
