  0
SECTION
  2
HEADER
  9
$ACADVER
  1
AC1009
  9
$INSBASE
 10
517.8078886252221764
 20
63.170874035234938
 30
0.0
  9
$EXTMIN
 10
508.6603780109941795
 20
63.1640751905753817
 30
-0.0000000000000058
  9
$EXTMAX
 10
519.7981381631116164
 20
100.9744302916799938
 30
0.0000000000000104
  9
$LIMMIN
 10
0.0
 20
0.0
  9
$LIMMAX
 10
11.6929133858000007
 20
8.2677165353999982
  9
$ORTHOMODE
 70
     0
  9
$REGENMODE
 70
     1
  9
$FILLMODE
 70
     1
  9
$QTEXTMODE
 70
     0
  9
$MIRRTEXT
 70
     0
  9
$DRAGMODE
 70
     2
  9
$LTSCALE
 40
0.6431102362
  9
$OSMODE
 70
  4095
  9
$ATTMODE
 70
     1
  9
$TEXTSIZE
 40
0.2
  9
$TRACEWID
 40
0.05
  9
$TEXTSTYLE
  7
STANDARD
  9
$CLAYER
  8
0
  9
$CELTYPE
  6
BYLAYER
  9
$CECOLOR
 62
   256
  9
$DIMSCALE
 40
1.0
  9
$DIMASZ
 40
0.1875
  9
$DIMEXO
 40
0.0625
  9
$DIMDLI
 40
0.4443307087
  9
$DIMRND
 40
0.0
  9
$DIMDLE
 40
0.0
  9
$DIMEXE
 40
0.125
  9
$DIMTP
 40
0.01
  9
$DIMTM
 40
0.01
  9
$DIMTXT
 40
1.0
  9
$DIMCEN
 40
0.1052362205
  9
$DIMTSZ
 40
0.0
  9
$DIMTOL
 70
     1
  9
$DIMLIM
 70
     0
  9
$DIMTIH
 70
     0
  9
$DIMTOH
 70
     1
  9
$DIMSE1
 70
     0
  9
$DIMSE2
 70
     0
  9
$DIMTAD
 70
     0
  9
$DIMZIN
 70
     0
  9
$DIMBLK
  1

  9
$DIMASO
 70
     1
  9
$DIMSHO
 70
     1
  9
$DIMPOST
  1
\X
  9
$DIMAPOST
  1

  9
$DIMALT
 70
     1
  9
$DIMALTD
 70
     2
  9
$DIMALTF
 40
25.3999999999999986
  9
$DIMLFAC
 40
1.0
  9
$DIMTOFL
 70
     0
  9
$DIMTVP
 40
0.0
  9
$DIMTIX
 70
     0
  9
$DIMSOXD
 70
     0
  9
$DIMSAH
 70
     0
  9
$DIMBLK1
  1

  9
$DIMBLK2
  1

  9
$DIMSTYLE
  2
STANDARD
  9
$DIMCLRD
 70
     0
  9
$DIMCLRE
 70
     0
  9
$DIMCLRT
 70
     0
  9
$DIMTFAC
 40
1.0
  9
$DIMGAP
 40
0.09
  9
$LUNITS
 70
     2
  9
$LUPREC
 70
     4
  9
$SKETCHINC
 40
0.1
  9
$FILLETRAD
 40
0.0
  9
$AUNITS
 70
     0
  9
$AUPREC
 70
     0
  9
$MENU
  1
.
  9
$ELEVATION
 40
0.0
  9
$PELEVATION
 40
0.0
  9
$THICKNESS
 40
0.0
  9
$LIMCHECK
 70
     0
  9
$BLIPMODE
 70
     0
  9
$CHAMFERA
 40
0.0
  9
$CHAMFERB
 40
0.0
  9
$SKPOLY
 70
     0
  9
$TDCREATE
 40
2458172.5207638889551163
  9
$TDUPDATE
 40
2459723.6227199072018266
  9
$TDINDWG
 40
0.3333884028
  9
$TDUSRTIMER
 40
0.3333884028
  9
$USRTIMER
 70
     1
  9
$ANGBASE
 50
0.0
  9
$ANGDIR
 70
     0
  9
$PDMODE
 70
     0
  9
$PDSIZE
 40
0.3125
  9
$PLINEWID
 40
0.0
  9
$COORDS
 70
     1
  9
$SPLFRAME
 70
     0
  9
$SPLINETYPE
 70
     6
  9
$SPLINESEGS
 70
     8
  9
$ATTDIA
 70
     1
  9
$ATTREQ
 70
     1
  9
$HANDLING
 70
     1
  9
$HANDSEED
  5
12155
  9
$SURFTAB1
 70
     6
  9
$SURFTAB2
 70
     6
  9
$SURFTYPE
 70
     6
  9
$SURFU
 70
     6
  9
$SURFV
 70
     6
  9
$UCSNAME
  2

  9
$UCSORG
 10
0.0
 20
0.0
 30
0.0
  9
$UCSXDIR
 10
1.0
 20
0.0
 30
0.0
  9
$UCSYDIR
 10
0.0
 20
1.0
 30
0.0
  9
$PUCSNAME
  2

  9
$PUCSORG
 10
0.0
 20
0.0
 30
0.0
  9
$PUCSXDIR
 10
1.0
 20
0.0
 30
0.0
  9
$PUCSYDIR
 10
0.0
 20
1.0
 30
0.0
  9
$USERI1
 70
     0
  9
$USERI2
 70
     0
  9
$USERI3
 70
     0
  9
$USERI4
 70
     0
  9
$USERI5
 70
     0
  9
$USERR1
 40
0.0
  9
$USERR2
 40
0.0
  9
$USERR3
 40
0.0
  9
$USERR4
 40
0.0
  9
$USERR5
 40
0.0
  9
$WORLDVIEW
 70
     1
  9
$SHADEDGE
 70
     3
  9
$SHADEDIF
 70
    70
  9
$TILEMODE
 70
     1
  9
$MAXACTVP
 70
    64
  9
$PLIMCHECK
 70
     0
  9
$PEXTMIN
 10
1.0000000000000000E+20
 20
1.0000000000000000E+20
 30
1.0000000000000000E+20
  9
$PEXTMAX
 10
-1.0000000000000000E+20
 20
-1.0000000000000000E+20
 30
-1.0000000000000000E+20
  9
$PLIMMIN
 10
0.0
 20
0.0
  9
$PLIMMAX
 10
12.0
 20
9.0
  9
$UNITMODE
 70
     0
  9
$VISRETAIN
 70
     1
  9
$PLINEGEN
 70
     0
  9
$PSLTSCALE
 70
     1
  0
ENDSEC
  0
SECTION
  2
TABLES
  0
TABLE
  2
VPORT
 70
     1
  0
VPORT
  2
*ACTIVE
 70
     0
 10
0.0
 20
0.0
 11
1.0
 21
1.0
 12
84.5999689789991862
 22
12.3667112289090202
 13
0.0
 23
0.0
 14
1.0
 24
1.0
 15
0.0
 25
0.0
 16
0.0
 26
0.0
 36
14.6338572656650907
 17
429.6292891080536833
 27
69.7025415122186871
 37
0.0
 40
38.11486802809344
 41
2.561827956989247
 42
50.0
 43
0.0
 44
0.0
 50
0.0
 51
0.0
 71
     0
 72
   100
 73
     1
 74
     1
 75
     0
 76
     0
 77
     0
 78
     0
  0
ENDTAB
  0
TABLE
  2
LTYPE
 70
     2
  0
LTYPE
  2
CONTINUOUS
 70
     0
  3
Solid line
 72
    65
 73
     0
 40
0.0
  0
LTYPE
  2
PHANTOM2
 70
     0
  3
___ _ _ ___ _ _ ___ _ _ ___ _ _
 72
    65
 73
     6
 40
1.25
 49
0.625
 49
-0.125
 49
0.125
 49
-0.125
 49
0.125
 49
-0.125
  0
ENDTAB
  0
TABLE
  2
LAYER
 70
     2
  0
LAYER
  2
0
 70
     0
 62
   255
  6
CONTINUOUS
  0
LAYER
  2
DEFPOINTS
 70
     0
 62
     7
  6
CONTINUOUS
  0
ENDTAB
  0
TABLE
  2
STYLE
 70
     1
  0
STYLE
  2
STANDARD
 70
     0
 40
0.0
 41
0.8
 50
0.0
 71
     0
 42
0.2
  3
txt
  4

  0
ENDTAB
  0
TABLE
  2
VIEW
 70
     0
  0
ENDTAB
  0
TABLE
  2
UCS
 70
     0
  0
ENDTAB
  0
TABLE
  2
APPID
 70
    10
  0
APPID
  2
ACAD
 70
     0
  0
APPID
  2
ACAD_MLEADERVER
 70
     0
  0
APPID
  2
ACAD_EXEMPT_FROM_CAD_STANDARDS
 70
     0
  0
APPID
  2
ACAD_DSTYLE_DIMJAG
 70
     0
  0
APPID
  2
ACAD_DSTYLE_DIMTALN
 70
     0
  0
APPID
  2
ACAD_NAV_VCDISPLAY
 70
     0
  0
APPID
  2
ACAECLAYERSTANDARD
 70
     0
  0
APPID
  2
ACCMTRANSPARENCY
 70
     0
  0
APPID
  2
DCO15
 70
     0
  0
APPID
  2
ACDBATTR
 70
     0
  0
ENDTAB
  0
TABLE
  2
DIMSTYLE
 70
     1
  0
DIMSTYLE
  2
STANDARD
 70
     0
  3

  4

  5

  6

  7

 40
1.0
 41
0.1875
 42
0.0625
 43
0.38
 44
0.125
 45
0.0
 46
0.0
 47
0.01
 48
0.01
140
0.15625
141
0.09
142
0.0
143
25.3999999999999986
144
1.0
145
0.0
146
1.0
147
0.09
 71
     1
 72
     0
 73
     1
 74
     1
 75
     0
 76
     0
 77
     0
 78
     4
170
     0
171
     2
172
     0
173
     0
174
     0
175
     0
176
     0
177
     0
178
     0
  0
ENDTAB
  0
ENDSEC
  0
SECTION
  2
BLOCKS
  0
BLOCK
  8
0
  2
$MODEL_SPACE
 70
     0
 10
0.0
 20
0.0
 30
0.0
  3
$MODEL_SPACE
  1

  0
ENDBLK
  5
21
  8
0
  0
BLOCK
 67
     1
  8
0
  2
$PAPER_SPACE
 70
     0
 10
0.0
 20
0.0
 30
0.0
  3
$PAPER_SPACE
  1

  0
ENDBLK
  5
1D
 67
     1
  8
0
  0
ENDSEC
  0
SECTION
  2
ENTITIES
  0
ATTDEF
  5
100F7
  8
DEFPOINTS
 10
517.8039927537573703
 20
63.1692568956398404
 30
0.0
 40
0.001
  1
P22729-00
  3

  2
MODELNUMBER
 70
     0
1001
ACDBATTR
1070
     0
1070
     1
  0
ATTDEF
  5
100F8
  8
DEFPOINTS
 10
517.8039927537573703
 20
63.1675902289731681
 30
0.0
 40
0.001
  1

  3

  2
TRADENAME
 70
     0
1001
ACDBATTR
1070
     0
1070
     1
  0
ATTDEF
  5
100F9
  8
DEFPOINTS
 10
517.8039927537573703
 20
63.165923562306503
 30
0.0
 40
0.001
  1
BATH FAUCET
  3

  2
PRODUCT
 70
     0
1001
ACDBATTR
1070
     0
1070
     1
  0
LINE
  5
1203F
  8
0
 10
509.926973969072094
 20
96.4644469767279134
 30
0.0
 11
508.6888019934905856
 21
96.6605541522447993
 31
0.0
  0
LINE
  5
12040
  8
0
 10
508.6888019934905856
 20
96.6605541522447993
 30
0.0
 11
508.7261678095562729
 21
96.8964726298595735
 31
0.0
  0
ARC
  5
12041
  8
0
 10
513.4974955811561586
 20
96.1407685506145526
 30
0.0
 40
4.8308029725324406
 50
103.3627272982348018
 51
170.9999999937300004
  0
ARC
  5
12042
  8
0
 10
513.5082655417040769
 20
96.0954301789127641
 30
0.0
 40
4.8774029725192722
 50
32.4835936605468305
 51
103.3627272982348018
  0
ARC
  5
12043
  8
0
 10
512.0441215514942996
 20
95.5662837707289441
 30
0.0
 40
6.4056851383126503
 50
356.0630950943923949
 51
29.4412830443665712
  0
LINE
  5
12044
  8
0
 10
518.4346909537721331
 20
95.1264829000279093
 30
0.0
 11
518.511533621872104
 21
90.8904301789279145
 31
0.0
  0
ARC
  5
12045
  8
0
 10
518.9740400539242273
 20
90.919859132226776
 30
0.0
 40
0.4634417622734567
 50
183.6407812486453963
 51
243.1993409972187976
  0
ARC
  5
12046
  8
0
 10
518.7574529804153372
 20
90.4932836663816857
 30
0.0
 40
0.0150000010470493
 50
0.0000062942409742
 51
59.4389911989006876
  0
LINE
  5
12047
  8
0
 10
518.7724529814622656
 20
90.4932836680295338
 30
0.0
 11
518.7724529812720675
 21
90.1141778417496653
 31
0.0
  0
ARC
  5
12048
  8
0
 10
515.9170909234377405
 20
89.1878470395262184
 30
0.0
 40
3.0018629609740568
 50
342.6972108810613236
 51
17.9739951689538913
  0
LINE
  5
12049
  8
0
 10
518.7831085456813298
 20
88.2950289026933746
 30
0.0
 11
518.7724549103720619
 21
88.227476298618484
 31
0.0
  0
LINE
  5
1204A
  8
0
 10
518.7724549103720619
 20
88.227476298618484
 30
0.0
 11
518.7724549103720619
 21
65.1393779722279191
 31
0.0
  0
LINE
  5
1204B
  8
0
 10
518.8713158892720685
 20
65.1393779722279191
 30
0.0
 11
516.7727950740180631
 21
65.1393779722279191
 31
0.0
  0
ARC
  5
1204C
  8
0
 10
515.4557006178869187
 20
65.1581891485358966
 30
0.0
 40
1.269649243270232
 50
313.0158604434619747
 51
357.0440271548420128
  0
ARC
  5
1204D
  8
0
 10
516.3554206069923111
 20
64.193892893395045
 30
0.0
 40
0.0492
 50
133.0158604434612073
 51
180.0009698572029038
  0
ARC
  5
1204E
  8
0
 10
516.7727950740180631
 20
65.0901779722279201
 30
0.0
 40
0.0492
 50
90.0
 51
177.0440271548420128
  0
LINE
  5
1204F
  8
0
 10
516.3062206069993181
 20
64.1938920605767436
 30
0.0
 11
516.3062230583926748
 21
64.0490722883628933
 31
0.0
  0
ARC
  5
12050
  8
0
 10
516.378320760686961
 20
63.8657962506181178
 30
0.0
 40
0.1705792831934581
 50
123.4979326988216997
 51
173.0327913044891091
  0
ARC
  5
12051
  8
0
 10
516.2570230583999091
 20
64.0490714555445919
 30
0.0
 40
0.0492
 50
303.4979326988249113
 51
0.0009698572029305
  0
ARC
  5
12052
  8
0
 10
516.1601643855472048
 20
63.8924557574938419
 30
0.0
 40
0.0492
 50
292.3316645191638941
 51
353.0327913044894785
  0
ARC
  5
12053
  8
0
 10
516.3005549497739821
 20
63.550686312757918
 30
0.0
 40
0.3202805324764071
 50
112.3316645191637946
 51
170.4782816913042893
  0
ARC
  5
12054
  8
0
 10
515.9361647622698683
 20
63.6118063187279077
 30
0.0
 40
0.0492
 50
270.0
 51
350.478281691304403
  0
LINE
  5
12055
  8
0
 10
519.7271910004720894
 20
63.5626063187279229
 30
0.0
 11
515.8885849620720592
 21
63.5626063187279229
 31
0.0
  0
ARC
  5
12056
  8
0
 10
515.8885849620720592
 20
63.5134063187279096
 30
0.0
 40
0.0492
 50
90.0
 51
179.9999999999909903
  0
LINE
  5
12057
  8
0
 10
515.8393849620721312
 20
63.5134063187279168
 30
0.0
 11
515.8393849620720175
 21
63.170874035234938
 31
0.0
  0
LINE
  5
12058
  8
0
 10
515.8393849620898663
 20
63.1708740352278397
 30
0.0
 11
519.7763910004898662
 21
63.1708740352420506
 31
0.0
  0
ARC
  5
12059
  8
0
 10
518.8713158892720685
 20
65.1196929328279168
 30
0.0
 40
0.0196850393999988
 50
1.7109593392951381
 51
90.0
  0
ARC
  5
1205A
  8
0
 10
520.1600753446573435
 20
65.1581891485358966
 30
0.0
 40
1.269649243270232
 50
181.7109593392951012
 51
226.9841395565372011
  0
ARC
  5
1205B
  8
0
 10
519.2603553555519511
 20
64.1938928933950876
 30
0.0
 40
0.0492
 50
359.9990301427990858
 51
46.9841395565374427
  0
LINE
  5
1205C
  8
0
 10
519.3095553555449442
 20
64.193892060576772
 30
0.0
 11
519.3095529041444252
 21
64.0490714555445919
 31
0.0
  0
ARC
  5
1205D
  8
0
 10
519.2374552018571876
 20
63.8657962506181178
 30
0.0
 40
0.1705792831934581
 50
6.9672086955108474
 51
56.5020673011751029
  0
ARC
  5
1205E
  8
0
 10
519.4556115769969438
 20
63.8924557574938419
 30
0.0
 40
0.0492
 50
186.9672086955100099
 51
247.6683354808361059
  0
ARC
  5
1205F
  8
0
 10
519.3587529041443531
 20
64.0490714555445635
 30
0.0
 40
0.0491999999999884
 50
179.9999999999913882
 51
236.5020673011823078
  0
ARC
  5
12060
  8
0
 10
519.3152210127700528
 20
63.550686312757918
 30
0.0
 40
0.3202805324764071
 50
9.5217183086956378
 51
67.6683354808361202
  0
ARC
  5
12061
  8
0
 10
519.6796112002742802
 20
63.6118063187279077
 30
0.0
 40
0.0492
 50
189.521718308695597
 51
270.0
  0
LINE
  5
12062
  8
0
 10
519.7763910004721311
 20
63.5134063187279168
 30
0.0
 11
519.7763910004722447
 21
63.170874035234938
 31
0.0
  0
ARC
  5
12063
  8
0
 10
519.7271910004720894
 20
63.5134063187279096
 30
0.0
 40
0.0492
 50
0.0000000000093636
 51
90.0
  0
ARC
  5
12064
  8
0
 10
518.0429920492956626
 20
89.6829458427462356
 30
0.0
 40
0.0209988651298959
 50
42.1183558018734772
 51
87.381314696081219
  0
LINE
  5
12065
  8
0
 10
518.058568188889808
 20
89.6970290317349566
 30
0.0
 11
518.1235209642073869
 21
89.6237323491558584
 31
0.0
  0
ARC
  5
12066
  8
0
 10
518.1091542037644331
 20
89.6089634260102628
 30
0.0
 40
0.020604001953646
 50
358.7291745219066001
 51
45.7908090523889371
  0
LINE
  5
12067
  8
0
 10
518.1297531377911127
 20
89.608506464886716
 30
0.0
 11
518.0441151457738442
 21
86.7230555367095945
 31
0.0
  0
ARC
  5
12068
  8
0
 10
518.0641069178820999
 20
86.7224627587055465
 30
0.0
 40
0.0200007610770366
 50
178.3576170029458865
 51
239.9993570336426103
  0
ARC
  5
12069
  8
0
 10
517.807887981272188
 20
86.8242019309171837
 30
0.0
 40
0.0199999995107374
 50
59.9999993040618378
 51
120.0000006959574961
  0
LINE
  5
1206A
  8
0
 10
517.8178879812378455
 20
86.8415224384476829
 30
0.0
 11
518.1913879786344523
 21
86.625882108359491
 31
0.0
  0
ARC
  5
1206B
  8
0
 10
518.1813879755760581
 20
86.6085615954724233
 30
0.0
 40
0.0200000056959327
 50
0.0000268014658379
 51
59.9999993040586119
  0
LINE
  5
1206C
  8
0
 10
518.2013879812719779
 20
86.6085616048279263
 30
0.0
 11
518.2013881830139326
 21
86.1772809537279727
 31
0.0
  0
ARC
  5
1206D
  8
0
 10
518.1813884010842912
 20
86.1772809443725833
 30
0.0
 40
0.0199997819296436
 50
299.9989718503655922
 51
0.0000268014670592
  0
LINE
  5
1206E
  8
0
 10
518.1913879812412915
 20
86.1599604457101549
 30
0.0
 11
517.8178841117412503
 21
85.9443268225198551
 31
0.0
  0
ARC
  5
1206F
  8
0
 10
517.807887981272188
 20
85.9616258768944732
 30
0.0
 40
0.0199794871458645
 50
239.9788483712740117
 51
300.0211516287259883
  0
LINE
  5
12070
  8
0
 10
517.807887981272188
 20
86.7860968126279033
 30
0.0
 11
518.1483879812720943
 21
86.5895090459278975
 31
0.0
  0
LINE
  5
12071
  8
0
 10
518.1483879812720943
 20
86.5895090459278975
 30
0.0
 11
518.1483879812720943
 21
86.1963335126279162
 31
0.0
  0
LINE
  5
12072
  8
0
 10
518.1483879812720943
 20
86.1963335126279162
 30
0.0
 11
517.807887981272188
 21
85.9997457460279122
 31
0.0
  0
LINE
  5
12073
  8
0
 10
517.807887981272188
 20
86.7572292991279141
 30
0.0
 11
518.123387981272117
 21
86.5750752892279252
 31
0.0
  0
LINE
  5
12074
  8
0
 10
518.123387981272117
 20
86.5750752892279252
 30
0.0
 11
518.123387981272117
 21
86.2107672694279188
 31
0.0
  0
LINE
  5
12075
  8
0
 10
518.123387981272117
 20
86.2107672694279188
 30
0.0
 11
517.807887981272188
 21
86.0286132594279138
 31
0.0
  0
ARC
  5
12076
  8
0
 10
518.0920170507721423
 20
89.6409527754279054
 30
0.0
 40
0.0196850394000076
 50
29.9994740930179198
 51
93.4060249652078056
  0
LINE
  5
12077
  8
0
 10
518.10906551758967
 20
89.6507940432349386
 30
0.0
 11
518.3931938643721651
 21
89.1586693108279178
 31
0.0
  0
ARC
  5
12078
  8
0
 10
518.3761461200333542
 20
89.1488267910457353
 30
0.0
 40
0.0196850395655774
 50
330.000000554444
 51
29.999999997949331
  0
LINE
  5
12079
  8
0
 10
518.3931938644668662
 20
89.1389842714279155
 30
0.0
 11
518.109064799765747
 21
88.6468582844603361
 31
0.0
  0
ARC
  5
1207A
  8
0
 10
518.0920170814035828
 20
88.6567007890258054
 30
0.0
 40
0.0196850094608839
 50
297.098959321508687
 51
330.0000005544446822
  0
LINE
  5
1207B
  8
0
 10
518.0570510220566121
 20
87.1589115784912565
 30
0.0
 11
518.5857977729317554
 21
86.853640803449224
 31
0.0
  0
ARC
  5
1207C
  8
0
 10
518.5757578696217251
 20
86.8362511065365226
 30
0.0
 40
0.0200798709455599
 50
0.1329953537865228
 51
60.0001059702276009
  0
LINE
  5
1207D
  8
0
 10
518.5958376864721231
 20
86.8362977160279144
 30
0.0
 11
518.5978959306994511
 21
85.9495863214342535
 31
0.0
  0
ARC
  5
1207E
  8
0
 10
518.5794182227241436
 20
85.9495434307755772
 30
0.0
 40
0.0184777577542395
 50
290.1996073967191023
 51
0.1329953537934436
  0
LINE
  5
1207F
  8
0
 10
518.5857984403720593
 20
85.9322021403279166
 30
0.0
 11
517.8143869484777042
 21
85.4868476513380386
 31
0.0
  0
ARC
  5
12080
  8
0
 10
517.807887981272188
 20
85.4979702491472153
 30
0.0
 40
0.0128821099500272
 50
239.7021281114151918
 51
300.2978718886113256
  0
LINE
  5
12081
  8
0
 10
518.0553479415301581
 20
87.1015286907126125
 30
0.0
 11
518.5288736377721079
 21
86.8281385026279224
 31
0.0
  0
ARC
  5
12082
  8
0
 10
518.5192864080938762
 20
86.8036473512103299
 30
0.0
 40
0.0263007884038282
 50
351.3781839497323745
 51
68.6217992452761507
  0
LINE
  5
12083
  8
0
 10
518.54528998107196
 20
86.7997045523278956
 30
0.0
 11
518.5452897423109562
 21
85.9861379971279547
 31
0.0
  0
ARC
  5
12084
  8
0
 10
518.5124567995627558
 20
85.9861380067635963
 30
0.0
 40
0.0328329427481769
 50
300.0007240748192885
 51
359.999983185144913
  0
LINE
  5
12085
  8
0
 10
518.5288736302719599
 20
85.9577040517279158
 30
0.0
 11
517.8243094652838181
 21
85.550911869427523
 31
0.0
  0
ARC
  5
12086
  8
0
 10
517.807887981272188
 20
85.5716031232652767
 30
0.0
 40
0.026415774123154
 50
231.5629465870241006
 51
308.4370534129877797
  0
LINE
  5
12087
  8
0
 10
518.0459944851719456
 20
86.7863772176950761
 30
0.0
 11
518.2676703272868508
 21
86.6583926106310258
 31
0.0
  0
LINE
  5
12088
  8
0
 10
518.2676703272868508
 20
86.6583926106310258
 30
0.0
 11
518.267684481472088
 21
86.127463452027925
 31
0.0
  0
LINE
  5
12089
  8
0
 10
518.267684481472088
 20
86.127463452027925
 30
0.0
 11
517.807887981272188
 21
85.8732038134279207
 31
0.0
  0
LINE
  5
1208A
  8
0
 10
517.1810850087721292
 20
95.1264829000279093
 30
0.0
 11
517.1042423406721582
 21
90.8904301789279145
 31
0.0
  0
ARC
  5
1208B
  8
0
 10
516.6417359086201486
 20
90.919859132226776
 30
0.0
 40
0.4634417622734567
 50
296.800659002777877
 51
356.3592187513546037
  0
ARC
  5
1208C
  8
0
 10
516.8583229816572384
 20
90.4932836666509672
 30
0.0
 40
0.0150000005753619
 50
120.5610077726482956
 51
179.9999947342768962
  0
LINE
  5
1208D
  8
0
 10
516.8433229810817693
 20
90.4932836680295338
 30
0.0
 11
516.8433229812721947
 21
90.1141778417496653
 31
0.0
  0
ARC
  5
1208E
  8
0
 10
519.6986850391065218
 20
89.1878470395262184
 30
0.0
 40
3.0018629609740568
 50
162.0260048310460945
 51
197.3027891189387901
  0
LINE
  5
1208F
  8
0
 10
516.8326674168629324
 20
88.2950289026933746
 30
0.0
 11
516.8433210521720866
 21
88.227476298618484
 31
0.0
  0
LINE
  5
12090
  8
0
 10
516.8433210521720866
 20
88.227476298618484
 30
0.0
 11
516.8433210521720866
 21
65.1393779722279191
 31
0.0
  0
ARC
  5
12091
  8
0
 10
517.5721761443777496
 20
89.6837644972502801
 30
0.0
 40
0.0199999999808242
 50
90.9999998841040565
 51
138.4538394749700103
  0
LINE
  5
12092
  8
0
 10
517.5572077116750052
 20
89.6970289618703305
 30
0.0
 11
517.4922549983035651
 21
89.6237323490797309
 31
0.0
  0
ARC
  5
12093
  8
0
 10
517.5065109265948422
 20
89.6090085041255549
 30
0.0
 40
0.0204944651473777
 50
134.0749644485219108
 51
181.3924905565498875
  0
LINE
  5
12094
  8
0
 10
517.4860225138036185
 20
89.6085104650015154
 30
0.0
 11
517.5716608167703043
 21
86.7230555367095945
 31
0.0
  0
ARC
  5
12095
  8
0
 10
517.5516690446620487
 20
86.7224627587055465
 30
0.0
 40
0.0200007610770366
 50
300.0006429663569065
 51
1.6423829970540289
  0
LINE
  5
12096
  8
0
 10
517.7978879813064168
 20
86.8415224384476829
 30
0.0
 11
517.4243879839096962
 21
86.625882108359491
 31
0.0
  0
ARC
  5
12097
  8
0
 10
517.4343879869679768
 20
86.6085615954724233
 30
0.0
 40
0.0200000056959327
 50
120.0000006959413952
 51
179.9999731985340929
  0
LINE
  5
12098
  8
0
 10
517.4143879812721707
 20
86.6085616048279263
 30
0.0
 11
517.4143877795303297
 21
86.1772809537279727
 31
0.0
  0
ARC
  5
12099
  8
0
 10
517.4343875614598574
 20
86.1772809443725833
 30
0.0
 40
0.0199997819296436
 50
179.9999731985328992
 51
240.0010281496344078
  0
LINE
  5
1209A
  8
0
 10
517.4243879813029707
 20
86.1599604457101549
 30
0.0
 11
517.7978918508030119
 21
85.9443268225198551
 31
0.0
  0
LINE
  5
1209B
  8
0
 10
517.807887981272188
 20
86.7860968126279033
 30
0.0
 11
517.4673879812720543
 21
86.5895090459278975
 31
0.0
  0
LINE
  5
1209C
  8
0
 10
517.4673879812720543
 20
86.5895090459278975
 30
0.0
 11
517.4673879812720543
 21
86.1963335126279162
 31
0.0
  0
LINE
  5
1209D
  8
0
 10
517.4673879812720543
 20
86.1963335126279162
 30
0.0
 11
517.807887981272188
 21
85.9997457460279122
 31
0.0
  0
LINE
  5
1209E
  8
0
 10
517.807887981272188
 20
86.7572292991279141
 30
0.0
 11
517.4923879812721452
 21
86.5750752892279252
 31
0.0
  0
LINE
  5
1209F
  8
0
 10
517.4923879812721452
 20
86.5750752892279252
 30
0.0
 11
517.4923879812721452
 21
86.2107672694279188
 31
0.0
  0
LINE
  5
120A0
  8
0
 10
517.4923879812721452
 20
86.2107672694279188
 30
0.0
 11
517.807887981272188
 21
86.0286132594279138
 31
0.0
  0
LINE
  5
120A1
  8
0
 10
517.5067111675922433
 20
89.6507952950304627
 30
0.0
 11
517.2225820981719835
 21
89.1586693108279178
 31
0.0
  0
ARC
  5
120A2
  8
0
 10
517.2396298425106806
 20
89.1488267910457353
 30
0.0
 40
0.0196850395655774
 50
150.0000000020507116
 51
209.9999994455556021
  0
LINE
  5
120A3
  8
0
 10
517.2225820980772824
 20
89.1389842714279155
 30
0.0
 11
517.5067111627785152
 21
88.6468582844603361
 31
0.0
  0
ARC
  5
120A4
  8
0
 10
517.5237588811405658
 20
88.6567007890258054
 30
0.0
 40
0.0196850094608839
 50
209.9999994455548915
 51
242.901040678491313
  0
LINE
  5
120A5
  8
0
 10
517.5587249404876502
 20
87.1589115784912565
 30
0.0
 11
517.0299781896125069
 21
86.853640803449224
 31
0.0
  0
ARC
  5
120A6
  8
0
 10
517.0400180929225371
 20
86.8362511065365226
 30
0.0
 40
0.0200798709455599
 50
119.9998940297724062
 51
179.8670046462138998
  0
LINE
  5
120A7
  8
0
 10
517.0199382760721392
 20
86.8362977160279144
 30
0.0
 11
517.0178800318446974
 21
85.9495863214342535
 31
0.0
  0
ARC
  5
120A8
  8
0
 10
517.036357739820005
 20
85.9495434307755772
 30
0.0
 40
0.0184777577542395
 50
179.8670046462065102
 51
249.8003926032810114
  0
LINE
  5
120A9
  8
0
 10
517.029977522172203
 20
85.9322021403279166
 30
0.0
 11
517.8013890140664444
 21
85.4868476513380386
 31
0.0
  0
LINE
  5
120AA
  8
0
 10
517.5604280210139905
 20
87.1015286907126125
 30
0.0
 11
517.0869023247721543
 21
86.8281385026279224
 31
0.0
  0
ARC
  5
120AB
  8
0
 10
517.0964895544503861
 20
86.8036473512103299
 30
0.0
 40
0.0263007884038282
 50
111.3782007547239061
 51
188.6218160502668013
  0
LINE
  5
120AC
  8
0
 10
517.0704859814721885
 20
86.7997045523278956
 30
0.0
 11
517.0704862202331924
 21
85.9861379971279547
 31
0.0
  0
ARC
  5
120AD
  8
0
 10
517.1033191629812791
 20
85.9861380067635963
 30
0.0
 40
0.0328329427481769
 50
180.0000168148546891
 51
239.9992759251805978
  0
LINE
  5
120AE
  8
0
 10
517.0869023322721887
 20
85.9577040517279158
 30
0.0
 11
517.7914664972604442
 21
85.550911869427523
 31
0.0
  0
LINE
  5
120AF
  8
0
 10
517.5697814773720893
 20
86.7863772176950761
 30
0.0
 11
517.3481056352572978
 21
86.6583926106310258
 31
0.0
  0
LINE
  5
120B0
  8
0
 10
517.3481056352572978
 20
86.6583926106310258
 30
0.0
 11
517.3480914810720606
 21
86.127463452027925
 31
0.0
  0
LINE
  5
120B1
  8
0
 10
517.3480914810720606
 20
86.127463452027925
 30
0.0
 11
517.807887981272188
 21
85.8732038134279207
 31
0.0
  0
LINE
  5
120B2
  8
0
 10
518.7724529812720675
 20
90.1141778417496653
 30
0.0
 11
516.8433229812721947
 21
90.1141778417496653
 31
0.0
  0
LINE
  5
120B3
  8
0
 10
518.7724529814622656
 20
90.4932836680295338
 30
0.0
 11
516.8433229810817693
 21
90.4932836680295338
 31
0.0
  0
ARC
  5
120B4
  8
0
 10
512.0619586853288183
 20
95.5674349491584962
 30
0.0
 40
5.1380826214651902
 50
355.0768001504814038
 51
28.7859337683216587
  0
ARC
  5
120B5
  8
0
 10
513.5082655416844091
 20
96.0954301790276446
 30
0.0
 40
3.623797027402984
 50
32.4835936585434126
 51
103.3627272985763028
  0
ARC
  5
120B6
  8
0
 10
513.497495581072144
 20
96.1407685506279108
 30
0.0
 40
3.5771970274999969
 50
103.3627272972003937
 51
170.9999999988743866
  0
LINE
  5
120B7
  8
0
 10
509.9643397850098268
 20
96.7003654540377795
 30
0.0
 11
509.926973969072094
 21
96.4644469767279134
 31
0.0
  0
LINE
  5
120B8
  8
0
 10
516.8433223400721772
 20
83.6370157675279131
 30
0.0
 11
518.7724549103720619
 21
83.6370157675279131
 31
0.0
  0
ARC
  5
120B9
  8
0
 10
517.807887981272188
 20
86.392921279327922
 30
0.0
 40
0.9374682229750233
 50
105.6707260432632012
 51
74.3292739567367846
  0
LINE
  5
120BA
  8
0
 10
518.7724549103720619
 20
88.227476298618484
 30
0.0
 11
518.0887652113635795
 21
88.227476298618484
 31
0.0
  0
LINE
  5
120BB
  8
0
 10
517.5270107511805691
 20
88.227476298618484
 30
0.0
 11
516.8433210521720866
 21
88.227476298618484
 31
0.0
  0
LINE
  5
120BC
  8
0
 10
509.3078879812720743
 20
96.5625005644279355
 30
0.0
 11
509.3452537971010088
 21
96.7984190409684544
 31
0.0
  0
ARC
  5
120BD
  8
0
 10
513.497495581072144
 20
96.1407685506279392
 30
0.0
 40
4.203999999999982
 50
103.3627272972003937
 51
171.000000009502088
  0
ARC
  5
120BE
  8
0
 10
513.5082655416402986
 20
96.0954301788370202
 30
0.0
 40
4.2506000000782258
 50
32.4835936608154299
 51
103.3627272972003937
  0
CIRCLE
  5
120BF
  8
0
 10
517.807887981272188
 20
90.3102099038278965
 30
0.0
 40
0.1318897637000001
  0
LINE
  5
120C0
  8
0
 10
518.123387981272117
 20
86.5750752892279252
 30
0.0
 11
518.5931358745692705
 21
86.8463112338333758
 31
0.0
  0
LINE
  5
120C1
  8
0
 10
518.123387981272117
 20
86.2107672694279188
 30
0.0
 11
518.5945850139061122
 21
85.9389890015219464
 31
0.0
  0
LINE
  5
120C2
  8
0
 10
517.807887981272188
 20
86.0286132594279138
 30
0.0
 11
517.807887981272188
 21
85.4850881391972024
 31
0.0
  0
LINE
  5
120C3
  8
0
 10
517.4923879812721452
 20
86.2107672694279188
 30
0.0
 11
517.0211909486381501
 21
85.9389890015219464
 31
0.0
  0
LINE
  5
120C4
  8
0
 10
517.4923879812721452
 20
86.5750752892279252
 30
0.0
 11
517.0226400879747644
 21
86.8463112338333758
 31
0.0
  0
LINE
  5
120C5
  8
0
 10
517.807887981272188
 20
86.7572292991279141
 30
0.0
 11
517.807887981272188
 21
86.8442019304279142
 31
0.0
  0
LINE
  5
120C6
  8
0
 10
516.3218563283684261
 20
64.2298662057315681
 30
0.0
 11
519.2939196341758361
 21
64.2298662057315681
 31
0.0
  0
LINE
  5
120C7
  8
0
 10
516.3062230583998371
 20
64.0490714555445919
 30
0.0
 11
519.3095529041444252
 21
64.0490714555445919
 31
0.0
  0
LINE
  5
120C8
  8
0
 10
516.2090010798020785
 20
63.8864877348520892
 30
0.0
 11
519.4067748827420701
 21
63.8864877348520892
 31
0.0
  0
LINE
  5
120C9
  8
0
 10
517.8078879812898094
 20
65.1393779722279191
 30
0.0
 11
517.8078879812898094
 21
63.170874035234938
 31
0.0
  0
ARC
  5
120CA
  8
0
 10
517.5237589117953121
 20
89.6409527753173734
 30
0.0
 40
0.0196850394179864
 50
86.5939753717066054
 51
149.9999999596001032
  0
LINE
  5
120CB
  8
0
 10
517.8078886252221764
 20
95.1264829000343468
 30
0.0
 11
517.8078886252221764
 21
90.4932836680295338
 31
0.0
  0
ARC
  5
120CC
  8
0
 10
486.5987902604484816
 20
94.9868283745749409
 30
0.0
 40
31.2094108263612
 50
0.2563855385426538
 51
1.8543326091304111
  0
ARC
  5
120CD
  8
0
 10
513.031958264850914
 20
95.894667198316526
 30
0.0
 40
4.7609931094717703
 50
1.228239643249583
 51
31.443136847575289
  0
ARC
  5
120CE
  8
0
 10
548.4261448667924697
 20
-1671.1844736986649878
 30
0.0
 40
1761.1585293817429374
 50
90.9961540734020673
 51
91.0038350341807671
  0
ARC
  5
120CF
  8
0
 10
519.3742317746848585
 20
176.0616284000626024
 30
0.0
 40
86.367951033955066
 50
268.9608440288970996
 51
269.1174682207093269
  0
ENDSEC
  0
EOF
