  0
SECTION
  2
HEADER
  9
$ACADVER
  1
AC1009
  9
$INSBASE
 10
534.9811208275557419
 20
63.7842716529249927
 30
0.0
  9
$EXTMIN
 10
529.9623703689253489
 20
63.7726052061319706
 30
-0.0015258207003583
  9
$EXTMAX
 10
540.2015780100199436
 20
101.5930945931798988
 30
0.0000000349246037
  9
$LIMMIN
 10
0.0
 20
0.0
  9
$LIMMAX
 10
11.6929133858000007
 20
8.2677165353999982
  9
$ORTHOMODE
 70
     0
  9
$REGENMODE
 70
     1
  9
$FILLMODE
 70
     1
  9
$QTEXTMODE
 70
     0
  9
$MIRRTEXT
 70
     0
  9
$DRAGMODE
 70
     2
  9
$LTSCALE
 40
0.6431102362
  9
$OSMODE
 70
  4095
  9
$ATTMODE
 70
     1
  9
$TEXTSIZE
 40
0.2
  9
$TRACEWID
 40
0.05
  9
$TEXTSTYLE
  7
STANDARD
  9
$CLAYER
  8
0
  9
$CELTYPE
  6
BYLAYER
  9
$CECOLOR
 62
   256
  9
$DIMSCALE
 40
1.0
  9
$DIMASZ
 40
0.1875
  9
$DIMEXO
 40
0.0625
  9
$DIMDLI
 40
0.4443307087
  9
$DIMRND
 40
0.0
  9
$DIMDLE
 40
0.0
  9
$DIMEXE
 40
0.125
  9
$DIMTP
 40
0.01
  9
$DIMTM
 40
0.01
  9
$DIMTXT
 40
1.0
  9
$DIMCEN
 40
0.1052362205
  9
$DIMTSZ
 40
0.0
  9
$DIMTOL
 70
     1
  9
$DIMLIM
 70
     0
  9
$DIMTIH
 70
     0
  9
$DIMTOH
 70
     1
  9
$DIMSE1
 70
     0
  9
$DIMSE2
 70
     0
  9
$DIMTAD
 70
     0
  9
$DIMZIN
 70
     0
  9
$DIMBLK
  1

  9
$DIMASO
 70
     1
  9
$DIMSHO
 70
     1
  9
$DIMPOST
  1
\X
  9
$DIMAPOST
  1

  9
$DIMALT
 70
     1
  9
$DIMALTD
 70
     2
  9
$DIMALTF
 40
25.3999999999999986
  9
$DIMLFAC
 40
1.0
  9
$DIMTOFL
 70
     0
  9
$DIMTVP
 40
0.0
  9
$DIMTIX
 70
     0
  9
$DIMSOXD
 70
     0
  9
$DIMSAH
 70
     0
  9
$DIMBLK1
  1

  9
$DIMBLK2
  1

  9
$DIMSTYLE
  2
STANDARD
  9
$DIMCLRD
 70
     0
  9
$DIMCLRE
 70
     0
  9
$DIMCLRT
 70
     0
  9
$DIMTFAC
 40
1.0
  9
$DIMGAP
 40
0.09
  9
$LUNITS
 70
     2
  9
$LUPREC
 70
     4
  9
$SKETCHINC
 40
0.1
  9
$FILLETRAD
 40
0.0
  9
$AUNITS
 70
     0
  9
$AUPREC
 70
     0
  9
$MENU
  1
.
  9
$ELEVATION
 40
0.0
  9
$PELEVATION
 40
0.0
  9
$THICKNESS
 40
0.0
  9
$LIMCHECK
 70
     0
  9
$BLIPMODE
 70
     0
  9
$CHAMFERA
 40
0.0
  9
$CHAMFERB
 40
0.0
  9
$SKPOLY
 70
     0
  9
$TDCREATE
 40
2458172.5207638889551163
  9
$TDUPDATE
 40
2459723.6225694450549781
  9
$TDINDWG
 40
0.3340828472
  9
$TDUSRTIMER
 40
0.3340828472
  9
$USRTIMER
 70
     1
  9
$ANGBASE
 50
0.0
  9
$ANGDIR
 70
     0
  9
$PDMODE
 70
     0
  9
$PDSIZE
 40
0.3125
  9
$PLINEWID
 40
0.0
  9
$COORDS
 70
     1
  9
$SPLFRAME
 70
     0
  9
$SPLINETYPE
 70
     6
  9
$SPLINESEGS
 70
     8
  9
$ATTDIA
 70
     1
  9
$ATTREQ
 70
     1
  9
$HANDLING
 70
     1
  9
$HANDSEED
  5
12CF6
  9
$SURFTAB1
 70
     6
  9
$SURFTAB2
 70
     6
  9
$SURFTYPE
 70
     6
  9
$SURFU
 70
     6
  9
$SURFV
 70
     6
  9
$UCSNAME
  2

  9
$UCSORG
 10
0.0
 20
0.0
 30
0.0
  9
$UCSXDIR
 10
1.0
 20
0.0
 30
0.0
  9
$UCSYDIR
 10
0.0
 20
1.0
 30
0.0
  9
$PUCSNAME
  2

  9
$PUCSORG
 10
0.0
 20
0.0
 30
0.0
  9
$PUCSXDIR
 10
1.0
 20
0.0
 30
0.0
  9
$PUCSYDIR
 10
0.0
 20
1.0
 30
0.0
  9
$USERI1
 70
     0
  9
$USERI2
 70
     0
  9
$USERI3
 70
     0
  9
$USERI4
 70
     0
  9
$USERI5
 70
     0
  9
$USERR1
 40
0.0
  9
$USERR2
 40
0.0
  9
$USERR3
 40
0.0
  9
$USERR4
 40
0.0
  9
$USERR5
 40
0.0
  9
$WORLDVIEW
 70
     1
  9
$SHADEDGE
 70
     3
  9
$SHADEDIF
 70
    70
  9
$TILEMODE
 70
     1
  9
$MAXACTVP
 70
    64
  9
$PLIMCHECK
 70
     0
  9
$PEXTMIN
 10
1.0000000000000000E+20
 20
1.0000000000000000E+20
 30
1.0000000000000000E+20
  9
$PEXTMAX
 10
-1.0000000000000000E+20
 20
-1.0000000000000000E+20
 30
-1.0000000000000000E+20
  9
$PLIMMIN
 10
0.0
 20
0.0
  9
$PLIMMAX
 10
12.0
 20
9.0
  9
$UNITMODE
 70
     0
  9
$VISRETAIN
 70
     1
  9
$PLINEGEN
 70
     0
  9
$PSLTSCALE
 70
     1
  0
ENDSEC
  0
SECTION
  2
TABLES
  0
TABLE
  2
VPORT
 70
     1
  0
VPORT
  2
*ACTIVE
 70
     0
 10
0.0
 20
0.0
 11
1.0
 21
1.0
 12
105.4526850814189061
 22
12.9803083874372494
 13
0.0
 23
0.0
 14
1.0
 24
1.0
 15
0.0
 25
0.0
 16
0.0
 26
0.0
 36
14.6338572656650907
 17
429.6292891080536833
 27
69.7025415122186871
 37
0.0
 40
38.1250839324469695
 41
2.561827956989247
 42
50.0
 43
0.0
 44
0.0
 50
0.0
 51
0.0
 71
     0
 72
   100
 73
     1
 74
     1
 75
     0
 76
     0
 77
     0
 78
     0
  0
ENDTAB
  0
TABLE
  2
LTYPE
 70
     2
  0
LTYPE
  2
CONTINUOUS
 70
     0
  3
Solid line
 72
    65
 73
     0
 40
0.0
  0
LTYPE
  2
PHANTOM2
 70
     0
  3
___ _ _ ___ _ _ ___ _ _ ___ _ _
 72
    65
 73
     6
 40
1.25
 49
0.625
 49
-0.125
 49
0.125
 49
-0.125
 49
0.125
 49
-0.125
  0
ENDTAB
  0
TABLE
  2
LAYER
 70
     2
  0
LAYER
  2
0
 70
     0
 62
   255
  6
CONTINUOUS
  0
LAYER
  2
DEFPOINTS
 70
     0
 62
     7
  6
CONTINUOUS
  0
ENDTAB
  0
TABLE
  2
STYLE
 70
     1
  0
STYLE
  2
STANDARD
 70
     0
 40
0.0
 41
0.8
 50
0.0
 71
     0
 42
0.2
  3
txt
  4

  0
ENDTAB
  0
TABLE
  2
VIEW
 70
     0
  0
ENDTAB
  0
TABLE
  2
UCS
 70
     0
  0
ENDTAB
  0
TABLE
  2
APPID
 70
    10
  0
APPID
  2
ACAD
 70
     0
  0
APPID
  2
ACAD_MLEADERVER
 70
     0
  0
APPID
  2
ACAD_EXEMPT_FROM_CAD_STANDARDS
 70
     0
  0
APPID
  2
ACAD_DSTYLE_DIMJAG
 70
     0
  0
APPID
  2
ACAD_DSTYLE_DIMTALN
 70
     0
  0
APPID
  2
ACAD_NAV_VCDISPLAY
 70
     0
  0
APPID
  2
ACAECLAYERSTANDARD
 70
     0
  0
APPID
  2
ACCMTRANSPARENCY
 70
     0
  0
APPID
  2
DCO15
 70
     0
  0
APPID
  2
ACDBATTR
 70
     0
  0
ENDTAB
  0
TABLE
  2
DIMSTYLE
 70
     1
  0
DIMSTYLE
  2
STANDARD
 70
     0
  3

  4

  5

  6

  7

 40
1.0
 41
0.1875
 42
0.0625
 43
0.38
 44
0.125
 45
0.0
 46
0.0
 47
0.01
 48
0.01
140
0.15625
141
0.09
142
0.0
143
25.3999999999999986
144
1.0
145
0.0
146
1.0
147
0.09
 71
     1
 72
     0
 73
     1
 74
     1
 75
     0
 76
     0
 77
     0
 78
     4
170
     0
171
     2
172
     0
173
     0
174
     0
175
     0
176
     0
177
     0
178
     0
  0
ENDTAB
  0
ENDSEC
  0
SECTION
  2
BLOCKS
  0
BLOCK
  8
0
  2
$MODEL_SPACE
 70
     0
 10
0.0
 20
0.0
 30
0.0
  3
$MODEL_SPACE
  1

  0
ENDBLK
  5
21
  8
0
  0
BLOCK
 67
     1
  8
0
  2
$PAPER_SPACE
 70
     0
 10
0.0
 20
0.0
 30
0.0
  3
$PAPER_SPACE
  1

  0
ENDBLK
  5
1D
 67
     1
  8
0
  0
ENDSEC
  0
SECTION
  2
ENTITIES
  0
ATTDEF
  5
100F7
  8
DEFPOINTS
 10
534.974497649834916
 20
63.782013183938723
 30
0.0
 40
0.001
  1
P22729-00
  3

  2
MODELNUMBER
 70
     0
1001
ACDBATTR
1070
     0
1070
     1
  0
ATTDEF
  5
100F8
  8
DEFPOINTS
 10
534.974497649834916
 20
63.7803465172720507
 30
0.0
 40
0.001
  1

  3

  2
TRADENAME
 70
     0
1001
ACDBATTR
1070
     0
1070
     1
  0
ATTDEF
  5
100F9
  8
DEFPOINTS
 10
534.974497649834916
 20
63.7786798506053927
 30
0.0
 40
0.001
  1
BATH FAUCET
  3

  2
PRODUCT
 70
     0
1001
ACDBATTR
1070
     0
1070
     1
  0
LINE
  5
12921
  8
0
 10
535.3430056924056544
 20
101.5862307691249953
 30
0.0
 11
534.6192359626057851
 21
101.5862307691249953
 31
0.0
  0
LINE
  5
12922
  8
0
 10
534.6192359626057851
 20
101.5862307691249953
 30
0.0
 11
534.2573510977057367
 21
100.9594277966249933
 31
0.0
  0
LINE
  5
12923
  8
0
 10
534.2573510977057367
 20
100.9594277966249933
 30
0.0
 11
534.2573510977057367
 21
95.7398805177249841
 31
0.0
  0
LINE
  5
12924
  8
0
 10
534.2573510977057367
 20
95.7398805177249841
 30
0.0
 11
534.168620827505606
 21
91.5038277966249751
 31
0.0
  0
ARC
  5
12925
  8
0
 10
533.0650855580663574
 20
91.5269429439282476
 30
0.0
 40
1.103777333039287
 50
348.3290756383293001
 51
358.8000322457185121
  0
ARC
  5
12926
  8
0
 10
533.8444314038616767
 20
91.3714307350486337
 30
0.0
 40
0.3091318030485843
 50
305.4266445925055109
 51
347.3361268367975754
  0
ARC
  5
12927
  8
0
 10
534.0328219670865337
 20
91.106104712316295
 30
0.0
 40
0.0162763569084011
 50
124.4152068778985978
 51
177.969930509100891
  0
LINE
  5
12928
  8
0
 10
534.0165558256471741
 20
91.1066812857195742
 30
0.0
 11
534.0165523358057271
 21
90.7275754594397057
 31
0.0
  0
ARC
  5
12929
  8
0
 10
532.5912861663708782
 20
102.9389914546051017
 30
0.0
 40
12.5984246453783797
 50
271.5122833543305205
 51
275.0298790212987115
  0
ARC
  5
1292A
  8
0
 10
532.9236693437804888
 20
90.3354712383574281
 30
0.0
 40
0.0094843099136627
 50
89.3649868128564577
 51
182.1472965937726087
  0
LINE
  5
1292B
  8
0
 10
532.9141916937055612
 20
89.1849280316246933
 30
0.0
 11
532.9141916937055612
 21
90.3395175492246949
 31
0.0
  0
ARC
  5
1292C
  8
0
 10
532.9043402091532471
 20
90.3395175492247091
 30
0.0
 40
0.0098514845525011
 50
359.9999999999678266
 51
39.6963030500183223
  0
ARC
  5
1292D
  8
0
 10
532.8551365756055702
 20
90.2986732684103117
 30
0.0
 40
0.0737987505575528
 50
39.6963030500198784
 51
140.3036969313255042
  0
ARC
  5
1292E
  8
0
 10
532.8059329429556783
 20
90.3395175485067625
 30
0.0
 40
0.0098514857016259
 50
140.3036969312869076
 51
179.9899476021356861
  0
LINE
  5
1292F
  8
0
 10
532.7960814574057622
 20
90.3395192769247046
 30
0.0
 11
532.7960814574057622
 21
89.1849280316246933
 31
0.0
  0
ARC
  5
12930
  8
0
 10
532.7567113787057451
 20
90.3252165348246905
 30
0.0
 40
0.0393700787000115
 50
0.3194805110647656
 51
89.9999999999804601
  0
LINE
  5
12931
  8
0
 10
532.7567113787057451
 20
90.3645866135247076
 30
0.0
 11
531.7767729341055656
 21
90.3645866135249918
 31
0.0
  0
ARC
  5
12932
  8
0
 10
531.7767729341055656
 20
90.3252165346787734
 30
0.0
 40
0.0393700788462184
 50
89.9999999999804601
 51
147.1933905166391128
  0
ARC
  5
12933
  8
0
 10
531.5008968348414555
 20
90.5030515934683564
 30
0.0
 40
0.2888568705042656
 50
278.1917577013059031
 51
327.1933905166387717
  0
ARC
  5
12934
  8
0
 10
531.2793281690261438
 20
91.9413695765176868
 30
0.0
 40
1.744129047281181
 50
273.8619369840430977
 51
278.6637276877161185
  0
ARC
  5
12935
  8
0
 10
532.9236693437804888
 20
89.1889775792919721
 30
0.0
 40
0.0094843099136627
 50
177.8527034062277892
 51
270.6350131871436133
  0
ARC
  5
12936
  8
0
 10
532.9043402091532471
 20
89.1849312684246769
 30
0.0
 40
0.0098514845525011
 50
320.3036969499817133
 51
0.0000000000317547
  0
ARC
  5
12937
  8
0
 10
532.8551365756055702
 20
89.2257755492390885
 30
0.0
 40
0.0737987505575528
 50
219.6963030686744958
 51
320.3036969499801216
  0
ARC
  5
12938
  8
0
 10
532.8059329016044785
 20
89.1849312548040842
 30
0.0
 40
0.0098514447260264
 50
180.0187459387485092
 51
219.6963925134427029
  0
ARC
  5
12939
  8
0
 10
532.7567113787075641
 20
89.1992322828238855
 30
0.0
 40
0.0393700786980576
 50
300.7762605231018256
 51
359.6805194901085088
  0
ARC
  5
1293A
  8
0
 10
531.7767729339898324
 20
89.1992322828458271
 30
0.0
 40
0.0393700786811593
 50
212.8066094221352955
 51
250.6058145703424884
  0
ARC
  5
1293B
  8
0
 10
531.5008968348414555
 20
89.0213972241810438
 30
0.0
 40
0.2888568705042656
 50
32.8066094833601909
 51
81.8082422986941538
  0
ARC
  5
1293C
  8
0
 10
531.3451275738400454
 20
88.2058736800501606
 30
0.0
 40
1.1188991810715561
 50
79.8630791871423753
 51
87.4142271224971523
  0
LINE
  5
1293D
  8
0
 10
531.7767729341055656
 20
90.3645866135249918
 30
0.0
 11
531.7767729341055656
 21
89.1598622041243942
 31
0.0
  0
ARC
  5
1293E
  8
0
 10
532.5912861663708782
 20
76.5854573630434601
 30
0.0
 40
12.5984246453792306
 50
84.8633638682175331
 51
87.0617694603704564
  0
ARC
  5
1293F
  8
0
 10
532.5912861663708782
 20
76.5854573630434601
 30
0.0
 40
12.5984246453792306
 50
87.8326640504627534
 51
88.4877166456629851
  0
ARC
  5
12940
  8
0
 10
532.8085143805642474
 20
89.1138534688755186
 30
0.0
 40
0.0604974884498663
 50
121.553327623118804
 51
179.2266864991352122
  0
ARC
  5
12941
  8
0
 10
533.6600218112533867
 20
90.730245965644059
 30
0.0
 40
0.3430408002153296
 50
275.9961288664138124
 51
343.5132857344872264
  0
LINE
  5
12942
  8
0
 10
533.988958683305782
 20
90.6328933857249837
 30
0.0
 11
534.0165523358057271
 21
90.7275754594397057
 31
0.0
  0
ARC
  5
12943
  8
0
 10
531.2792602657976886
 20
90.2355225295216172
 30
0.0
 40
0.0188345354039647
 50
37.9638346922797822
 51
91.525086666521446
  0
ARC
  5
12944
  8
0
 10
531.3887173030534541
 20
90.3209285317464889
 30
0.0
 40
0.12
 50
217.9638346922791925
 51
273.8619369840430977
  0
LINE
  5
12945
  8
0
 10
531.2787589914057662
 20
90.2543503931249944
 30
0.0
 11
530.1543493337056816
 21
90.2543503931249944
 31
0.0
  0
ARC
  5
12946
  8
0
 10
530.1554903203010554
 20
90.2324709866179404
 30
0.0
 40
0.0219091368956349
 50
92.9852067278652044
 51
141.9601920519033911
  0
ARC
  5
12947
  8
0
 10
530.8354430268542501
 20
89.7622244056661458
 30
0.0
 40
0.8485931219233401
 50
145.2457389616174055
 51
214.7542144908150021
  0
ARC
  5
12948
  8
0
 10
530.1554911424385637
 20
89.2919793192603777
 30
0.0
 40
0.0219106658378188
 50
218.0397614005281071
 51
267.0128487196320748
  0
LINE
  5
12949
  8
0
 10
530.1543493336057509
 20
89.2700984246249902
 30
0.0
 11
531.278758991455561
 21
89.2700984245249742
 31
0.0
  0
ARC
  5
1294A
  8
0
 10
531.2787589914980799
 20
89.2897834637683729
 30
0.0
 40
0.0196850392433881
 50
269.9999998764205884
 51
322.0080239003024758
  0
ARC
  5
1294B
  8
0
 10
531.3889126428797454
 20
89.2037124622365241
 30
0.0
 40
0.1201078230125606
 50
86.8050681784332738
 51
141.9950998745916024
  0
ARC
  5
1294C
  8
0
 10
533.5093762484998479
 20
89.7622244650445822
 30
0.0
 40
2.1587922379154589
 50
168.2779065154549016
 51
191.722096567556207
  0
ARC
  5
1294D
  8
0
 10
531.7440853941977821
 20
89.1063934754819371
 30
0.0
 40
0.0590551184078334
 50
359.9999590989693843
 51
70.6017655497238223
  0
LINE
  5
1294E
  8
0
 10
531.8031405126057507
 20
89.1063934333249819
 30
0.0
 11
531.8031404327354039
 21
88.9945078734426147
 31
0.0
  0
ARC
  5
1294F
  8
0
 10
531.8228254590421784
 20
88.9945078593902963
 30
0.0
 40
0.0196850263067853
 50
179.9999590989702085
 51
270.0177203768164986
  0
LINE
  5
12950
  8
0
 10
531.8228315472057375
 20
88.9748228340249909
 30
0.0
 11
532.7283306391985889
 21
88.9748228340249909
 31
0.0
  0
ARC
  5
12951
  8
0
 10
532.728337361046556
 20
88.9945078742365041
 30
0.0
 40
0.0196850413591745
 50
269.9804352190603822
 51
359.9999976379701252
  0
LINE
  5
12952
  8
0
 10
532.7480224024055815
 20
88.9945078734249932
 30
0.0
 11
532.7480224023056508
 21
89.1146699706249876
 31
0.0
  0
LINE
  5
12953
  8
0
 10
531.9409357882057066
 20
88.9748228340249909
 30
0.0
 11
531.9409357882057066
 21
88.8763976371249953
 31
0.0
  0
LINE
  5
12954
  8
0
 10
532.6890882659057525
 20
88.8763976371249953
 30
0.0
 11
531.8620814575057238
 21
88.8763976371249953
 31
0.0
  0
LINE
  5
12955
  8
0
 10
531.8620814575057238
 20
88.8763976371249953
 30
0.0
 11
531.8620814575057238
 21
88.8670275584249936
 31
0.0
  0
LINE
  5
12956
  8
0
 10
532.7405814573056659
 20
88.8670275584249936
 30
0.0
 11
531.8105882661056967
 21
88.8670275584249936
 31
0.0
  0
ARC
  5
12957
  8
0
 10
531.8105882661056967
 20
88.8370279977217763
 30
0.0
 40
0.0299995607032155
 50
90.0
 51
180.0008390073442968
  0
LINE
  5
12958
  8
0
 10
531.7805887054056484
 20
88.8370275584249924
 30
0.0
 11
531.7805993951174059
 21
88.10702755846728
 31
0.0
  0
ARC
  5
12959
  8
0
 10
531.8105998400981207
 20
88.1070279977769957
 30
0.0
 40
0.0300004449839917
 50
180.0008390073448084
 51
269.9648921621517843
  0
LINE
  5
1295A
  8
0
 10
531.8105814574057604
 20
88.0770275584249731
 30
0.0
 11
532.740573190918667
 21
88.0770275584249731
 31
0.0
  0
ARC
  5
1295B
  8
0
 10
531.8955814574055694
 20
88.0570275584249913
 30
0.0
 40
0.0199999999999974
 50
359.9999999999947136
 51
85.8288709195772839
  0
LINE
  5
1295C
  8
0
 10
531.9155814574057786
 20
88.0570275584249913
 30
0.0
 11
531.9155814574057786
 21
88.017027558424985
 31
0.0
  0
ARC
  5
1295D
  8
0
 10
531.8955814574055694
 20
88.017027558424985
 30
0.0
 40
0.0200000000000014
 50
270.0000000000130171
 51
359.9999999999947136
  0
LINE
  5
1295E
  8
0
 10
532.6476754707671262
 20
87.9984419841706682
 30
0.0
 11
531.8630856832056679
 21
87.997027558424989
 31
0.0
  0
LINE
  5
1295F
  8
0
 10
531.8630856832056679
 20
87.997027558424989
 30
0.0
 11
531.8630814574056558
 21
87.9863500476249953
 31
0.0
  0
LINE
  5
12960
  8
0
 10
531.8630814574056558
 20
87.9863500476249953
 30
0.0
 11
531.9170561225178062
 21
87.9548829412523929
 31
0.0
  0
LINE
  5
12961
  8
0
 10
531.9170561225178062
 20
87.9548829412523929
 30
0.0
 11
531.8630814574056558
 21
87.9234097374249899
 31
0.0
  0
LINE
  5
12962
  8
0
 10
531.8630814574056558
 20
87.9234097374249899
 30
0.0
 11
531.8633138621556782
 21
87.9146516233249855
 31
0.0
  0
LINE
  5
12963
  8
0
 10
531.8633138621556782
 20
87.9146516233249855
 30
0.0
 11
531.9170568051057444
 21
87.8834563836249743
 31
0.0
  0
LINE
  5
12964
  8
0
 10
531.9170568051057444
 20
87.8834563836249743
 30
0.0
 11
531.8636198538443978
 21
87.8525635024860634
 31
0.0
  0
LINE
  5
12965
  8
0
 10
531.8636198538443978
 20
87.8525635024860634
 30
0.0
 11
531.8630814574056558
 21
87.8434984968249921
 31
0.0
  0
LINE
  5
12966
  8
0
 10
531.8630814574056558
 20
87.8434984968249921
 30
0.0
 11
531.9170554356055618
 21
87.8120298040249878
 31
0.0
  0
LINE
  5
12967
  8
0
 10
531.9170554356055618
 20
87.8120298040249878
 30
0.0
 11
531.8633130904555628
 21
87.7808317678749859
 31
0.0
  0
LINE
  5
12968
  8
0
 10
531.8633130904555628
 20
87.7808317678749859
 30
0.0
 11
531.8630814574056558
 21
87.7770274687249668
 31
0.0
  0
LINE
  5
12969
  8
0
 10
531.8630814574056558
 20
87.7770274687249668
 30
0.0
 11
531.9170602148057014
 21
87.7406096346249882
 31
0.0
  0
LINE
  5
1296A
  8
0
 10
531.9170602148057014
 20
87.7406096346249882
 30
0.0
 11
531.9062655459057396
 21
87.7343682070249855
 31
0.0
  0
LINE
  5
1296B
  8
0
 10
531.9062655459057396
 20
87.7343682070249855
 30
0.0
 11
531.92308138080557
 21
87.7170275584249879
 31
0.0
  0
LINE
  5
1296C
  8
0
 10
531.92308138080557
 20
87.7170275584249879
 30
0.0
 11
532.6280810923057061
 21
87.7170275584249879
 31
0.0
  0
LINE
  5
1296D
  8
0
 10
532.6280810923057061
 20
87.7170275584249879
 30
0.0
 11
532.6676787528056138
 21
87.7566247684249845
 31
0.0
  0
LINE
  5
1296E
  8
0
 10
532.6676787528056138
 20
87.7566247684249845
 30
0.0
 11
532.634114824369135
 21
87.7763091786871144
 31
0.0
  0
LINE
  5
1296F
  8
0
 10
532.634114824369135
 20
87.7763091786871144
 30
0.0
 11
532.6880814574057013
 21
87.8077785919249862
 31
0.0
  0
LINE
  5
12970
  8
0
 10
532.6880814574057013
 20
87.8077785919249862
 30
0.0
 11
532.6880814574057013
 21
87.8162760219249776
 31
0.0
  0
LINE
  5
12971
  8
0
 10
532.6880814574057013
 20
87.8162760219249776
 30
0.0
 11
532.6341166121055721
 21
87.8477396397249919
 31
0.0
  0
LINE
  5
12972
  8
0
 10
532.6341166121055721
 20
87.8477396397249919
 30
0.0
 11
532.6880814574057013
 21
87.8792072062250043
 31
0.0
  0
LINE
  5
12973
  8
0
 10
532.6880814574057013
 20
87.8792072062250043
 30
0.0
 11
532.6880814574057013
 21
87.8876959395249884
 31
0.0
  0
LINE
  5
12974
  8
0
 10
532.6880814574057013
 20
87.8876959395249884
 30
0.0
 11
532.634116927805735
 21
87.9191709291249737
 31
0.0
  0
LINE
  5
12975
  8
0
 10
532.634116927805735
 20
87.9191709291249737
 30
0.0
 11
532.6880814574057013
 21
87.950635770824988
 31
0.0
  0
LINE
  5
12976
  8
0
 10
532.6880814574057013
 20
87.950635770824988
 30
0.0
 11
532.6880814574057013
 21
87.9591245832249911
 31
0.0
  0
LINE
  5
12977
  8
0
 10
532.6880814574057013
 20
87.9591245832249911
 30
0.0
 11
532.6341158503928455
 21
87.9906018948905597
 31
0.0
  0
LINE
  5
12978
  8
0
 10
532.6341158503928455
 20
87.9906018948905597
 30
0.0
 11
532.6476754707671262
 21
87.9984419841706682
 31
0.0
  0
ARC
  5
12979
  8
0
 10
532.6561868710562067
 20
88.0172082245258451
 30
0.0
 40
0.0206062056660036
 50
180.5023504992680898
 51
245.6034029227901954
  0
LINE
  5
1297A
  8
0
 10
532.6355814574055785
 20
88.017027558424985
 30
0.0
 11
532.6355814574055785
 21
88.0570275584249913
 31
0.0
  0
ARC
  5
1297B
  8
0
 10
532.655581457405674
 20
88.0570275584249913
 30
0.0
 40
0.0199999999999974
 50
89.9999999999934914
 51
180.0000000000100897
  0
ARC
  5
1297C
  8
0
 10
532.2080271234588054
 20
88.5532460923726887
 30
0.0
 40
0.3138797224097379
 50
91.433664924798947
 51
103.8913519562999994
  0
ARC
  5
1297D
  8
0
 10
532.1461045652081339
 20
88.8036255957147063
 30
0.0
 40
0.0559566739745348
 50
103.8913519562999994
 51
126.0346940303291063
  0
ARC
  5
1297E
  8
0
 10
532.1219353440801569
 20
88.835297607874594
 30
0.0
 40
0.0161524215279238
 50
122.7949077472386961
 51
173.8517364253831943
  0
LINE
  5
1297F
  8
0
 10
532.1058758300057434
 20
88.8370275584249924
 30
0.0
 11
532.1058758300057434
 21
88.1070275584249742
 31
0.0
  0
ARC
  5
12980
  8
0
 10
532.2080271234588054
 20
88.3908090244772779
 30
0.0
 40
0.3138797224097379
 50
256.1086480436999864
 51
268.5663350751814846
  0
ARC
  5
12981
  8
0
 10
532.1461045652081339
 20
88.1404295211352604
 30
0.0
 40
0.0559566739745348
 50
233.9653059696707942
 51
256.1086480436999864
  0
ARC
  5
12982
  8
0
 10
532.1219353440801569
 20
88.1087575089753869
 30
0.0
 40
0.0161524215279238
 50
186.1482635746168057
 51
237.2050922527612897
  0
LINE
  5
12983
  8
0
 10
532.6102339352057697
 20
88.9748228340249909
 30
0.0
 11
532.6102339352057697
 21
88.8763976371249953
 31
0.0
  0
LINE
  5
12984
  8
0
 10
532.6890882659057525
 20
88.8763976371249953
 30
0.0
 11
532.6890882659057525
 21
88.8670275584249936
 31
0.0
  0
ARC
  5
12985
  8
0
 10
532.7405814573056659
 20
88.8370279977217763
 30
0.0
 40
0.0299995607032155
 50
359.9991609926552201
 51
90.0
  0
LINE
  5
12986
  8
0
 10
532.7705810180057142
 20
88.8370275584249924
 30
0.0
 11
532.7705703282940704
 21
88.10702755846728
 31
0.0
  0
ARC
  5
12987
  8
0
 10
532.7405703735324778
 20
88.1070275130542484
 30
0.0
 40
0.0299999547615681
 50
270.0053808192462839
 51
0.0000867325882883
  0
ARC
  5
12988
  8
0
 10
532.3431425999525572
 20
88.5532460923726887
 30
0.0
 40
0.3138797224097379
 50
76.1086480437000148
 51
88.566335075194516
  0
ARC
  5
12989
  8
0
 10
532.4050651582033424
 20
88.8036255957147063
 30
0.0
 40
0.0559566739745348
 50
53.965305969670851
 51
76.1086480437000148
  0
ARC
  5
1298A
  8
0
 10
532.429234379331092
 20
88.835297607874594
 30
0.0
 40
0.0161524215279238
 50
6.1482635746167738
 51
57.2050922527612968
  0
LINE
  5
1298B
  8
0
 10
532.4452938934057329
 20
88.8370275584249924
 30
0.0
 11
532.4452938934057329
 21
88.1070275584249742
 31
0.0
  0
ARC
  5
1298C
  8
0
 10
532.3431425999525572
 20
88.3908090244772779
 30
0.0
 40
0.3138797224097379
 50
271.4336649248185154
 51
283.8913519563000136
  0
ARC
  5
1298D
  8
0
 10
532.4050651582033424
 20
88.1404295211352604
 30
0.0
 40
0.0559566739745348
 50
283.8913519563000136
 51
306.0346940303292058
  0
ARC
  5
1298E
  8
0
 10
532.429234379331092
 20
88.1087575089753869
 30
0.0
 40
0.0161524215279238
 50
302.7949077472384829
 51
353.8517364253827964
  0
LINE
  5
1298F
  8
0
 10
532.6341158503928455
 20
87.9906018948905597
 30
0.0
 11
531.9170561225178062
 21
87.9548829412523929
 31
0.0
  0
LINE
  5
12990
  8
0
 10
532.634116927805735
 20
87.9191709291249737
 30
0.0
 11
531.9170568051057444
 21
87.8834563836249743
 31
0.0
  0
LINE
  5
12991
  8
0
 10
532.6341166121055721
 20
87.8477396397249919
 30
0.0
 11
531.9170554356055618
 21
87.8120298040249878
 31
0.0
  0
LINE
  5
12992
  8
0
 10
532.634114824369135
 20
87.7763091786871144
 30
0.0
 11
531.9170602148057014
 21
87.7406096346249882
 31
0.0
  0
ARC
  5
12993
  8
0
 10
533.8917231954058025
 20
86.6322935192968373
 30
0.0
 40
3.2377997744704059
 50
125.2281731661453961
 51
130.1703492944506877
  0
ARC
  5
12994
  8
0
 10
532.273714169475852
 20
88.9781470619721659
 30
0.0
 40
0.3895140637960188
 50
53.0842596788035905
 51
129.8636699742509961
  0
ARC
  5
12995
  8
0
 10
435.1217431781037135
 20
-43.1367645240453683
 30
0.0
 40
164.379906020517808
 50
53.5652885231410565
 51
53.6693485054764992
  0
ARC
  5
12996
  8
0
 10
533.6876142264704868
 20
88.8037369329904749
 30
0.0
 40
0.3310638893112164
 50
6.4940820890725179
 51
84.5186815898913011
  0
ARC
  5
12997
  8
0
 10
533.125910616086685
 20
88.5768604531759678
 30
0.0
 40
0.6008321912761185
 50
79.3380607979271986
 51
95.5563726351846583
  0
LINE
  5
12998
  8
0
 10
534.0165538984057321
 20
88.8411862544249971
 30
0.0
 11
534.0165538984057321
 21
65.7527755899249939
 31
0.0
  0
LINE
  5
12999
  8
0
 10
534.6192359626057851
 20
101.5862307691249953
 30
0.0
 11
534.6192359626057851
 21
97.2739517699348539
 31
0.0
  0
LINE
  5
1299A
  8
0
 10
534.2573510977057367
 20
97.1758981821249819
 30
0.0
 11
534.6192359626057851
 21
97.2739517699348539
 31
0.0
  0
LINE
  5
1299B
  8
0
 10
534.6192359626057851
 20
97.2739517699348539
 30
0.0
 11
535.3430056924056544
 21
97.2739517699348539
 31
0.0
  0
LINE
  5
1299C
  8
0
 10
534.2573510977057367
 20
97.1758981821249819
 30
0.0
 11
534.6192359626057851
 21
97.0778445944179538
 31
0.0
  0
LINE
  5
1299D
  8
0
 10
534.6192359626057851
 20
97.0778445944179538
 30
0.0
 11
535.3430056924056544
 21
97.0778445944179538
 31
0.0
  0
LINE
  5
1299E
  8
0
 10
534.6192359626057851
 20
97.0778445944179538
 30
0.0
 11
534.6192359626057851
 21
95.7398805177249841
 31
0.0
  0
ARC
  5
1299F
  8
0
 10
122.9500255167130973
 20
97.9331262795383566
 30
0.0
 40
411.6750528707274839
 50
359.1051518864201171
 51
359.6947487607512812
  0
ARC
  5
129A0
  8
0
 10
533.1246779392567987
 20
91.4852121275138472
 30
0.0
 40
1.450312365066265
 50
352.8087570208267039
 51
0.735447472126838
  0
ARC
  5
129A1
  8
0
 10
534.1383792767198884
 20
91.3427729715049281
 30
0.0
 40
0.4269978196729044
 50
328.4788420849856152
 51
354.7443038457823832
  0
ARC
  5
129A2
  8
0
 10
534.5227946183732683
 20
91.1070076402235571
 30
0.0
 40
0.0239572183659881
 50
148.47884208498661
 51
180.7805294331282937
  0
LINE
  5
129A3
  8
0
 10
534.0165558256471741
 20
91.1066812857195742
 30
0.0
 11
535.9456858293641517
 21
91.1066812857195742
 31
0.0
  0
LINE
  5
129A4
  8
0
 10
535.9456858293641517
 20
91.1066812857195742
 30
0.0
 11
535.9456897718184791
 21
90.7275754594397057
 31
0.0
  0
ARC
  5
129A5
  8
0
 10
532.8225817932278687
 20
89.7604608197948153
 30
0.0
 40
3.2694210759938178
 50
2.9300598870330319
 51
17.2058798773977486
  0
ARC
  5
129A6
  8
0
 10
537.6767277262788411
 20
89.7661638004260283
 30
0.0
 40
1.597176977326584
 50
174.1994621866801083
 51
185.8005378133206023
  0
ARC
  5
129A7
  8
0
 10
533.3196357889421506
 20
89.7664976156764141
 30
0.0
 40
2.7728148954891818
 50
341.9734327602238864
 51
356.6557238876255838
  0
ARC
  5
129A8
  8
0
 10
536.1622231845298074
 20
88.8413424016709854
 30
0.0
 40
0.2165354278240965
 50
161.9520099252366094
 51
180.0000002767764897
  0
LINE
  5
129A9
  8
0
 10
535.9456877567057518
 20
88.8413424006249954
 30
0.0
 11
535.9456877566043431
 21
88.1283661416965032
 31
0.0
  0
ARC
  5
129AA
  8
0
 10
536.1663486908172445
 20
88.1324916487827466
 30
0.0
 40
0.2206994963665913
 50
181.0710849649686907
 51
268.9290059337511138
  0
LINE
  5
129AB
  8
0
 10
536.1622235338057862
 20
87.9118307080249934
 30
0.0
 11
536.9397822449057003
 21
87.9118307080249934
 31
0.0
  0
LINE
  5
129AC
  8
0
 10
536.0869480302911825
 20
89.9197047237249762
 30
0.0
 11
536.2886689358057311
 21
89.9197047237249762
 31
0.0
  0
ARC
  5
129AD
  8
0
 10
536.2886689358057311
 20
89.9393897631249928
 30
0.0
 40
0.0196850394000023
 50
269.9999999999935199
 51
0.0
  0
LINE
  5
129AE
  8
0
 10
536.3083539751056605
 20
89.4934657939249831
 30
0.0
 11
536.3083539752055913
 21
90.0309830236249979
 31
0.0
  0
ARC
  5
129AF
  8
0
 10
536.3280390149719778
 20
90.0309830236213315
 30
0.0
 40
0.0196850397662836
 50
141.3180008011827056
 51
179.9999999893483107
  0
LINE
  5
129B0
  8
0
 10
536.3126723453056002
 20
90.0432861229856343
 30
0.0
 11
536.4485608069600175
 21
90.2130119001961077
 31
0.0
  0
ARC
  5
129B1
  8
0
 10
536.3870941098894036
 20
90.2622243102645854
 30
0.0
 40
0.0787401813150262
 50
321.3180020080923214
 51
355.4101587377389819
  0
LINE
  5
129B2
  8
0
 10
536.0877286780755639
 20
89.6047440937249888
 30
0.0
 11
536.2886689358057311
 21
89.6047440937249888
 31
0.0
  0
ARC
  5
129B3
  8
0
 10
536.2886689358057311
 20
89.5850590543249865
 30
0.0
 40
0.0196850394000023
 50
0.0
 51
90.0000000000065086
  0
ARC
  5
129B4
  8
0
 10
536.3280390149719778
 20
89.4934657938286335
 30
0.0
 40
0.0196850397662836
 50
180.000000010651604
 51
218.6819991988172944
  0
LINE
  5
129B5
  8
0
 10
536.3126723453056002
 20
89.481162694464345
 30
0.0
 11
536.4485608069600175
 21
89.3114369172538574
 31
0.0
  0
ARC
  5
129B6
  8
0
 10
536.387094107180701
 20
89.2622245056832355
 30
0.0
 40
0.0787401843683168
 50
4.589861766036524
 51
38.6819976133136478
  0
ARC
  5
129B7
  8
0
 10
536.4852079779276437
 20
90.2543486208550831
 30
0.0
 40
0.0196892735653368
 50
89.0939292472495339
 51
175.4126437108573953
  0
LINE
  5
129B8
  8
0
 10
536.4855193295055642
 20
90.2740354325249825
 30
0.0
 11
536.7704799760057313
 21
90.2740354325249825
 31
0.0
  0
ARC
  5
129B9
  8
0
 10
536.7704799737178973
 20
90.2543503852861591
 30
0.0
 40
0.0196850472388272
 50
24.94887487710497
 51
89.9999933411101125
  0
ARC
  5
129BA
  8
0
 10
535.7111428522339338
 20
89.7622244083844834
 30
0.0
 40
1.1877531562999251
 50
335.0822557011426852
 51
24.9182268807523108
  0
ARC
  5
129BB
  8
0
 10
536.731571064551531
 20
90.2552204169015653
 30
0.0
 40
0.0188152286779568
 50
23.2399297635225786
 51
89.7272714687729831
  0
ARC
  5
129BC
  8
0
 10
535.9657726510050679
 20
90.0124346521295138
 30
0.0
 40
0.8220889440131891
 50
342.2803905802875875
 51
17.7195859252690298
  0
ARC
  5
129BD
  8
0
 10
535.9673480309073739
 20
89.5120142616977006
 30
0.0
 40
0.8205884150339448
 50
342.2469260199886776
 51
17.7530817436312311
  0
ARC
  5
129BE
  8
0
 10
536.7315890288241462
 20
89.2692011821097395
 30
0.0
 40
0.0187879364206074
 50
270.2208214527698829
 51
336.8145777754515962
  0
ARC
  5
129BF
  8
0
 10
536.7704900518226623
 20
89.2700826332181805
 30
0.0
 40
0.0196692505739273
 50
269.9706495265101012
 51
335.1096087356913245
  0
LINE
  5
129C0
  8
0
 10
536.7704799760057313
 20
89.2504133852249879
 30
0.0
 11
536.4855193295055642
 21
89.2504133852249879
 31
0.0
  0
ARC
  5
129C1
  8
0
 10
536.4857096080633028
 20
89.2706523839809165
 30
0.0
 40
0.0202398931956682
 50
186.0320039572478947
 51
269.4613450385775195
  0
LINE
  5
129C2
  8
0
 10
536.4655817779256495
 20
90.2559233484546155
 30
0.0
 11
536.4655817779256495
 21
89.2685254719083758
 31
0.0
  0
LINE
  5
129C3
  8
0
 10
536.7488595338056712
 20
89.7622244088250056
 30
0.0
 11
536.4655817779256495
 21
89.7622244088250056
 31
0.0
  0
ARC
  5
129C4
  8
0
 10
536.9397822449057003
 20
87.9019881884249941
 30
0.0
 40
0.0098425195999994
 50
359.9999994178646716
 51
90.0
  0
LINE
  5
129C5
  8
0
 10
536.9496247645057565
 20
87.9019881883249781
 30
0.0
 11
536.9496247463054033
 21
86.1106496056255395
 31
0.0
  0
LINE
  5
129C6
  8
0
 10
536.9496247645057565
 20
87.8724606292249746
 30
0.0
 11
536.9738879970510652
 21
87.8724606292249746
 31
0.0
  0
ARC
  5
129C7
  8
0
 10
536.9738879970510652
 20
87.8527730037211114
 30
0.0
 40
0.0196876255038703
 50
15.0057546385031806
 51
90.0
  0
LINE
  5
129C8
  8
0
 10
536.9929042711056582
 20
87.8578704461249913
 30
0.0
 11
536.9982113540307864
 21
87.8380720972006941
 31
0.0
  0
ARC
  5
129C9
  8
0
 10
537.0742857231099379
 20
87.8584643524699658
 30
0.0
 40
0.0787601022457367
 50
195.0057546385019975
 51
246.2310661424436091
  0
LINE
  5
129CA
  8
0
 10
537.0425768539681712
 20
87.1278923107439169
 30
0.0
 11
537.04257688140558
 21
87.8837978993249749
 31
0.0
  0
ARC
  5
129CB
  8
0
 10
537.0714043988130015
 20
87.8830497880027366
 30
0.0
 40
0.0288372230010751
 50
85.0438167816559059
 51
178.5134341537772116
  0
LINE
  5
129CC
  8
0
 10
537.0738957584055697
 20
87.9117791903249923
 30
0.0
 11
537.7221740723449557
 21
87.9118307079871357
 31
0.0
  0
ARC
  5
129CD
  8
0
 10
537.7221725083901447
 20
87.931515746759672
 30
0.0
 40
0.0196850387346785
 50
269.9999988806662259
 51
317.5487189201189153
  0
ARC
  5
129CE
  8
0
 10
537.7945545989432503
 20
87.8655957747244827
 30
0.0
 40
0.0782160414296364
 50
44.4604054151099533
 51
137.7070081283511911
  0
ARC
  5
129CF
  8
0
 10
536.9397822616201665
 20
86.1106495705101338
 30
0.0
 40
0.0098424846851701
 50
269.9999026999500984
 51
0.0002044162987749
  0
LINE
  5
129D0
  8
0
 10
536.9496247645057565
 20
86.140177164624987
 30
0.0
 11
536.9738879970510652
 21
86.140177164624987
 31
0.0
  0
ARC
  5
129D1
  8
0
 10
536.9738879970510652
 20
86.1598647901288501
 30
0.0
 40
0.0196876255038703
 50
270.0
 51
344.9942453614967803
  0
LINE
  5
129D2
  8
0
 10
536.9929042711056582
 20
86.1547673477249845
 30
0.0
 11
536.9982113540307864
 21
86.1745656966492675
 31
0.0
  0
ARC
  5
129D3
  8
0
 10
537.0742773557401506
 20
86.154177855248804
 30
0.0
 40
0.078750877411272
 50
100.3261375032503935
 51
164.9957709828588861
  0
ARC
  5
129D4
  8
0
 10
537.7221725083901447
 20
86.0811220470903038
 30
0.0
 40
0.0196850387346785
 50
42.4512810798855114
 51
90.0000011193272655
  0
ARC
  5
129D5
  8
0
 10
537.7945184137814749
 20
86.1470303719984969
 30
0.0
 40
0.0781814387550974
 50
222.3045228249447121
 51
269.6176500693608205
  0
ARC
  5
129D6
  8
0
 10
537.7941995347697457
 20
86.1479730212312518
 30
0.0
 40
0.0791226071971252
 50
269.8531135738899138
 51
315.2385265941474017
  0
LINE
  5
129D7
  8
0
 10
537.7221725080056558
 20
87.9118307080249934
 30
0.0
 11
537.7221725080056558
 21
86.1008070859871282
 31
0.0
  0
LINE
  5
129D8
  8
0
 10
536.9929042711056582
 20
87.8578704461249913
 30
0.0
 11
536.9929042711056582
 21
86.1547673477249845
 31
0.0
  0
ARC
  5
129D9
  8
0
 10
537.863418463076755
 20
87.9308390318598185
 30
0.0
 40
0.0167152499741908
 50
218.7368473747532107
 51
266.6668413795779884
  0
ARC
  5
129DA
  8
0
 10
537.857697270034123
 20
87.8326047803991088
 30
0.0
 40
0.08168546247178
 50
15.2423943474096895
 51
86.6668413795780168
  0
ARC
  5
129DB
  8
0
 10
537.9565888429469851
 20
87.8611538227143569
 30
0.0
 40
0.0212891560196269
 50
199.4064125457171031
 51
267.4683829367755834
  0
LINE
  5
129DC
  8
0
 10
537.9556484865056518
 20
87.8398854449249882
 30
0.0
 11
537.9610675852055692
 21
87.8398854254249954
 31
0.0
  0
ARC
  5
129DD
  8
0
 10
537.9610948208802483
 20
87.8198854520445451
 30
0.0
 40
0.0199999919250199
 50
52.3801884738760322
 51
90.0780245160575674
  0
ARC
  5
129DE
  8
0
 10
538.8020532477303277
 20
88.9431745272607657
 30
0.0
 40
1.383208816900966
 50
233.1909296742007029
 51
252.8388632188517988
  0
ARC
  5
129DF
  8
0
 10
538.8419937231028598
 20
89.0811357389566467
 30
0.0
 40
1.5268147766923901
 50
252.9343514662228927
 51
270.639036824714708
  0
ARC
  5
129E0
  8
0
 10
538.847302161146672
 20
87.5406351734917649
 30
0.0
 40
0.0180906844613223
 50
2.5304824386727089
 51
49.6195672189691379
  0
ARC
  5
129E1
  8
0
 10
538.8832126950627526
 20
87.5430323862024551
 30
0.0
 40
0.0179089707772757
 50
185.1208380191754941
 51
239.9674265216081039
  0
LINE
  5
129E2
  8
0
 10
538.8742493936764504
 20
87.5275278558141565
 30
0.0
 11
538.9235917058557561
 21
87.5018573408204929
 31
0.0
  0
ARC
  5
129E3
  8
0
 10
538.9318544470260122
 20
87.517583902309056
 30
0.0
 40
0.0177650676300798
 50
242.2825473527732072
 51
269.8482045764570216
  0
LINE
  5
129E4
  8
0
 10
538.9318073815557
 20
87.4998188970249942
 30
0.0
 11
538.9605765046557053
 21
87.4998188970249942
 31
0.0
  0
ARC
  5
129E5
  8
0
 10
538.9606014361612552
 20
87.4768570932405964
 30
0.0
 40
0.0229618173194841
 50
9.6240624066694025
 51
90.0622106824207549
  0
ARC
  5
129E6
  8
0
 10
538.9936691389918906
 20
87.4817875552098059
 30
0.0
 40
0.0104860291675527
 50
185.9755633336903884
 51
266.7015928286044755
  0
LINE
  5
129E7
  8
0
 10
538.9930658119557165
 20
87.471318897024986
 30
0.0
 11
539.0078689615555732
 21
87.471318897024986
 31
0.0
  0
ARC
  5
129E8
  8
0
 10
539.0108239548434312
 20
87.415852622209357
 30
0.0
 40
0.0555449334075866
 50
4.4882817866584537
 51
93.0495780539971378
  0
LINE
  5
129E9
  8
0
 10
539.0661985519056998
 20
87.4201993022573447
 30
0.0
 11
539.0661985519056998
 21
86.5924384917926488
 31
0.0
  0
LINE
  5
129EA
  8
0
 10
539.0661985519056998
 20
87.3563188970243516
 30
0.0
 11
539.1636237488561392
 21
87.3563188969673661
 31
0.0
  0
ARC
  5
129EB
  8
0
 10
539.2133361503823608
 20
87.3509637938670949
 30
0.0
 40
0.0499999999473075
 50
48.5570971338862876
 51
173.8517110823439111
  0
LINE
  5
129EC
  8
0
 10
539.2630485519057402
 20
86.5750382459249863
 30
0.0
 11
539.2630485519057402
 21
87.437599548124993
 31
0.0
  0
ARC
  5
129ED
  8
0
 10
539.2830485519056083
 20
87.437599548124993
 30
0.0
 40
0.0199999999999996
 50
90.0
 51
180.0
  0
LINE
  5
129EE
  8
0
 10
539.2830485519056083
 20
87.4575995481249748
 30
0.0
 11
539.2991902842054515
 21
87.4575995481249748
 31
0.0
  0
ARC
  5
129EF
  8
0
 10
539.2962703527184658
 20
87.5690620627085963
 30
0.0
 40
0.1115007540655761
 50
271.5006075967168044
 51
323.5729479075092172
  0
ARC
  5
129F0
  8
0
 10
539.2659520461439797
 20
87.5950566889890609
 30
0.0
 40
0.1513588799949908
 50
322.4703169417836079
 51
0.6770022843083935
  0
ARC
  5
129F1
  8
0
 10
539.2538038794934891
 20
87.4740338331829861
 30
0.0
 40
0.1635503665197373
 50
288.057887152836372
 51
358.531363132660772
  0
LINE
  5
129F2
  8
0
 10
539.4173005204056608
 20
87.4698420794749865
 30
0.0
 11
539.4173005204056608
 21
90.2286272347249678
 31
0.0
  0
ARC
  5
129F3
  8
0
 10
539.4373005204057563
 20
90.2286272360249768
 30
0.0
 40
0.0200000000000085
 50
137.1216000012092877
 51
180.0000037242155884
  0
LINE
  5
129F4
  8
0
 10
539.4226445309564042
 20
90.2422361291931878
 30
0.0
 11
539.4901061833296581
 21
90.314888420102605
 31
0.0
  0
ARC
  5
129F5
  8
0
 10
539.5047621329547383
 20
90.3012795830842094
 30
0.0
 40
0.0199999326099458
 50
89.9998858350219422
 51
137.121640246813314
  0
LINE
  5
129F6
  8
0
 10
539.5047621728057265
 20
90.3212795156941155
 30
0.0
 11
539.8695034932056842
 21
90.3212795148137957
 31
0.0
  0
LINE
  5
129F7
  8
0
 10
539.8549161080618433
 20
87.3569358007612067
 30
0.0
 11
539.9568402556056981
 21
90.2260027633249848
 31
0.0
  0
ARC
  5
129F8
  8
0
 10
539.9368219261564263
 20
90.2263551033641704
 30
0.0
 40
0.0200214299550203
 50
358.99164847926221
 51
42.3393735366412116
  0
LINE
  5
129F9
  8
0
 10
539.9516211350550066
 20
90.2398399494300634
 30
0.0
 11
539.884159482681639
 21
90.314888420102605
 31
0.0
  0
ARC
  5
129FA
  8
0
 10
539.8695035330565588
 20
90.3012795830842236
 30
0.0
 40
0.0199999326099257
 50
42.8783597531956531
 51
90.0001141650366918
  0
ARC
  5
129FB
  8
0
 10
539.8307415960914568
 20
87.3602995034799648
 30
0.0
 40
0.0244074071745718
 50
282.3063555890782936
 51
352.0785803435933872
  0
LINE
  5
129FC
  8
0
 10
539.8359437607057316
 20
87.3364529312249687
 30
0.0
 11
539.3724589001056984
 21
87.3364539581250057
 31
0.0
  0
ARC
  5
129FD
  8
0
 10
539.2541630233829437
 20
87.6795305929762065
 30
0.0
 40
0.3644840008438455
 50
277.9383263755104281
 51
289.7346214851506829
  0
ARC
  5
129FE
  8
0
 10
539.883820173803656
 20
87.4840608841098941
 30
0.0
 40
0.0266242727534041
 50
201.6991317329581932
 51
263.6523499159952166
  0
LINE
  5
129FF
  8
0
 10
539.8808765702057144
 20
87.4575998354249862
 30
0.0
 11
540.0015779695056608
 21
87.4575995481249748
 31
0.0
  0
ARC
  5
12A00
  8
0
 10
540.001227944667221
 20
87.4368979159992392
 30
0.0
 40
0.0207045910381522
 50
37.9419949555515501
 51
89.0313307157891956
  0
LINE
  5
12A01
  8
0
 10
540.0175562815055628
 20
87.4496284111249906
 30
0.0
 11
540.0553508635880462
 21
87.3994246947858784
 31
0.0
  0
ARC
  5
12A02
  8
0
 10
540.0385265079501096
 20
87.3871129680682373
 30
0.0
 40
0.0208479629834828
 50
0.7774094032480159
 51
36.1959036018591007
  0
LINE
  5
12A03
  8
0
 10
540.0593725519056534
 20
86.613143363724987
 30
0.0
 11
540.0593725519056534
 21
87.3994944303249781
 31
0.0
  0
LINE
  5
12A04
  8
0
 10
540.0593725519056534
 20
87.3994944303249781
 30
0.0
 11
540.0885038968056051
 21
87.3994944303249781
 31
0.0
  0
ARC
  5
12A05
  8
0
 10
540.086042286071347
 20
87.3721035386156046
 30
0.0
 40
0.0275012813527294
 50
356.9221470272493093
 51
84.8646421914178859
  0
LINE
  5
12A06
  8
0
 10
540.1135038968056961
 20
87.3706269168249889
 30
0.0
 11
540.1135038968056961
 21
86.6420108771249744
 31
0.0
  0
LINE
  5
12A07
  8
0
 10
540.1135038968056961
 20
87.3641668447250055
 30
0.0
 11
540.1397109871055591
 21
87.3641668447250055
 31
0.0
  0
ARC
  5
12A08
  8
0
 10
539.0121322335738796
 20
87.0063188969749888
 30
0.0
 40
1.1829999996302769
 50
342.3926644079484163
 51
17.6073355920515802
  0
ARC
  5
12A09
  8
0
 10
539.8537995363291202
 20
87.2758301363012663
 30
0.0
 40
0.299919006330246
 50
342.4198828348178836
 51
13.2776045216912593
  0
ARC
  5
12A0A
  8
0
 10
539.0121322332056479
 20
87.0063188970249684
 30
0.0
 40
1.141686311900072
 50
350.9834918870851084
 51
9.0165081129149822
  0
LINE
  5
12A0B
  8
0
 10
539.2830485519056083
 20
86.5550379585249914
 30
0.0
 11
540.0015779695056608
 21
86.5550382458249885
 31
0.0
  0
ARC
  5
12A0C
  8
0
 10
540.001227944667221
 20
86.5757398779507241
 30
0.0
 40
0.0207045910381522
 50
270.9686692842108187
 51
322.058005044447782
  0
LINE
  5
12A0D
  8
0
 10
540.0175562815055628
 20
86.5630093828249869
 30
0.0
 11
540.0553508635880462
 21
86.613213099164085
 31
0.0
  0
ARC
  5
12A0E
  8
0
 10
540.0385265079501096
 20
86.6255248258817261
 30
0.0
 40
0.0208479629834828
 50
323.8040963981409277
 51
359.2225905967516155
  0
LINE
  5
12A0F
  8
0
 10
540.0593725519056534
 20
86.6131433636249852
 30
0.0
 11
540.0885038968056051
 21
86.6131433636249852
 31
0.0
  0
ARC
  5
12A10
  8
0
 10
540.086042286071347
 20
86.6405342553343587
 30
0.0
 40
0.0275012813527294
 50
275.1353578085821141
 51
3.0778529727502608
  0
LINE
  5
12A11
  8
0
 10
540.1135038968056961
 20
86.6484709492249863
 30
0.0
 11
540.1397109871055591
 21
86.6484709492249863
 31
0.0
  0
ARC
  5
12A12
  8
0
 10
539.283049016248242
 20
86.5750384228629031
 30
0.0
 40
0.0200004643433037
 50
180.0005068780122883
 51
269.9986697875494883
  0
LINE
  5
12A13
  8
0
 10
540.1397109871055591
 20
87.1852428709249949
 30
0.0
 11
540.1135038968056961
 21
87.1852428709249949
 31
0.0
  0
ARC
  5
12A14
  8
0
 10
540.0996083716262319
 20
87.1865262002727661
 30
0.0
 40
0.0140312254205612
 50
7.9750015723830607
 51
73.455551232240083
  0
ARC
  5
12A15
  8
0
 10
540.0890970786464322
 20
87.1655908296111051
 30
0.0
 40
0.0373205483996244
 50
67.1258417042067492
 51
90.9107113526751505
  0
LINE
  5
12A16
  8
0
 10
540.0885038968056051
 20
87.2029066636249865
 30
0.0
 11
540.0593725519056534
 21
87.2029066636249865
 31
0.0
  0
ARC
  5
12A17
  8
0
 10
540.0414759720167694
 20
87.1958715838366629
 30
0.0
 40
0.0179237087426332
 50
3.1527839130172168
 51
43.5493304839801212
  0
LINE
  5
12A18
  8
0
 10
540.0544667435057136
 20
87.2082206401250062
 30
0.0
 11
540.0166721611055891
 21
87.2333224982249931
 31
0.0
  0
ARC
  5
12A19
  8
0
 10
540.0019592430711555
 20
87.2181446473750839
 30
0.0
 40
0.0211385220276154
 50
45.8911293041632504
 51
91.0334947154728269
  0
LINE
  5
12A1A
  8
0
 10
540.0015779695056608
 20
87.2392797306249861
 30
0.0
 11
539.2830485519056083
 21
87.2392797306249861
 31
0.0
  0
ARC
  5
12A1B
  8
0
 10
539.2817988165440966
 20
87.2205155413001165
 30
0.0
 40
0.0188057608060191
 50
86.1896053291183506
 51
175.5971840487401892
  0
ARC
  5
12A1C
  8
0
 10
537.593760370184782
 20
87.1285131097054659
 30
0.0
 40
0.551183865819893
 50
180.0645323097398887
 51
204.9605405988388043
  0
LINE
  5
12A1D
  8
0
 10
537.0940578337741727
 20
86.8959168306188587
 30
0.0
 11
537.4595236454057385
 21
86.1121728682249881
 31
0.0
  0
ARC
  5
12A1E
  8
0
 10
537.4786927017528342
 20
86.1225772202861748
 30
0.0
 40
0.0218106227112209
 50
208.4916974076247129
 51
266.5083043620467151
  0
LINE
  5
12A1F
  8
0
 10
537.4773643504056508
 20
86.1008070860249859
 30
0.0
 11
537.7221725080056558
 21
86.1008070858249965
 31
0.0
  0
ARC
  5
12A20
  8
0
 10
536.9044411701403305
 20
87.0310284017859033
 30
0.0
 40
0.8144012405670759
 50
281.0232884593374934
 51
303.1000215530593209
  0
LINE
  5
12A21
  8
0
 10
536.9397822449057003
 20
86.1008070860249859
 30
0.0
 11
536.1622231897057418
 21
86.1008070860249859
 31
0.0
  0
ARC
  5
12A22
  8
0
 10
538.8103721457134725
 20
89.8645228237544131
 30
0.0
 40
2.5771253485687069
 50
251.0461034570271011
 51
270.8923058469731018
  0
ARC
  5
12A23
  8
0
 10
537.9586983902783004
 20
87.399461844443465
 30
0.0
 40
0.0312849699910494
 50
62.1711863237208107
 51
98.2548403704712285
  0
ARC
  5
12A24
  8
0
 10
537.9539705709134978
 20
87.4514678791597646
 30
0.0
 40
0.0210465238044631
 50
212.7679398319702955
 51
270.6425982368123186
  0
ARC
  5
12A25
  8
0
 10
537.8622521827426226
 20
87.351897672893017
 30
0.0
 40
0.1151288458266717
 50
49.9885580759303707
 51
91.9278262599624725
  0
ARC
  5
12A26
  8
0
 10
539.855531723848344
 20
86.7371062539348259
 30
0.0
 40
0.2981776273867466
 50
346.5776647622449786
 51
17.6259529938161492
  0
LINE
  5
12A27
  8
0
 10
540.1397109871055591
 20
86.8273949231249844
 30
0.0
 11
540.1135038968056961
 21
86.8273949231249844
 31
0.0
  0
ARC
  5
12A28
  8
0
 10
540.0996083716262319
 20
86.8261115937772132
 30
0.0
 40
0.0140312254205612
 50
286.5444487677598886
 51
352.0249984276169926
  0
ARC
  5
12A29
  8
0
 10
540.0890970786464322
 20
86.8470469644388885
 30
0.0
 40
0.0373205483996244
 50
269.0892886473247927
 51
292.8741582957932792
  0
LINE
  5
12A2A
  8
0
 10
540.0885038968056051
 20
86.8097311304249928
 30
0.0
 11
540.0593725519056534
 21
86.8097311304249928
 31
0.0
  0
ARC
  5
12A2B
  8
0
 10
540.0414759720167694
 20
86.816766210213288
 30
0.0
 40
0.0179237087426332
 50
316.4506695160199001
 51
356.8472160869828258
  0
LINE
  5
12A2C
  8
0
 10
540.0544667435057136
 20
86.8044171539249874
 30
0.0
 11
540.0166721611055891
 21
86.7793152958249863
 31
0.0
  0
ARC
  5
12A2D
  8
0
 10
540.0019592430711555
 20
86.7944931466748955
 30
0.0
 40
0.0211385220276154
 50
268.9665052845272157
 51
314.1088706958366856
  0
LINE
  5
12A2E
  8
0
 10
540.0015779695056608
 20
86.7733580634249932
 30
0.0
 11
539.2830485519056083
 21
86.7733580634249932
 31
0.0
  0
ARC
  5
12A2F
  8
0
 10
539.2817988165440966
 20
86.7921222527498486
 30
0.0
 40
0.0188057608060191
 50
184.4028159512598108
 51
273.810394670881692
  0
LINE
  5
12A30
  8
0
 10
537.8425398364721559
 20
87.9273628057056129
 30
0.0
 11
537.8425398364721559
 21
86.0853343574445233
 31
0.0
  0
LINE
  5
12A31
  8
0
 10
537.9362731891196745
 20
87.854928304293324
 30
0.0
 11
537.9362731891196745
 21
87.0063188970249684
 31
0.0
  0
LINE
  5
12A32
  8
0
 10
538.8653248405573777
 20
87.5422023018023054
 30
0.0
 11
538.8653248405573777
 21
86.4704354922476739
 31
0.0
  0
LINE
  5
12A33
  8
0
 10
538.9318073815557
 20
87.4998188970249942
 30
0.0
 11
538.9318073815557
 21
86.5128188970249852
 31
0.0
  0
LINE
  5
12A34
  8
0
 10
538.9832400868557443
 20
87.4806959145894325
 30
0.0
 11
538.983240086555611
 21
86.531941877691537
 31
0.0
  0
LINE
  5
12A35
  8
0
 10
539.1636237488309007
 20
87.3563188974314357
 30
0.0
 11
539.1636237488309007
 21
87.0063188970249684
 31
0.0
  0
LINE
  5
12A36
  8
0
 10
534.0165523358057271
 20
90.7275754594397057
 30
0.0
 11
535.9456897718184791
 21
90.7275754594397057
 31
0.0
  0
LINE
  5
12A37
  8
0
 10
535.3430056924056544
 20
101.5862307691249953
 30
0.0
 11
535.7048905573057027
 21
100.9594277966249933
 31
0.0
  0
LINE
  5
12A38
  8
0
 10
535.7048905573057027
 20
100.9594277966249933
 30
0.0
 11
535.7048905573057027
 21
95.7398805177249841
 31
0.0
  0
LINE
  5
12A39
  8
0
 10
535.7048905573057027
 20
95.7398805177249841
 30
0.0
 11
535.7936208275057197
 21
91.5038277966249751
 31
0.0
  0
ARC
  5
12A3A
  8
0
 10
536.8971560969449683
 20
91.5269429439282476
 30
0.0
 40
1.103777333039287
 50
181.19996775428109
 51
191.6709243616701883
  0
ARC
  5
12A3B
  8
0
 10
536.117810251149649
 20
91.3714307350486337
 30
0.0
 40
0.3091318030485843
 50
192.663873163201913
 51
234.5733554074942901
  0
ARC
  5
12A3C
  8
0
 10
535.9294196879249057
 20
91.106104712316295
 30
0.0
 40
0.0162763569083978
 50
2.0300694908178949
 51
55.5847931220945881
  0
LINE
  5
12A3D
  8
0
 10
535.3430056924056544
 20
101.5862307691249953
 30
0.0
 11
535.3430056924056544
 21
97.2739517699348539
 31
0.0
  0
LINE
  5
12A3E
  8
0
 10
535.7048905573057027
 20
97.1758981821249819
 30
0.0
 11
535.3430056924056544
 21
97.2739517699348539
 31
0.0
  0
LINE
  5
12A3F
  8
0
 10
535.7048905573057027
 20
97.1758981821249819
 30
0.0
 11
535.3430056924056544
 21
97.0778445944179538
 31
0.0
  0
ARC
  5
12A40
  8
0
 10
947.0122161382982995
 20
97.9331262795383566
 30
0.0
 40
411.6750528707274839
 50
180.3052512392486904
 51
180.8948481135797977
  0
ARC
  5
12A41
  8
0
 10
536.8375637157546407
 20
91.4852121275138472
 30
0.0
 40
1.450312365066265
 50
179.2645525278728087
 51
187.191242979172813
  0
ARC
  5
12A42
  8
0
 10
535.8238623782914374
 20
91.3427729715049281
 30
0.0
 40
0.4269978196729044
 50
185.2556961542175884
 51
211.5211579150144132
  0
ARC
  5
12A43
  8
0
 10
535.4394470366379437
 20
91.1070076402235571
 30
0.0
 40
0.0239572183659881
 50
359.21947056687128
 51
31.5211579150133403
  0
LINE
  5
12A44
  8
0
 10
535.3430056924056544
 20
95.7398805177247851
 30
0.0
 11
535.3430056924056544
 21
97.0778445944179538
 31
0.0
  0
ARC
  5
12A45
  8
0
 10
536.1655126882282048
 20
85.8809821492739047
 30
0.0
 40
0.2198495425385905
 50
90.8572303375752881
 51
179.1426785863719999
  0
LINE
  5
12A46
  8
0
 10
535.9456877567057518
 20
85.8842716531249835
 30
0.0
 11
535.9456877567057518
 21
65.7527755899249939
 31
0.0
  0
ARC
  5
12A47
  8
0
 10
541.6554430822612858
 20
83.478687214963486
 30
0.0
 40
7.3634787974578408
 50
140.8427151338100032
 51
148.0304967995635081
  0
ARC
  5
12A48
  8
0
 10
535.8527405557285874
 20
87.0190029203594833
 30
0.0
 40
0.5705748014984932
 50
141.0858942629137971
 51
206.1000080703533115
  0
ARC
  5
12A49
  8
0
 10
540.6119054641724233
 20
89.7297915787957976
 30
0.0
 40
6.0466198155453377
 50
209.3293124019486129
 51
219.4925924502906014
  0
ARC
  5
12A4A
  8
0
 10
531.8929157716105465
 20
89.7465829970945776
 30
0.0
 40
2.2757293523198441
 50
338.1242418988297231
 51
22.9210544011082789
  0
LINE
  5
12A4B
  8
0
 10
535.9456848272055822
 20
84.2504133852249879
 30
0.0
 11
534.0165538984057321
 21
84.2504133852249879
 31
0.0
  0
LINE
  5
12A4C
  8
0
 10
536.1763297111369866
 20
65.7527755899249939
 30
0.0
 11
533.7859119439746109
 21
65.7527755899249939
 31
0.0
  0
LINE
  5
12A4D
  8
0
 10
534.9811208275557419
 20
64.1760039364249906
 30
0.0
 11
532.7649026090557527
 21
64.1760039364249906
 31
0.0
  0
LINE
  5
12A4E
  8
0
 10
532.730819657005668
 20
63.7842716529249927
 30
0.0
 11
534.9811208275557419
 21
63.7842716529249927
 31
0.0
  0
ARC
  5
12A4F
  8
0
 10
534.3869875203870379
 20
65.7068662185442633
 30
0.0
 40
0.0460403908850985
 50
94.3235367043723016
 51
180.9522012465021987
  0
ARC
  5
12A50
  8
0
 10
532.5195090756998297
 20
65.7239474304126219
 30
0.0
 40
1.821531837787155
 50
331.0867283761907061
 51
359.4386398378388776
  0
ARC
  5
12A51
  8
0
 10
534.1497768931699284
 20
64.8085351224812882
 30
0.0
 40
0.0498664980579831
 50
135.8584391499713036
 51
181.4365974782465116
  0
LINE
  5
12A52
  8
0
 10
534.0999260691556856
 20
64.807284933024988
 30
0.0
 11
534.0999229460984452
 21
64.6624690732330833
 31
0.0
  0
ARC
  5
12A53
  8
0
 10
534.0496615596797483
 20
64.6614945520646245
 30
0.0
 40
0.0502708330570117
 50
307.1450600220384786
 51
1.1107722775869779
  0
ARC
  5
12A54
  8
0
 10
534.4489462793108032
 20
64.4462270991259061
 30
0.0
 40
0.4084147379435584
 50
154.5980316001478911
 51
172.4505528702106858
  0
ARC
  5
12A55
  8
0
 10
533.9951058277988523
 20
64.5047884966844833
 30
0.0
 40
0.0492107883627279
 50
296.2143652858396194
 51
354.2818155724781946
  0
ARC
  5
12A56
  8
0
 10
534.3431849594844607
 20
64.1810619757061716
 30
0.0
 40
0.4297231484210917
 50
139.4132687209493042
 51
175.347679655338311
  0
ARC
  5
12A57
  8
0
 10
533.8666856626616664
 20
64.2245523119473631
 30
0.0
 40
0.0489596367042506
 50
277.4315922329129194
 51
349.840581308693686
  0
LINE
  5
12A58
  8
0
 10
533.8303980709846428
 20
64.131455597640155
 30
0.0
 11
533.8303985100558293
 21
63.78427153918107
 31
0.0
  0
LINE
  5
12A59
  8
0
 10
539.9568402556056981
 20
90.2260027633249848
 30
0.0
 11
539.4173005204056608
 21
90.2260027633249848
 31
0.0
  0
ARC
  5
12A5A
  8
0
 10
534.9487196680785246
 20
95.20057787116545
 30
0.0
 40
2.0513687117241468
 50
89.094981377373486
 51
100.2753202844613014
  0
ARC
  5
12A5B
  8
0
 10
534.6303882320122511
 20
96.9761783904004915
 30
0.0
 40
0.2474866744215463
 50
101.0862710650362999
 51
120.8028172001210976
  0
ARC
  5
12A5C
  8
0
 10
534.5123292003230517
 20
97.1757038530614921
 30
0.0
 40
0.0156699376986567
 50
123.6157844957161984
 51
242.2483692023172921
  0
ARC
  5
12A5D
  8
0
 10
534.8109736824120546
 20
98.1465811625487561
 30
0.0
 40
1.0383080876047679
 50
255.125613533076006
 51
265.7646566913077208
  0
ARC
  5
12A5E
  8
0
 10
534.9746135358761876
 20
99.7282129714226642
 30
0.0
 40
2.6281153437336942
 50
264.7533800177989747
 51
270.1418661963518844
  0
ARC
  5
12A5F
  8
0
 10
534.9681069815096635
 20
98.7325731877152037
 30
0.0
 40
1.5704843996300171
 50
261.7864271653397168
 51
270.4747875520776006
  0
ARC
  5
12A60
  8
0
 10
534.7986909256172794
 20
97.5490017463233414
 30
0.0
 40
0.3748528434001258
 50
251.0521365867699046
 51
261.5707904249982221
  0
ARC
  5
12A61
  8
0
 10
535.0135219869328012
 20
95.20057787116545
 30
0.0
 40
2.0513687117241468
 50
79.724679715538727
 51
90.905018622626514
  0
ARC
  5
12A62
  8
0
 10
535.3072670861263305
 20
96.8919971746743158
 30
0.0
 40
0.3349187384997395
 50
64.8060938588638606
 51
77.5551763165606047
  0
ARC
  5
12A63
  8
0
 10
535.4200996064435003
 20
97.2039252208983839
 30
0.0
 40
0.0559228681861894
 50
292.1141481169655094
 51
320.2300072099125146
  0
ARC
  5
12A64
  8
0
 10
535.0923762170294822
 20
98.5798683557040647
 30
0.0
 40
1.47500361859603
 50
275.2737604108444884
 51
281.6067296650725211
  0
ARC
  5
12A65
  8
0
 10
534.9876281191352518
 20
99.7282129714226642
 30
0.0
 40
2.6281153437336942
 50
269.8581338036415787
 51
275.2466199822010253
  0
ARC
  5
12A66
  8
0
 10
534.9941256752343861
 20
98.7327022424876759
 30
0.0
 40
1.5706133755958691
 50
269.5255790158292939
 51
278.2132273067948063
  0
ARC
  5
12A67
  8
0
 10
535.1583625773208723
 20
97.5742280785641753
 30
0.0
 40
0.4005697189933061
 50
278.6343671340781043
 51
287.7675742978040034
  0
LINE
  5
12A68
  8
0
 10
535.9456877567057518
 20
88.8413424016709854
 30
0.0
 11
534.0165353834842108
 21
88.8413424016709854
 31
0.0
  0
LINE
  5
12A69
  8
0
 10
532.7157026090555973
 20
63.7842716529249927
 30
0.0
 11
537.2465390460557728
 21
63.7842716529249927
 31
0.0
  0
LINE
  5
12A6A
  8
0
 10
532.7649026090557527
 20
64.1760039364179562
 30
0.0
 11
537.1973390460555038
 21
64.1760039364179562
 31
0.0
  0
LINE
  5
12A6B
  8
0
 10
533.1426580764931487
 20
64.4998853525421367
 30
0.0
 11
536.8195835786182215
 21
64.4998853525421367
 31
0.0
  0
LINE
  5
12A6C
  8
0
 10
533.2545255735998353
 20
64.6624690732330265
 30
0.0
 11
536.7077160815116486
 21
64.6624690732332681
 31
0.0
  0
LINE
  5
12A6D
  8
0
 10
533.2703933714708455
 20
64.8432638234221486
 30
0.0
 11
536.691848283640752
 21
64.8432638234220633
 31
0.0
  0
ARC
  5
12A6E
  8
0
 10
532.5279557158313537
 20
65.8020024601869267
 30
0.0
 40
1.2125978088950571
 50
307.7538439652448119
 51
355.4824367889758037
  0
ARC
  5
12A6F
  8
0
 10
533.3039707282024438
 20
64.8072849322571045
 30
0.0
 40
0.0492130012755267
 50
133.0225622459965962
 51
179.9944746022777906
  0
ARC
  5
12A70
  8
0
 10
533.7859119439743836
 20
65.7035626189829713
 30
0.0
 40
0.0492129709420244
 50
89.9999999997264268
 51
176.5868016537135077
  0
LINE
  5
12A71
  8
0
 10
533.2547577271557202
 20
64.807289678180922
 30
0.0
 11
533.2545255735998353
 21
64.6624690732330265
 31
0.0
  0
ARC
  5
12A72
  8
0
 10
533.3091714211865337
 20
64.4760106901335064
 30
0.0
 40
0.1682162104735414
 50
118.5869493229230045
 51
171.8405485045441878
  0
ARC
  5
12A73
  8
0
 10
533.2053827347095876
 20
64.6672524514554539
 30
0.0
 40
0.0493750880646745
 50
298.1557194199853029
 51
354.4405585542966719
  0
ARC
  5
12A74
  8
0
 10
533.0943970010300745
 20
64.5101954714509276
 30
0.0
 40
0.0493500755496987
 50
287.1230347423489775
 51
347.9410483841394921
  0
ARC
  5
12A75
  8
0
 10
533.2081510139199736
 20
64.1467030895582297
 30
0.0
 40
0.331526692806243
 50
107.4152382264469026
 51
167.7465426474269066
  0
ARC
  5
12A76
  8
0
 10
532.8356548922556613
 20
64.2252039363320932
 30
0.0
 40
0.0492
 50
270.0
 51
350.4782816913049146
  0
ARC
  5
12A77
  8
0
 10
532.7649026090557527
 20
64.1268039364250626
 30
0.0
 40
0.0492
 50
90.0
 51
179.9999999999909903
  0
LINE
  5
12A78
  8
0
 10
532.7157026090558247
 20
64.1268039364250626
 30
0.0
 11
532.7157026090555973
 21
63.784271652932091
 31
0.0
  0
ARC
  5
12A79
  8
0
 10
533.877427812925589
 20
64.1291233264593927
 30
0.0
 40
0.0470875367363655
 50
95.3734369255163728
 51
182.8391975276979053
  0
ARC
  5
12A7A
  8
0
 10
535.575254134724446
 20
65.7068662185442633
 30
0.0
 40
0.0460403908850985
 50
359.0477987534973749
 51
85.6764632956276841
  0
ARC
  5
12A7B
  8
0
 10
537.4427325794116541
 20
65.7239474304126219
 30
0.0
 40
1.821531837787155
 50
180.5613601621606108
 51
208.9132716238092939
  0
ARC
  5
12A7C
  8
0
 10
535.8124647619415555
 20
64.8085351224812882
 30
0.0
 40
0.0498664980579831
 50
358.5634025217531189
 51
44.1415608500286893
  0
LINE
  5
12A7D
  8
0
 10
535.8623155859555709
 20
64.807284933024988
 30
0.0
 11
535.862318709012925
 21
64.6624690732330833
 31
0.0
  0
ARC
  5
12A7E
  8
0
 10
535.9125800954315082
 20
64.6614945520646245
 30
0.0
 40
0.0502708330570117
 50
178.8892277224130112
 51
232.8549399779616067
  0
ARC
  5
12A7F
  8
0
 10
535.5132953758004533
 20
64.4462270991259061
 30
0.0
 40
0.4084147379435584
 50
7.5494471297893071
 51
25.4019683998521089
  0
ARC
  5
12A80
  8
0
 10
535.9671358273125179
 20
64.5047884966844833
 30
0.0
 40
0.0492107883627279
 50
185.7181844275212939
 51
243.7856347141602953
  0
ARC
  5
12A81
  8
0
 10
535.6190566956269095
 20
64.1810619757061716
 30
0.0
 40
0.4297231484210917
 50
4.6523203446612174
 51
40.5867312790506531
  0
ARC
  5
12A82
  8
0
 10
536.0955559924497038
 20
64.2245523119473631
 30
0.0
 40
0.0489596367042506
 50
190.1594186913058877
 51
262.5684077670871943
  0
LINE
  5
12A83
  8
0
 10
536.1318435841268411
 20
64.131455597640155
 30
0.0
 11
536.1318431450555408
 21
63.78427153918107
 31
0.0
  0
ARC
  5
12A84
  8
0
 10
537.4342859392801302
 20
65.8020024601869267
 30
0.0
 40
1.2125978088950571
 50
184.5175632110237984
 51
232.2461560347551881
  0
ARC
  5
12A85
  8
0
 10
536.6582709269090401
 20
64.8072849322571045
 30
0.0
 40
0.0492130012755267
 50
0.0055253977221588
 51
46.9774377540034109
  0
ARC
  5
12A86
  8
0
 10
536.1763297111369866
 20
65.7035626189829713
 30
0.0
 40
0.0492129709420244
 50
3.4131983462865021
 51
90.0000000002735732
  0
LINE
  5
12A87
  8
0
 10
536.70748392795565
 20
64.807289678180922
 30
0.0
 11
536.7077160815116486
 21
64.6624690732330265
 31
0.0
  0
ARC
  5
12A88
  8
0
 10
536.6530702339249501
 20
64.4760106901335064
 30
0.0
 40
0.1682162104735414
 50
8.1594514954557678
 51
61.4130506770770097
  0
ARC
  5
12A89
  8
0
 10
536.7568589204017826
 20
64.6672524514554539
 30
0.0
 40
0.0493750880646745
 50
185.5594414457032997
 51
241.8442805800146118
  0
ARC
  5
12A8A
  8
0
 10
536.8678446540810683
 20
64.5101954714509276
 30
0.0
 40
0.0493500755496987
 50
192.0589516158605079
 51
252.8769652576509941
  0
ARC
  5
12A8B
  8
0
 10
536.7540906411913966
 20
64.1467030895582297
 30
0.0
 40
0.331526692806243
 50
12.2534573525730703
 51
72.584761773553069
  0
ARC
  5
12A8C
  8
0
 10
537.1265867628557089
 20
64.2252039363320932
 30
0.0
 40
0.0492
 50
189.5217183086950001
 51
270.0
  0
ARC
  5
12A8D
  8
0
 10
537.1973390460555038
 20
64.1268039364250626
 30
0.0
 40
0.0492
 50
0.0000000000089564
 51
90.0
  0
LINE
  5
12A8E
  8
0
 10
537.2465390460555454
 20
64.1268039364250626
 30
0.0
 11
537.2465390460557728
 21
63.784271652932091
 31
0.0
  0
ARC
  5
12A8F
  8
0
 10
536.0848138421856675
 20
64.1291233264593927
 30
0.0
 40
0.0470875367363655
 50
357.1608024723016115
 51
84.626563074483613
  0
ARC
  5
12A90
  8
0
 10
539.2530485519556578
 20
87.3959407341249914
 30
0.0
 40
0.0100000000000052
 50
228.5570971847124042
 51
359.9999999999694751
  0
LINE
  5
12A91
  8
0
 10
537.9733031976002167
 20
87.835727018092939
 30
0.0
 11
537.9733031976002167
 21
87.0063188970249684
 31
0.0
  0
ARC
  5
12A92
  8
0
 10
538.8754690033256338
 20
87.2775030897542621
 30
0.0
 40
0.0106497784895476
 50
197.7260111790197925
 51
263.42407587815228
  0
ARC
  5
12A93
  8
0
 10
538.8564735371260213
 20
87.2714313599255007
 30
0.0
 40
0.0092924791371795
 50
17.7260111790163712
 51
74.0795398109134453
  0
ARC
  5
12A94
  8
0
 10
538.8338249228902441
 20
87.2597513118561068
 30
0.0
 40
0.0325567332178375
 50
39.2892833189759827
 51
59.1785461704117211
  0
ARC
  5
12A95
  8
0
 10
538.9317176808114027
 20
87.285967638722127
 30
0.0
 40
0.0328988639846207
 50
255.7000215097970965
 51
270.1562206048391772
  0
ARC
  5
12A96
  8
0
 10
538.9610420147346304
 20
87.213219676592729
 30
0.0
 40
0.0398519393341488
 50
69.8252168505933923
 51
90.6692866110404054
  0
ARC
  5
12A97
  8
0
 10
538.969183401997725
 20
87.2354343128279055
 30
0.0
 40
0.0161924528294494
 50
29.7612901690007305
 51
69.7557724320755312
  0
ARC
  5
12A98
  8
0
 10
538.9911945023211501
 20
87.2480204479057306
 30
0.0
 40
0.009163006812255
 50
209.761290169006088
 51
233.0121062400440906
  0
ARC
  5
12A99
  8
0
 10
538.9928529230556933
 20
87.2534076328880133
 30
0.0
 40
0.0145902890911956
 50
240.5599572896809946
 51
270.8360402086042882
  0
LINE
  5
12A9A
  8
0
 10
538.9930658119557165
 20
87.2388188970249985
 30
0.0
 11
539.0075765046557308
 21
87.2388188970249985
 31
0.0
  0
ARC
  5
12A9B
  8
0
 10
539.0093237430999125
 20
87.1286227610810613
 30
0.0
 40
0.110209986930185
 50
76.3956752782256245
 51
90.9083893892673984
  0
ARC
  5
12A9C
  8
0
 10
539.0178809749787661
 20
87.1639824401035099
 30
0.0
 40
0.0738295922374463
 50
57.7231244891347899
 51
76.395675278225724
  0
ARC
  5
12A9D
  8
0
 10
539.0467424782132184
 20
87.2096776453324765
 30
0.0
 40
0.0197829628340749
 50
10.4301858054808996
 51
57.7231244891409503
  0
LINE
  5
12A9E
  8
0
 10
538.8742493936557594
 20
87.2669233764249839
 30
0.0
 11
538.9235917059266967
 21
87.2540881189064947
 31
0.0
  0
LINE
  5
12A9F
  8
0
 10
538.9318073815558137
 20
87.2530688970249884
 30
0.0
 11
538.9605765046557053
 21
87.2530688970249884
 31
0.0
  0
ARC
  5
12AA0
  8
0
 10
537.8571642400618202
 20
87.4817640499823312
 30
0.0
 40
0.014852469704624
 50
190.0537012888891866
 51
274.6920797775457004
  0
ARC
  5
12AA1
  8
0
 10
537.863418463076755
 20
86.081798762190175
 30
0.0
 40
0.0167152499741908
 50
93.3331586204220116
 51
141.2631526252467893
  0
ARC
  5
12AA2
  8
0
 10
537.857697270034123
 20
86.1800330136508563
 30
0.0
 40
0.08168546247178
 50
273.3331586204220116
 51
344.7576056525899162
  0
ARC
  5
12AA3
  8
0
 10
538.847302161146672
 20
86.4720026205582144
 30
0.0
 40
0.0180906844613349
 50
310.3804327810486825
 51
355.0304523831172787
  0
ARC
  5
12AA4
  8
0
 10
538.8832074782368409
 20
86.4696108585154661
 30
0.0
 40
0.017901641018845
 50
120.0268495372648943
 51
177.3597527658180013
  0
LINE
  5
12AA5
  8
0
 10
538.8742493936764504
 20
86.485109938235837
 30
0.0
 11
538.9235917058557561
 21
86.5107804532294864
 31
0.0
  0
ARC
  5
12AA6
  8
0
 10
538.9318544470260122
 20
86.4950538917409233
 30
0.0
 40
0.0177650676300798
 50
90.1517954235429642
 51
117.7174526472266933
  0
LINE
  5
12AA7
  8
0
 10
538.9318073815557
 20
86.5128188970250136
 30
0.0
 11
538.9605765046557053
 21
86.5128188970250136
 31
0.0
  0
ARC
  5
12AA8
  8
0
 10
538.9606014361612552
 20
86.5357807008093971
 30
0.0
 40
0.0229618173194841
 50
269.937789317579302
 51
350.3759375933306046
  0
ARC
  5
12AA9
  8
0
 10
538.9936691389918906
 20
86.5308502388401877
 30
0.0
 40
0.0104860291675527
 50
93.298407171395553
 51
174.0244366663094979
  0
LINE
  5
12AAA
  8
0
 10
538.9930658119557165
 20
86.5413188970249934
 30
0.0
 11
539.0078689615555732
 21
86.5413188970249934
 31
0.0
  0
ARC
  5
12AAB
  8
0
 10
539.0108239548434312
 20
86.5967851718406223
 30
0.0
 40
0.0555449334075866
 50
266.9504219460029049
 51
355.5117182133415099
  0
LINE
  5
12AAC
  8
0
 10
539.0661985519056998
 20
86.6563188970256277
 30
0.0
 11
539.1636237488561392
 21
86.6563188970826275
 31
0.0
  0
ARC
  5
12AAD
  8
0
 10
539.2133361503823608
 20
86.661674000182856
 30
0.0
 40
0.0499999999473075
 50
186.1482889176556057
 51
311.442902866113684
  0
LINE
  5
12AAE
  8
0
 10
537.9362731891196745
 20
86.1577094897566553
 30
0.0
 11
537.9362731891196745
 21
87.0063188970249684
 31
0.0
  0
LINE
  5
12AAF
  8
0
 10
539.1636237488309007
 20
86.6563188966185578
 30
0.0
 11
539.1636237488309007
 21
87.0063188970249684
 31
0.0
  0
ARC
  5
12AB0
  8
0
 10
539.2530485519556578
 20
86.6166970599249879
 30
0.0
 40
0.0100000000000052
 50
0.0000000000305333
 51
131.4429028152875105
  0
LINE
  5
12AB1
  8
0
 10
537.9733031976002167
 20
86.1769107759570261
 30
0.0
 11
537.9733031976002167
 21
87.0063188970249684
 31
0.0
  0
ARC
  5
12AB2
  8
0
 10
538.8754690033256338
 20
86.7351347042957173
 30
0.0
 40
0.0106497784895476
 50
96.5759241218476916
 51
162.2739888209796959
  0
ARC
  5
12AB3
  8
0
 10
538.9317176808114027
 20
86.7266701553278665
 30
0.0
 40
0.0328988639846207
 50
89.843779395160837
 51
104.2999784902029035
  0
ARC
  5
12AB4
  8
0
 10
538.9610420147346304
 20
86.7994181174572645
 30
0.0
 40
0.0398519393341488
 50
269.330713388959623
 51
290.1747831494066077
  0
ARC
  5
12AB5
  8
0
 10
538.969183401997725
 20
86.7772034812220738
 30
0.0
 40
0.0161924528294494
 50
290.2442275679244972
 51
330.2387098309991984
  0
ARC
  5
12AB6
  8
0
 10
538.9911945023211501
 20
86.7646173461442487
 30
0.0
 40
0.009163006812255
 50
126.9878937599558952
 51
150.238709830993912
  0
ARC
  5
12AB7
  8
0
 10
538.9928529230556933
 20
86.7592301611619945
 30
0.0
 40
0.0145902890911956
 50
89.1639597913956692
 51
119.440042710318906
  0
LINE
  5
12AB8
  8
0
 10
538.9930658119557165
 20
86.7738188970249951
 30
0.0
 11
539.0075765046557308
 21
86.7738188970249951
 31
0.0
  0
ARC
  5
12AB9
  8
0
 10
539.0093237430999125
 20
86.8840150329689038
 30
0.0
 40
0.110209986930185
 50
269.0916106107326868
 51
283.604324721774276
  0
ARC
  5
12ABA
  8
0
 10
539.0178809749787661
 20
86.8486553539464836
 30
0.0
 40
0.0738295922374463
 50
283.604324721774276
 51
302.2768755108651817
  0
ARC
  5
12ABB
  8
0
 10
539.0467424782132184
 20
86.8029601487175029
 30
0.0
 40
0.0197829628340749
 50
302.2768755108590994
 51
349.5698141945190969
  0
LINE
  5
12ABC
  8
0
 10
538.8742493936557594
 20
86.7457144176249955
 30
0.0
 11
538.9235917059266967
 21
86.7585496751434704
 31
0.0
  0
LINE
  5
12ABD
  8
0
 10
538.9318073815558137
 20
86.759568897024991
 30
0.0
 11
538.9605765046557053
 21
86.759568897024991
 31
0.0
  0
ARC
  5
12ABE
  8
0
 10
537.9565888429469851
 20
86.1514839713356082
 30
0.0
 40
0.0212891560196269
 50
92.5316170632244592
 51
160.5935874542828969
  0
LINE
  5
12ABF
  8
0
 10
537.9556484865056518
 20
86.1727523491249912
 30
0.0
 11
537.9610675852055692
 21
86.1727523686249839
 31
0.0
  0
ARC
  5
12AC0
  8
0
 10
537.9610948208802483
 20
86.1927523420054342
 30
0.0
 40
0.0199999919250199
 50
269.9219754839423899
 51
307.6198115261240105
  0
ARC
  5
12AC1
  8
0
 10
538.8020532477303277
 20
85.0694632667892279
 30
0.0
 40
1.383208816900966
 50
107.1611367811482012
 51
126.8090703257991976
  0
ARC
  5
12AC2
  8
0
 10
538.8419937231028598
 20
84.9315020550933184
 30
0.0
 40
1.5268147766923901
 50
89.3609631752853204
 51
107.0656485337770931
  0
ARC
  5
12AC3
  8
0
 10
538.8103721457134725
 20
84.148114970295552
 30
0.0
 40
2.5771253485687069
 50
89.1076941530269266
 51
108.9538965429727995
  0
ARC
  5
12AC4
  8
0
 10
537.9586983902783004
 20
86.6131759496065285
 30
0.0
 40
0.0312849699910494
 50
261.7451596295288141
 51
297.8288136762790828
  0
ARC
  5
12AC5
  8
0
 10
537.9539705709134978
 20
86.5611699148902147
 30
0.0
 40
0.0210465238044631
 50
89.3574017631876814
 51
147.2320601680293066
  0
ARC
  5
12AC6
  8
0
 10
537.8622521827426226
 20
86.6607401211569766
 30
0.0
 40
0.1151288458266717
 50
268.0721737400374991
 51
310.0114419240695725
  0
ARC
  5
12AC7
  8
0
 10
538.8564735371260213
 20
86.7412064341244786
 30
0.0
 40
0.0092924791371795
 50
285.9204601890866115
 51
342.2739888209836181
  0
ARC
  5
12AC8
  8
0
 10
538.8338249228902441
 20
86.7528864821938726
 30
0.0
 40
0.0325567332178375
 50
300.8214538295882789
 51
320.710716681023996
  0
ARC
  5
12AC9
  8
0
 10
537.8571642400618202
 20
86.5308737440676623
 30
0.0
 40
0.014852469704624
 50
85.3079202224543565
 51
169.9462987111106997
  0
LINE
  5
12ACB
  8
0
 10
534.7819423434557393
 20
97.1675491283249926
 30
0.0
 11
534.7819423434557393
 21
97.1169981500249833
 31
0.0
  0
LINE
  5
12ACC
  8
0
 10
534.8131941976556618
 20
97.1694425050582851
 30
0.0
 11
534.8131941976556618
 21
97.1274600392249852
 31
0.0
  0
LINE
  5
12ACD
  8
0
 10
534.6409556152557343
 20
97.2023114321249864
 30
0.0
 11
534.6409556152557343
 21
97.1517604535250001
 31
0.0
  0
LINE
  5
12ACE
  8
0
 10
534.5859485630556946
 20
97.2102308135710302
 30
0.0
 11
534.5859485630556946
 21
97.1783177126249882
 31
0.0
  0
LINE
  5
12ACF
  8
0
 10
534.5202499483557403
 20
97.1696499309249901
 30
0.0
 11
534.5781039525555798
 21
97.1704342858249959
 31
0.0
  0
LINE
  5
12AD0
  8
0
 10
534.5124053376556503
 20
97.1937322702911217
 30
0.0
 11
534.5124053376556503
 21
97.1773206512249885
 31
0.0
  0
ARC
  5
12AD1
  8
0
 10
534.579130017217949
 20
97.2666450596141772
 30
0.0
 40
0.1283560776701829
 50
234.7405599451514888
 51
254.3196608150537941
  0
LINE
  5
12AD2
  8
0
 10
534.584402093765334
 20
97.1386774457146061
 30
0.0
 11
534.6342029555556792
 21
97.1433498360249814
 31
0.0
  0
ARC
  5
12AD3
  8
0
 10
534.6327341598115481
 20
97.151445166464697
 30
0.0
 40
0.0082274987612377
 50
280.2837262671712892
 51
2.1961803155496238
  0
ARC
  5
12AD4
  8
0
 10
534.5780101242078217
 20
97.1783723582474437
 30
0.0
 40
0.0079386269270327
 50
270.6772048073715951
 51
359.6056007808330151
  0
ARC
  5
12AD5
  8
0
 10
534.5198997671863026
 20
97.1771383930618811
 30
0.0
 40
0.0074966453849048
 50
178.6068898836097958
 51
272.6773584364623275
  0
ARC
  5
12AD6
  8
0
 10
534.5605706252123355
 20
97.2081547532604731
 30
0.0
 40
0.0585760688285217
 50
218.3899760265794896
 51
246.9467988887504077
  0
ARC
  5
12AD7
  8
0
 10
534.6572023013694661
 20
97.435218290836545
 30
0.0
 40
0.3053462674617998
 50
246.9467988887504077
 51
256.2067806140823905
  0
ARC
  5
12AD8
  8
0
 10
534.8289613500030555
 20
96.4118607440210553
 30
0.0
 40
0.8196502608975478
 50
95.508921640552046
 51
104.1547560849337941
  0
LINE
  5
12AD9
  8
0
 10
534.5767064633556629
 20
97.2110337687249739
 30
0.0
 11
534.6274733729012496
 21
97.2066231313087599
 31
0.0
  0
ARC
  5
12ADA
  8
0
 10
534.6279850789068178
 20
97.2125886553449732
 30
0.0
 40
0.0059874301718567
 50
265.0973285869947063
 51
275.1508003644360087
  0
ARC
  5
12ADB
  8
0
 10
534.8836195371277427
 20
98.6874375927830556
 30
0.0
 40
1.57071883439675
 50
259.9208228918952273
 51
266.2884825501861883
  0
ARC
  5
12ADC
  8
0
 10
534.8979353575017512
 20
98.8420923714771078
 30
0.0
 40
1.6785557638916531
 50
261.1936277290067778
 51
266.0375395537977283
  0
LINE
  5
12ADD
  8
0
 10
534.7819423434557393
 20
97.1675491283249926
 30
0.0
 11
534.7935732526475476
 21
97.1714426982810409
 31
0.0
  0
ARC
  5
12ADE
  8
0
 10
534.7658754605652121
 20
97.6888625415095078
 30
0.0
 40
0.5023315138386656
 50
255.6005796325790982
 51
259.8061570684182016
  0
ARC
  5
12ADF
  8
0
 10
534.7008955617841366
 20
97.2665408625303343
 30
0.0
 40
0.0759463558480237
 50
226.5235000332017989
 51
251.6398886266229908
  0
ARC
  5
12AE0
  8
0
 10
535.4275429739625451
 20
97.1549309685247948
 30
0.0
 40
0.0459020834132296
 50
43.8000993755712429
 51
60.9435093910374235
  0
ARC
  5
12AE1
  8
0
 10
535.4488993351816362
 20
97.1747080974411404
 30
0.0
 40
0.0168069672278738
 50
6.4344719350211719
 51
45.529994594407988
  0
ARC
  5
12AE2
  8
0
 10
535.451807118398051
 20
97.1761097788792512
 30
0.0
 40
0.0138017242744212
 50
324.7844430939820768
 51
2.0006170792024802
  0
ARC
  5
12AE3
  8
0
 10
535.3308138526974744
 20
97.4002386669556444
 30
0.0
 40
0.271549650726896
 50
282.4024689197026987
 51
293.9743411675086122
  0
LINE
  5
12AE4
  8
0
 10
534.9888369518556601
 20
97.1034449436249929
 30
0.0
 11
534.9888369518556601
 21
97.1620977712710356
 31
0.0
  0
ARC
  5
12AE5
  8
0
 10
534.9799143069659522
 20
99.9224754451149551
 30
0.0
 40
2.8189817081513948
 50
266.0291293857487744
 51
270.1813529851684166
  0
ARC
  5
12AE6
  8
0
 10
534.7851590700664701
 20
97.1124966625294093
 30
0.0
 40
0.0022819234659343
 50
209.0560117832962135
 51
258.4403090632767999
  0
ARC
  5
12AE7
  8
0
 10
534.7934121561871734
 20
97.1165587058869306
 30
0.0
 40
0.0114782278791868
 50
177.8058939424950893
 51
206.7721376873707868
  0
ARC
  5
12AE8
  8
0
 10
534.5776521100779064
 20
97.218508711284926
 30
0.0
 40
0.0075345214843013
 50
198.4225815613006887
 51
262.7898762644780959
  0
ARC
  5
12AE9
  8
0
 10
534.9792782606140236
 20
98.9576468441804451
 30
0.0
 40
1.781004676341702
 50
263.8550135991297907
 51
270.0592762778608176
  0
ARC
  5
12AEA
  8
0
 10
534.848555048438584
 20
97.743462134623357
 30
0.0
 40
0.5598031912772053
 50
254.0252624826416934
 51
263.8550135991297907
  0
ARC
  5
12AEB
  8
0
 10
534.7161820176396532
 20
97.2810531276002735
 30
0.0
 40
0.0788201260254885
 50
235.3443590097892013
 51
254.0252624826416934
  0
ARC
  5
12AEC
  8
0
 10
534.9780329287467566
 20
99.4482457355209561
 30
0.0
 40
2.326632342120162
 50
265.9372684148926282
 51
270.2660614397166796
  0
LINE
  5
12AED
  8
0
 10
534.7847017983557407
 20
97.110261024525002
 30
0.0
 11
534.8098606665557782
 21
97.1185670308249911
 31
0.0
  0
ARC
  5
12AEE
  8
0
 10
534.8023808648067643
 20
97.1264421123047725
 30
0.0
 40
0.0108611390984721
 50
313.5253642730151
 51
5.377763596196611
  0
LINE
  5
12AEF
  8
0
 10
534.7538751929556611
 20
97.2426721936576541
 30
0.0
 11
534.7538751929556611
 21
97.2344742517647944
 31
0.0
  0
ARC
  5
12AF0
  8
0
 10
534.749504868242866
 20
97.2313486995757188
 30
0.0
 40
0.0037042401870822
 50
281.9887730430817214
 51
340.8204811926614752
  0
ARC
  5
12AF1
  8
0
 10
534.7377347381119534
 20
97.2354427755057316
 30
0.0
 40
0.0161660787763126
 50
340.8204811926648858
 51
356.7736197025515139
  0
ARC
  5
12AF2
  8
0
 10
534.7180834912143155
 20
97.2405449641585449
 30
0.0
 40
0.0056925021053394
 50
202.7952985725499104
 51
249.5533577685382909
  0
LINE
  5
12AF3
  8
0
 10
534.7160949013557456
 20
97.235211101524996
 30
0.0
 11
534.7502743130937688
 21
97.227725255083925
 31
0.0
  0
ARC
  5
12AF4
  8
0
 10
535.2541397525933462
 20
97.2793533545097659
 30
0.0
 40
0.0905411379967688
 50
286.9917790159187234
 51
306.6129135161875183
  0
ARC
  5
12AF5
  8
0
 10
535.2910360932150979
 20
97.2296957755701783
 30
0.0
 40
0.0286766482031808
 50
306.6129135161816066
 51
358.5457302031139761
  0
LINE
  5
12AF6
  8
0
 10
535.2083664621557091
 20
97.1767693195054676
 30
0.0
 11
535.2083664621557091
 21
97.1328175823249893
 31
0.0
  0
ARC
  5
12AF7
  8
0
 10
535.1459027754600584
 20
98.1160404432930022
 30
0.0
 40
1.0046054678542971
 50
275.7765786774148751
 51
283.9254318769233123
  0
ARC
  5
12AF8
  8
0
 10
535.2188555671560835
 20
97.1326513772380906
 30
0.0
 40
0.0104904217188858
 50
179.0921958418182953
 51
235.2598441630323975
  0
LINE
  5
12AF9
  8
0
 10
535.2128775417556881
 20
97.1240309271249913
 30
0.0
 11
535.2461467542874516
 21
97.1165852627832749
 31
0.0
  0
LINE
  5
12AFA
  8
0
 10
535.2470159161839547
 20
97.116536426885034
 30
0.0
 11
535.2461467542874516
 21
97.1165852627832749
 31
0.0
  0
LINE
  5
12AFB
  8
0
 10
535.3924188404556617
 20
97.1814743498379841
 30
0.0
 11
535.3924188404556617
 21
97.1479416163248146
 31
0.0
  0
LINE
  5
12AFC
  8
0
 10
535.3278846333738556
 20
97.2040993372274045
 30
0.0
 11
535.3278846333738556
 21
97.1535483591019187
 31
0.0
  0
LINE
  5
12AFD
  8
0
 10
535.3347682821556646
 20
97.1451732330250053
 30
0.0
 11
535.3876700129557094
 21
97.1409605753250105
 31
0.0
  0
ARC
  5
12AFE
  8
0
 10
534.6578519506435896
 20
97.2580446426586462
 30
0.0
 40
0.1076188408367882
 50
228.071508342434413
 51
260.9670962192806201
  0
ARC
  5
12AFF
  8
0
 10
534.6494139104157739
 20
97.2464958191861513
 30
0.0
 40
0.1042615316885305
 50
226.8466999480529012
 51
261.611046175702711
  0
ARC
  5
12B00
  8
0
 10
535.1474989507828468
 20
97.8386258102847535
 30
0.0
 40
0.7084279135790021
 50
274.928880616772517
 51
284.7515518832396992
  0
ARC
  5
12B01
  8
0
 10
535.1391944654009194
 20
97.9107691219909526
 30
0.0
 40
0.7901811077458946
 50
275.350509510938025
 51
284.3299230376828177
  0
ARC
  5
12B02
  8
0
 10
535.3360910184686645
 20
97.1532768639802242
 30
0.0
 40
0.0082108748574687
 50
178.1051519099939071
 51
260.7295024807838217
  0
ARC
  5
12B03
  8
0
 10
535.3854379017227529
 20
97.1475846675256349
 30
0.0
 40
0.0069900585146839
 50
288.6222020620065791
 51
2.9270940409738548
  0
ARC
  5
12B04
  8
0
 10
534.9869788802551511
 20
99.8512348783747257
 30
0.0
 40
2.7380497232864678
 50
270.0412219758421202
 51
274.8356783866303772
  0
LINE
  5
12B05
  8
0
 10
535.3841377030556714
 20
97.1813620784249963
 30
0.0
 11
535.4419917063557932
 21
97.1821464333249878
 31
0.0
  0
LINE
  5
12B06
  8
0
 10
535.3282502986736517
 20
97.2084663808035856
 30
0.0
 11
535.3778395615557884
 21
97.2131189185249838
 31
0.0
  0
LINE
  5
12B07
  8
0
 10
535.3212860397555914
 20
97.2155900572249863
 30
0.0
 11
535.3212860397555914
 21
97.2287284768234628
 31
0.0
  0
ARC
  5
12B08
  8
0
 10
535.3281792872741107
 20
97.215181578447087
 30
0.0
 40
0.0069053396919603
 50
176.6087431092873885
 51
252.5224775741050962
  0
ARC
  5
12B09
  8
0
 10
535.3275228261162511
 20
97.2142825916408526
 30
0.0
 40
0.0058615292224099
 50
256.0060605166688106
 51
277.129344248740324
  0
LINE
  5
12B0A
  8
0
 10
535.3278846334557102
 20
97.2040993371249868
 30
0.0
 11
535.3349481857527508
 21
97.2061616319415123
 31
0.0
  0
ARC
  5
12B0B
  8
0
 10
536.3698222121779509
 20
100.7454636831474062
 30
0.0
 40
3.6875080735420851
 50
253.5754779963021122
 51
253.7556584795769936
  0
ARC
  5
12B0C
  8
0
 10
535.2798193070764228
 20
97.0113412536327502
 30
0.0
 40
0.2024590447243933
 50
66.5730758866438634
 51
73.2107346189963124
  0
ARC
  5
12B0D
  8
0
 10
535.3360607977067502
 20
97.1411402916347981
 30
0.0
 40
0.0609991722001615
 50
50.231428850502013
 51
66.5730758866436929
  0
ARC
  5
12B0E
  8
0
 10
535.3684909427529419
 20
97.1801076048836734
 30
0.0
 40
0.0103023694453844
 50
24.5369006779164707
 51
50.2314288504943889
  0
ARC
  5
12B0F
  8
0
 10
535.3840140765604474
 20
97.1891277485010789
 30
0.0
 40
0.0077666540522212
 50
217.6279145568967976
 51
270.9120476237013122
  0
ARC
  5
12B10
  8
0
 10
535.4418928219139389
 20
97.1900895375471663
 30
0.0
 40
0.0079437197091084
 50
270.7132436330426799
 51
359.5695597757908786
  0
LINE
  5
12B11
  8
0
 10
535.4498363174557198
 20
97.1900298601266144
 30
0.0
 11
535.4498363174557198
 21
97.1950558747249858
 31
0.0
  0
ARC
  5
12B12
  8
0
 10
535.3768005226070272
 20
97.2205359205575235
 30
0.0
 40
0.0074894272731478
 50
277.9745998962995941
 51
340.5319562625026037
  0
ARC
  5
12B13
  8
0
 10
534.9829633944973466
 20
98.9576468441804451
 30
0.0
 40
1.781004676341702
 50
269.9407237221391256
 51
276.1449864008702093
  0
ARC
  5
12B14
  8
0
 10
535.1206175268420111
 20
97.7050493356393588
 30
0.0
 40
0.5208766002594599
 50
275.8392755303580088
 51
286.6665491204751106
  0
ARC
  5
12B15
  8
0
 10
535.2495737167855623
 20
97.2743024475886671
 30
0.0
 40
0.0712405468894551
 50
286.6665491204749969
 51
302.4537654555348922
  0
ARC
  5
12B16
  8
0
 10
535.2692705860378055
 20
97.2433294297342172
 30
0.0
 40
0.0345350364945724
 50
302.4537654555352901
 51
316.2548403755790218
  0
ARC
  5
12B17
  8
0
 10
535.2228334836695467
 20
97.1130011856509299
 30
0.0
 40
0.1290629263690742
 50
58.9344439653148413
 51
74.6092294094967343
  0
ARC
  5
12B18
  8
0
 10
535.2742416569611805
 20
97.2004954023772001
 30
0.0
 40
0.0276122487141192
 50
43.5013731968070871
 51
56.6231844047582129
  0
ARC
  5
12B19
  8
0
 10
535.2875726479583136
 20
97.2128701371030957
 30
0.0
 40
0.0094262231099881
 50
343.5003306781060815
 51
44.7205924648153896
  0
ARC
  5
12B1A
  8
0
 10
535.2773963399230297
 20
97.2196036032001558
 30
0.0
 40
0.0213951303884803
 50
297.3203009580162188
 51
333.9058147799343033
  0
ARC
  5
12B1B
  8
0
 10
535.1639243773440739
 20
97.4662337564355141
 30
0.0
 40
0.2928562089996207
 50
278.7285838928697217
 51
294.8975439415730762
  0
ARC
  5
12B1C
  8
0
 10
535.1100311454914618
 20
97.256143065776385
 30
0.0
 40
0.1366892730420663
 50
181.8761431413228991
 51
187.1732999308071896
  0
ARC
  5
12B1D
  8
0
 10
534.9816150665011492
 20
94.8543569812549379
 30
0.0
 40
2.3847284525178281
 50
89.1521439788059382
 51
90.1730682855541943
  0
ARC
  5
12B1E
  8
0
 10
534.9801901263799664
 20
94.7580704732390018
 30
0.0
 40
2.4810255037720141
 50
86.033585406815746
 51
89.1521439788059382
  0
ARC
  5
12B1F
  8
0
 10
535.1500634396261376
 20
97.248531703050304
 30
0.0
 40
0.0154768714426963
 50
276.4681109052370971
 51
278.6120178644222847
  0
ARC
  5
12B20
  8
0
 10
535.6028767501862831
 20
95.9283390831882059
 30
0.0
 40
1.380465499865871
 50
107.9704870199714009
 51
109.046543362845199
  0
ARC
  5
12B21
  8
0
 10
535.1741026575027718
 20
97.246174993108994
 30
0.0
 40
0.0055167687868767
 50
301.2642259737871768
 51
350.0097463205979125
  0
LINE
  5
12B22
  8
0
 10
534.8384506098557267
 20
97.1912887860249839
 30
0.0
 11
534.8574236552121874
 21
97.1945797162457978
 31
0.0
  0
ARC
  5
12B23
  8
0
 10
534.8548735211835492
 20
97.2000282208407924
 30
0.0
 40
0.0060157614551328
 50
295.0816115301061018
 51
1.400669076479971
  0
ARC
  5
12B24
  8
0
 10
534.8668729892278861
 20
97.208738290619479
 30
0.0
 40
0.0059315340903826
 50
293.9016428803965937
 51
1.6483755175353321
  0
LINE
  5
12B25
  8
0
 10
534.860887485155672
 20
97.2001752692249852
 30
0.0
 11
534.860887485155672
 21
97.2018556353735761
 31
0.0
  0
LINE
  5
12B26
  8
0
 10
534.8728020687557319
 20
97.2089089148251162
 30
0.0
 11
534.8728020687557319
 21
97.2105892809427559
 31
0.0
  0
LINE
  5
12B27
  8
0
 10
534.8482012071500549
 20
97.1996479968377685
 30
0.0
 11
534.8692762558556524
 21
97.2033154310249898
 31
0.0
  0
LINE
  5
12B28
  8
0
 10
534.83238699565959
 20
97.2000833044484125
 30
0.0
 11
534.8323892518707225
 21
97.1963816545020336
 31
0.0
  0
ARC
  5
12B29
  8
0
 10
534.8378816499689492
 20
97.1967650742151648
 30
0.0
 40
0.005505764950884
 50
183.9932916982052973
 51
275.9314739275819193
  0
LINE
  5
12B2A
  8
0
 10
534.8601157906807657
 20
97.2083816424272271
 30
0.0
 11
534.8811908397557318
 21
97.2120490766249929
 31
0.0
  0
LINE
  5
12B2B
  8
0
 10
534.8720303742433089
 20
97.2171152880380731
 30
0.0
 11
534.8932285103556978
 21
97.2207912517249753
 31
0.0
  0
LINE
  5
12B2C
  8
0
 10
534.8839451101556506
 20
97.2258480449249731
 30
0.0
 11
534.9051430939557576
 21
97.2295248973249926
 31
0.0
  0
LINE
  5
12B2D
  8
0
 10
534.8958595412434534
 20
97.2345825790366263
 30
0.0
 11
534.9170576775557038
 21
97.2382585428249939
 31
0.0
  0
LINE
  5
12B2E
  8
0
 10
534.9077742771555677
 20
97.243315336025006
 30
0.0
 11
534.9289722609556748
 21
97.246992188424997
 31
0.0
  0
ARC
  5
12B2F
  8
0
 10
534.8786868705202551
 20
97.2175354129639402
 30
0.0
 40
0.006030733649922
 50
294.5320021298898041
 51
1.0180221326116561
  0
LINE
  5
12B30
  8
0
 10
534.8847166522557472
 20
97.2176425604250767
 30
0.0
 11
534.8847166522557472
 21
97.2193152124582411
 31
0.0
  0
LINE
  5
12B31
  8
0
 10
534.896631235755649
 20
97.226376205925007
 30
0.0
 11
534.896631235755649
 21
97.2280484905805338
 31
0.0
  0
LINE
  5
12B32
  8
0
 10
534.9085458193557088
 20
97.2342737092249934
 30
0.0
 11
534.9085458193557088
 21
97.2367825035141067
 31
0.0
  0
LINE
  5
12B33
  8
0
 10
534.9204604028557242
 20
97.2436649869600132
 30
0.0
 11
534.9204604028557242
 21
97.2455157816978897
 31
0.0
  0
ARC
  5
12B34
  8
0
 10
534.9263419950026446
 20
97.2523807722128453
 30
0.0
 40
0.0059962600196027
 50
296.0178465767260718
 51
355.2190749644208836
  0
ARC
  5
12B35
  8
0
 10
534.9143221931551579
 20
97.2437542420427121
 30
0.0
 40
0.0061388585907277
 50
296.4618269426615029
 51
0.8330733851041133
  0
ARC
  5
12B36
  8
0
 10
534.9019383133731935
 20
97.2354147632921126
 30
0.0
 40
0.0067053068306076
 50
298.5513961583424134
 51
350.2021925520144237
  0
ARC
  5
12B37
  8
0
 10
534.8905413005057881
 20
97.2262575389853367
 30
0.0
 40
0.0060910912971073
 50
296.1785881073137716
 51
1.116309812538532
  0
LINE
  5
12B38
  8
0
 10
534.8149692676557834
 20
97.2005627510250036
 30
0.0
 11
534.8482012071500549
 21
97.1996479968377685
 31
0.0
  0
LINE
  5
12B39
  8
0
 10
534.826945833913328
 20
97.2092943273457735
 30
0.0
 11
534.8601157906851995
 21
97.2083816424280087
 31
0.0
  0
LINE
  5
12B3A
  8
0
 10
534.83892152195574
 20
97.2180385717249891
 30
0.0
 11
534.8720303742433089
 21
97.2171152880380731
 31
0.0
  0
LINE
  5
12B3B
  8
0
 10
534.8508361056557305
 20
97.2267722172249904
 30
0.0
 11
534.8839449577637879
 21
97.2258489335401492
 31
0.0
  0
LINE
  5
12B3C
  8
0
 10
534.8627506891557459
 20
97.2355058628249935
 30
0.0
 11
534.895859693655666
 21
97.2345816904249887
 31
0.0
  0
LINE
  5
12B3D
  8
0
 10
534.9077742771555677
 20
97.243315336025006
 30
0.0
 11
534.8746652725557169
 21
97.2442395083249949
 31
0.0
  0
ARC
  5
12B3E
  8
0
 10
534.8721151385270787
 20
97.2496880129200036
 30
0.0
 40
0.0060157614551328
 50
295.0816115301061018
 51
9.9609311629271886
  0
ARC
  5
12B3F
  8
0
 10
534.8125545601811837
 20
97.2059928220638625
 30
0.0
 40
0.0059427673414502
 50
293.9743174006931099
 51
1.5757039294195909
  0
LINE
  5
12B40
  8
0
 10
534.8184950803556603
 20
97.2061562348251016
 30
0.0
 11
534.8184950803556603
 21
97.2078790638178702
 31
0.0
  0
ARC
  5
12B41
  8
0
 10
534.8242912633173773
 20
97.2148074815852112
 30
0.0
 40
0.0061189553615412
 50
295.7107040120500869
 51
0.771577528259098
  0
LINE
  5
12B42
  8
0
 10
534.8304096638557894
 20
97.2148898804250763
 30
0.0
 11
534.8304096638557894
 21
97.2165755265269524
 31
0.0
  0
LINE
  5
12B43
  8
0
 10
534.8423242473556911
 20
97.2236235259249924
 30
0.0
 11
534.8423242473556911
 21
97.2253318873471244
 31
0.0
  0
LINE
  5
12B44
  8
0
 10
534.8542388309557509
 20
97.2315210292249645
 30
0.0
 11
534.8542388309557509
 21
97.2340428175778868
 31
0.0
  0
LINE
  5
12B45
  8
0
 10
534.8661534144556526
 20
97.2410908171249844
 30
0.0
 11
534.8661534144556526
 21
97.2427634690582465
 31
0.0
  0
ARC
  5
12B46
  8
0
 10
534.8600152047550864
 20
97.2410015620427259
 30
0.0
 40
0.0061388585907277
 50
296.4618269426615029
 51
0.8330733851041133
  0
ARC
  5
12B47
  8
0
 10
534.8476313249732357
 20
97.2326620832921407
 30
0.0
 40
0.0067053068306076
 50
298.5513961583424134
 51
350.2021925520144237
  0
ARC
  5
12B48
  8
0
 10
534.8362343121059439
 20
97.2235048589853363
 30
0.0
 40
0.0060910912971073
 50
296.1785881073137716
 51
1.116309812538532
  0
LINE
  5
12B49
  8
0
 10
534.7889808379557053
 20
97.1960421614249839
 30
0.0
 11
534.8149692676557834
 21
97.2005627510250036
 31
0.0
  0
LINE
  5
12B4A
  8
0
 10
534.826945833913328
 20
97.2092943273457735
 30
0.0
 11
534.8045299696678967
 21
97.2055403005721246
 31
0.0
  0
LINE
  5
12B4B
  8
0
 10
534.8045299696678967
 20
97.2055403005721246
 30
0.0
 11
534.7726999500556531
 21
97.2065522461249856
 31
0.0
  0
LINE
  5
12B4C
  8
0
 10
534.7726999500556531
 20
97.2065522461249856
 30
0.0
 11
534.746453069955578
 21
97.201999647825005
 31
0.0
  0
LINE
  5
12B4D
  8
0
 10
534.83892152195574
 20
97.2180385717249891
 30
0.0
 11
534.8170862448189382
 21
97.2142854549568938
 31
0.0
  0
LINE
  5
12B4E
  8
0
 10
534.8170862448189382
 20
97.2142854549568938
 30
0.0
 11
534.7846145337556436
 21
97.2152858916249869
 31
0.0
  0
LINE
  5
12B4F
  8
0
 10
534.7846145337556436
 20
97.2152858916249869
 30
0.0
 11
534.7623463077557062
 21
97.211517784524986
 31
0.0
  0
LINE
  5
12B50
  8
0
 10
534.7623463077557062
 20
97.211517784524986
 30
0.0
 11
534.7303075453556858
 21
97.2125332116250007
 31
0.0
  0
LINE
  5
12B51
  8
0
 10
534.7303075453556858
 20
97.2125332116250007
 30
0.0
 11
534.7108537209556971
 21
97.2091588888249873
 31
0.0
  0
LINE
  5
12B52
  8
0
 10
534.8627506891557459
 20
97.2355058628249935
 30
0.0
 11
534.8409154119066216
 21
97.2317527459558164
 31
0.0
  0
LINE
  5
12B53
  8
0
 10
534.8409154119066216
 20
97.2317527459558164
 30
0.0
 11
534.8084437007557881
 21
97.2327531828249931
 31
0.0
  0
LINE
  5
12B54
  8
0
 10
534.8084437007557881
 20
97.2327531828249931
 30
0.0
 11
534.7872450092684176
 21
97.2290771227207529
 31
0.0
  0
LINE
  5
12B55
  8
0
 10
534.7872450092684176
 20
97.2290771227207529
 30
0.0
 11
534.7529629512769134
 21
97.2300208979736738
 31
0.0
  0
LINE
  5
12B56
  8
0
 10
534.8746652725557169
 20
97.2442395083249949
 30
0.0
 11
534.8534671364317319
 21
97.240563544636089
 31
0.0
  0
LINE
  5
12B57
  8
0
 10
534.8534671364317319
 20
97.240563544636089
 30
0.0
 11
534.8202351967556751
 21
97.2414782988249868
 31
0.0
  0
LINE
  5
12B58
  8
0
 10
534.8202351967556751
 20
97.2414782988249868
 30
0.0
 11
534.7985230069979252
 21
97.2377337115554354
 31
0.0
  0
LINE
  5
12B59
  8
0
 10
534.7985230069979252
 20
97.2377337115554354
 30
0.0
 11
534.7660512957555738
 21
97.2387341483249941
 31
0.0
  0
LINE
  5
12B5A
  8
0
 10
534.8508361055555724
 20
97.2267722173249922
 30
0.0
 11
534.8285678796557931
 21
97.2230041102250055
 31
0.0
  0
LINE
  5
12B5B
  8
0
 10
534.8285678796557931
 20
97.2230041102250055
 30
0.0
 11
534.7965291171557283
 21
97.22401953722499
 31
0.0
  0
LINE
  5
12B5C
  8
0
 10
534.7965291171557283
 20
97.22401953722499
 30
0.0
 11
534.7753311333557349
 21
97.2203426848249848
 31
0.0
  0
LINE
  5
12B5D
  8
0
 10
534.7753311333557349
 20
97.2203426848249848
 30
0.0
 11
534.7422221287556567
 21
97.2212668572250038
 31
0.0
  0
LINE
  5
12B5E
  8
0
 10
534.7422221287556567
 20
97.2212668572250038
 30
0.0
 11
534.7199539029555808
 21
97.2174987502249905
 31
0.0
  0
LINE
  5
12B5F
  8
0
 10
534.7199539029555808
 20
97.2174987502249905
 30
0.0
 11
534.6841384978537235
 21
97.2186152864221356
 31
0.0
  0
ARC
  5
12B60
  8
0
 10
534.7700240797172455
 20
97.2120116246011747
 30
0.0
 40
0.0060798927140999
 50
296.1114114703057112
 51
1.183486446480434
  0
LINE
  5
12B61
  8
0
 10
534.7761026754557179
 20
97.2121372003248041
 30
0.0
 11
534.7761026754557179
 21
97.213809484924667
 31
0.0
  0
ARC
  5
12B62
  8
0
 10
534.7818415081616195
 20
97.2208044633220254
 30
0.0
 40
0.0061761075542026
 50
296.6790582390499935
 51
0.6158435823185588
  0
LINE
  5
12B63
  8
0
 10
534.7880172589557333
 20
97.2208708459247504
 30
0.0
 11
534.7880172589557333
 21
97.2225431304975558
 31
0.0
  0
LINE
  5
12B64
  8
0
 10
534.7999318424557487
 20
97.2296044914246664
 30
0.0
 11
534.7999318424557487
 21
97.2312767760802217
 31
0.0
  0
LINE
  5
12B65
  8
0
 10
534.8118464260556948
 20
97.237501994724667
 30
0.0
 11
534.8118464260556948
 21
97.2400315316255188
 31
0.0
  0
LINE
  5
12B66
  8
0
 10
534.8237610095557102
 20
97.2470717826246585
 30
0.0
 11
534.8237610095557102
 21
97.2481371316268053
 31
0.0
  0
ARC
  5
12B67
  8
0
 10
534.8177639200255271
 20
97.2469440279987225
 30
0.0
 40
0.0059984501396491
 50
294.3296455640049771
 51
1.2203742969955811
  0
ARC
  5
12B68
  8
0
 10
534.8052389200732932
 20
97.2386430487918005
 30
0.0
 40
0.0067053068306076
 50
298.5513961583424134
 51
350.2021925520144237
  0
ARC
  5
12B69
  8
0
 10
534.7938419072057741
 20
97.2294858244850246
 30
0.0
 40
0.0060910912971073
 50
296.1785881073137716
 51
1.116309812538532
  0
ARC
  5
12B6A
  8
0
 10
534.7276316747743294
 20
97.2179925901403408
 30
0.0
 40
0.0060798928561739
 50
296.1114133634678183
 51
1.183486049690569
  0
LINE
  5
12B6B
  8
0
 10
534.7337102706557062
 20
97.218118165824805
 30
0.0
 11
534.7337102706557062
 21
97.2197904504246537
 31
0.0
  0
ARC
  5
12B6C
  8
0
 10
534.7394491039619879
 20
97.2267854286543667
 30
0.0
 40
0.0061761069556622
 50
296.6790527194215201
 51
0.6158451975722139
  0
LINE
  5
12B6D
  8
0
 10
534.7456248541557216
 20
97.2268518114247513
 30
0.0
 11
534.7456248541557216
 21
97.2272634535145244
 31
0.0
  0
LINE
  5
12B6E
  8
0
 10
534.7575394376557369
 20
97.2355854569246674
 30
0.0
 11
534.7575394376557369
 21
97.2372577415802084
 31
0.0
  0
LINE
  5
12B6F
  8
0
 10
534.7694540212556831
 20
97.243482960224668
 30
0.0
 11
534.7694540212556831
 21
97.244098710136754
 31
0.0
  0
ARC
  5
12B70
  8
0
 10
534.7628465152731678
 20
97.2446240142917731
 30
0.0
 40
0.0067053068306076
 50
298.5513961583424134
 51
350.2021925520144237
  0
ARC
  5
12B71
  8
0
 10
534.7514495024057624
 20
97.2354667899850256
 30
0.0
 40
0.0060910912971073
 50
296.1785881073137716
 51
1.116309812538532
  0
LINE
  5
12B72
  8
0
 10
534.7070316867557267
 20
97.2146401746249893
 30
0.0
 11
534.7070316867557267
 21
97.2179015970472875
 31
0.0
  0
ARC
  5
12B73
  8
0
 10
534.7120802908026462
 20
97.2140873331011619
 30
0.0
 40
0.0050787829814534
 50
173.7507910986994943
 51
256.0244028098525746
  0
ARC
  5
12B74
  8
0
 10
534.7471074750976641
 20
97.2071929298267747
 30
0.0
 40
0.0052343503932907
 50
176.3529177325677892
 51
262.8180158108320938
  0
ARC
  5
12B75
  8
0
 10
534.78883013951463
 20
97.2011873101985202
 30
0.0
 40
0.0051473552356435
 50
177.1514932259350132
 51
271.6776807127245092
  0
LINE
  5
12B76
  8
0
 10
534.7836891442325395
 20
97.2014431097896363
 30
0.0
 11
534.7836891442325395
 21
97.2062028757409138
 31
0.0
  0
LINE
  5
12B77
  8
0
 10
534.7418837253425181
 20
97.2075258900864725
 30
0.0
 11
534.7418833688718678
 21
97.2121663308835764
 31
0.0
  0
LINE
  5
12B78
  8
0
 10
534.7660512958508434
 20
97.2387341483220524
 30
0.0
 11
534.7538751929556611
 21
97.2366221676269475
 31
0.0
  0
LINE
  5
12B79
  8
0
 10
534.7230811983897638
 20
97.2112797805861106
 30
0.0
 11
534.7418837253425181
 21
97.2075258900864725
 31
0.0
  0
LINE
  5
12B7A
  8
0
 10
534.7613918405604636
 20
97.2045908213816432
 30
0.0
 11
534.7836891442325395
 21
97.2014431097895937
 31
0.0
  0
LINE
  5
12B7B
  8
0
 10
534.806521159624026
 20
97.1990841869842512
 30
0.0
 11
534.8323892518557159
 21
97.1963816545249841
 31
0.0
  0
LINE
  5
12B7C
  8
0
 10
534.8574236552121874
 20
97.1945797162457978
 30
0.0
 11
534.8890038837057546
 21
97.1935570875249937
 31
0.0
  0
LINE
  5
12B7D
  8
0
 10
534.8890038837057546
 20
97.1935570875249937
 30
0.0
 11
534.9117917481556788
 21
97.1973429950249965
 31
0.0
  0
LINE
  5
12B7E
  8
0
 10
534.9117917481556788
 20
97.1973429950249965
 30
0.0
 11
534.9436217669667712
 21
97.196331049510448
 31
0.0
  0
LINE
  5
12B7F
  8
0
 10
534.9436217669667712
 20
97.196331049510448
 30
0.0
 11
534.9659586032556717
 21
97.200084853724988
 31
0.0
  0
LINE
  5
12B80
  8
0
 10
534.9659586032556717
 20
97.200084853724988
 30
0.0
 11
534.9979415735945167
 21
97.1990833150515954
 31
0.0
  0
LINE
  5
12B81
  8
0
 10
534.9979415735945167
 20
97.1990833150515954
 30
0.0
 11
535.0204057248556637
 21
97.2028483551249849
 31
0.0
  0
LINE
  5
12B82
  8
0
 10
535.0204057248556637
 20
97.2028483551249849
 30
0.0
 11
535.0528774360775515
 21
97.2018479183540336
 31
0.0
  0
LINE
  5
12B83
  8
0
 10
535.0528774360775515
 20
97.2018479183540336
 30
0.0
 11
535.0745725800557011
 21
97.2055902138249905
 31
0.0
  0
LINE
  5
12B84
  8
0
 10
535.0745725800557011
 20
97.2055902138249905
 30
0.0
 11
535.1067514758557309
 21
97.2045856082250026
 31
0.0
  0
LINE
  5
12B85
  8
0
 10
535.1067514758557309
 20
97.2045856082250026
 30
0.0
 11
535.128616589655735
 21
97.2084178648249804
 31
0.0
  0
LINE
  5
12B86
  8
0
 10
535.128616589655735
 20
97.2084178648249804
 30
0.0
 11
535.1614914128780356
 21
97.2073532784540646
 31
0.0
  0
LINE
  5
12B87
  8
0
 10
535.1614914128780356
 20
97.2073532784540646
 30
0.0
 11
535.1832036028556558
 21
97.2110978657249944
 31
0.0
  0
LINE
  5
12B88
  8
0
 10
535.1832036028556558
 20
97.2110978657249944
 30
0.0
 11
535.215870527555694
 21
97.2101188290043581
 31
0.0
  0
LINE
  5
12B89
  8
0
 10
535.215870527555694
 20
97.2101188290043581
 30
0.0
 11
535.2372305663391217
 21
97.2139232248283349
 31
0.0
  0
LINE
  5
12B8A
  8
0
 10
535.2372305663391217
 20
97.2139232248283349
 30
0.0
 11
535.2655759308556753
 21
97.2129135912249893
 31
0.0
  0
LINE
  5
12B8B
  8
0
 10
534.8692762558556524
 20
97.2033154310249898
 30
0.0
 11
534.9014381058557319
 21
97.2023085336249864
 31
0.0
  0
LINE
  5
12B8C
  8
0
 10
534.9014381058557319
 20
97.2023085336249864
 30
0.0
 11
534.9235832445557435
 21
97.2060681110248339
 31
0.0
  0
LINE
  5
12B8D
  8
0
 10
534.9235832445557435
 20
97.2060681110248339
 30
0.0
 11
534.9555461831818093
 21
97.2050643747583933
 31
0.0
  0
LINE
  5
12B8E
  8
0
 10
534.9555461831818093
 20
97.2050643747583933
 30
0.0
 11
534.9780133200557657
 21
97.2088293206248295
 31
0.0
  0
LINE
  5
12B8F
  8
0
 10
534.9780133200557657
 20
97.2088293206248295
 30
0.0
 11
535.0100520826556476
 21
97.2078138936250014
 31
0.0
  0
LINE
  5
12B90
  8
0
 10
535.0100520826556476
 20
97.2078138936250014
 30
0.0
 11
535.032180175155645
 21
97.2115711794249933
 31
0.0
  0
LINE
  5
12B91
  8
0
 10
535.032180175155645
 20
97.2115711794249933
 30
0.0
 11
535.0641631454584513
 21
97.2105696405527766
 31
0.0
  0
LINE
  5
12B92
  8
0
 10
535.0641631454584513
 20
97.2105696405527766
 30
0.0
 11
535.0863556741556977
 21
97.2143613448749875
 31
0.0
  0
LINE
  5
12B93
  8
0
 10
535.0863556741556977
 20
97.2143613448749875
 30
0.0
 11
535.1181589593556964
 21
97.2132997665249832
 31
0.0
  0
LINE
  5
12B94
  8
0
 10
535.1181589593556964
 20
97.2132997665249832
 30
0.0
 11
535.140794151955788
 21
97.2170765394249941
 31
0.0
  0
LINE
  5
12B95
  8
0
 10
535.140794151955788
 20
97.2170765394249941
 30
0.0
 11
535.1724659477556543
 21
97.2160524465749916
 31
0.0
  0
LINE
  5
12B96
  8
0
 10
535.1724659477556543
 20
97.2160524465749916
 30
0.0
 11
535.195180168546699
 21
97.2198294419648619
 31
0.0
  0
LINE
  5
12B97
  8
0
 10
535.195180168546699
 20
97.2198294419648619
 30
0.0
 11
535.2272800361556619
 21
97.2188246137250047
 31
0.0
  0
LINE
  5
12B98
  8
0
 10
535.2272800361556619
 20
97.2188246137250047
 30
0.0
 11
535.2493263207360314
 21
97.2226939496166835
 31
0.0
  0
LINE
  5
12B99
  8
0
 10
535.2493263207360314
 20
97.2226939496166835
 30
0.0
 11
535.2877623046556437
 21
97.221304315624991
 31
0.0
  0
LINE
  5
12B9A
  8
0
 10
535.2610597334421527
 20
97.2313905160288527
 30
0.0
 11
535.2402648616556462
 21
97.2276495140249892
 31
0.0
  0
LINE
  5
12B9B
  8
0
 10
535.2402648616556462
 20
97.2276495140249892
 30
0.0
 11
535.2070327699557311
 21
97.2285651568249847
 31
0.0
  0
LINE
  5
12B9C
  8
0
 10
535.2070327699557311
 20
97.2285651568249847
 30
0.0
 11
535.1853205798776116
 21
97.2248205695540264
 31
0.0
  0
LINE
  5
12B9D
  8
0
 10
535.1853205798776116
 20
97.2248205695540264
 30
0.0
 11
535.1524457566556521
 21
97.2258851559249848
 31
0.0
  0
LINE
  5
12B9E
  8
0
 10
535.1524457566556521
 20
97.2258851559249848
 30
0.0
 11
535.1303718999680541
 21
97.2220563807721305
 31
0.0
  0
LINE
  5
12B9F
  8
0
 10
535.1303718994198562
 20
97.2220563806770457
 30
0.0
 11
535.0981387676539498
 21
97.2231324759450786
 31
0.0
  0
LINE
  5
12BA0
  8
0
 10
535.0981387676539498
 20
97.2231324759450786
 30
0.0
 11
535.0767066031776267
 21
97.2193152094540238
 31
0.0
  0
LINE
  5
12BA1
  8
0
 10
535.0767066031776267
 20
97.2193152094540238
 30
0.0
 11
535.0442348920557833
 21
97.2203156462249893
 31
0.0
  0
LINE
  5
12BA2
  8
0
 10
535.0442348920557833
 20
97.2203156462249893
 30
0.0
 11
535.0219666661557767
 21
97.2165475392250045
 31
0.0
  0
LINE
  5
12BA3
  8
0
 10
535.0219666661557767
 20
97.2165475392250045
 30
0.0
 11
534.9899279035556674
 21
97.2175629662249889
 31
0.0
  0
LINE
  5
12BA4
  8
0
 10
534.9899279035556674
 20
97.2175629662249889
 30
0.0
 11
534.9676596777555915
 21
97.2137948591250023
 31
0.0
  0
LINE
  5
12BA5
  8
0
 10
534.9676596777555915
 20
97.2137948591250023
 30
0.0
 11
534.9355598104962155
 21
97.2147996873430174
 31
0.0
  0
LINE
  5
12BA6
  8
0
 10
534.9355598104962155
 20
97.2147996873430174
 30
0.0
 11
534.9137856380044695
 21
97.2110571693556551
 31
0.0
  0
LINE
  5
12BA7
  8
0
 10
534.9137856380044695
 20
97.2110571693556551
 30
0.0
 11
534.8811908397557318
 21
97.2120490766249929
 31
0.0
  0
LINE
  5
12BA8
  8
0
 10
534.8932285103556978
 20
97.2207912517249753
 30
0.0
 11
534.9257002215990724
 21
97.2197908149555445
 31
0.0
  0
LINE
  5
12BA9
  8
0
 10
534.9257002215990724
 20
97.2197908149555445
 30
0.0
 11
534.9471323866556531
 21
97.223608081324997
 31
0.0
  0
LINE
  5
12BAA
  8
0
 10
534.9471323866556531
 20
97.223608081324997
 30
0.0
 11
534.9790671612557844
 21
97.2225090175749926
 31
0.0
  0
LINE
  5
12BAB
  8
0
 10
534.9790671612557844
 20
97.2225090175749926
 30
0.0
 11
535.0014393750557247
 21
97.226360761424985
 31
0.0
  0
LINE
  5
12BAC
  8
0
 10
535.0014393750557247
 20
97.226360761424985
 30
0.0
 11
535.0333741496557423
 21
97.2252616976249868
 31
0.0
  0
LINE
  5
12BAD
  8
0
 10
535.0333741496557423
 20
97.2252616976249868
 30
0.0
 11
535.0561494756557295
 21
97.2290492918249925
 31
0.0
  0
LINE
  5
12BAE
  8
0
 10
535.0561494756557295
 20
97.2290492918249925
 30
0.0
 11
535.0879794945557251
 21
97.2280373462249941
 31
0.0
  0
LINE
  5
12BAF
  8
0
 10
535.0879794945557251
 20
97.2280373462249941
 30
0.0
 11
535.1104564639557566
 21
97.2318019718250071
 31
0.0
  0
LINE
  5
12BB0
  8
0
 10
535.1104564639557566
 20
97.2318019718250071
 30
0.0
 11
535.1422864829365835
 21
97.230790026289867
 31
0.0
  0
LINE
  5
12BB1
  8
0
 10
535.1422864829365835
 20
97.230790026289867
 30
0.0
 11
535.1646233189557051
 21
97.2345438306249861
 31
0.0
  0
LINE
  5
12BB2
  8
0
 10
535.1646233189557051
 20
97.2345438306249861
 30
0.0
 11
535.1968022148556656
 21
97.2335392248249946
 31
0.0
  0
LINE
  5
12BB3
  8
0
 10
535.1968022148556656
 20
97.2335392248249946
 30
0.0
 11
535.218667328555739
 21
97.2373714815249883
 31
0.0
  0
LINE
  5
12BB4
  8
0
 10
535.218667328555739
 20
97.2373714815249883
 30
0.0
 11
535.2501873467557516
 21
97.2360355465249739
 31
0.0
  0
LINE
  5
12BB5
  8
0
 10
535.2501873467557516
 20
97.2360355465249739
 30
0.0
 11
535.2575325892270257
 21
97.2373121306093537
 31
0.0
  0
LINE
  5
12BB6
  8
0
 10
534.9051430939557576
 20
97.2295248973249926
 30
0.0
 11
534.9371818564557088
 21
97.2285094703249655
 31
0.0
  0
LINE
  5
12BB7
  8
0
 10
534.9371818564557088
 20
97.2285094703249655
 30
0.0
 11
534.9371818564557088
 21
97.2285094703249655
 31
0.0
  0
LINE
  5
12BB8
  8
0
 10
534.9371818564557088
 20
97.2285094703249655
 30
0.0
 11
534.9594500822557848
 21
97.232277577324993
 31
0.0
  0
LINE
  5
12BB9
  8
0
 10
534.9594500822557848
 20
97.232277577324993
 30
0.0
 11
534.9912801012557111
 21
97.2312656317249946
 31
0.0
  0
LINE
  5
12BBA
  8
0
 10
534.9912801012557111
 20
97.2312656317249946
 30
0.0
 11
535.0137570706557426
 21
97.235030257324965
 31
0.0
  0
LINE
  5
12BBB
  8
0
 10
535.0137570706557426
 20
97.235030257324965
 30
0.0
 11
535.0448739769557278
 21
97.2337584718249843
 31
0.0
  0
LINE
  5
12BBC
  8
0
 10
535.0448739769557278
 20
97.2337584718249843
 30
0.0
 11
535.0668938546490381
 21
97.2375805082805158
 31
0.0
  0
LINE
  5
12BBD
  8
0
 10
534.9170576775557038
 20
97.2382585428249939
 30
0.0
 11
534.9482792643557332
 21
97.23720357912498
 31
0.0
  0
LINE
  5
12BBE
  8
0
 10
534.9482792643557332
 20
97.23720357912498
 30
0.0
 11
534.9709615537557283
 21
97.2410753725250032
 31
0.0
  0
LINE
  5
12BBF
  8
0
 10
534.9610110235556704
 20
97.2459767614249841
 30
0.0
 11
534.9289722609556748
 21
97.246992188424997
 31
0.0
  0
ARC
  5
12BC0
  8
0
 10
534.9645046489613378
 20
97.2503504658478448
 30
0.0
 40
0.0055977414064348
 50
163.7149897507771925
 51
231.3828572889393911
  0
ARC
  5
12BC1
  8
0
 10
534.9771388039971498
 20
97.2661672903046224
 30
0.0
 40
0.025841105982608
 50
231.3828572889393911
 51
256.1696736477492777
  0
LINE
  5
12BC2
  8
0
 10
534.9709615537557283
 20
97.2410753725250032
 30
0.0
 11
534.9741748906304792
 21
97.2410753725250032
 31
0.0
  0
LINE
  5
12BC3
  8
0
 10
534.9485893399557881
 20
97.2372236286749967
 30
0.0
 11
534.9594500822557848
 21
97.232277577324993
 31
0.0
  0
LINE
  5
12BC4
  8
0
 10
535.2610597334421527
 20
97.2313905160288527
 30
0.0
 11
535.2754598077286801
 21
97.230847309808567
 31
0.0
  0
ARC
  5
12BC5
  8
0
 10
535.2597987268438828
 20
97.2360890747726643
 30
0.0
 40
0.0048648321563711
 50
285.0231116999706273
 51
348.6306563074865039
  0
ARC
  5
12BC6
  8
0
 10
535.2631456890126174
 20
97.2182370740009816
 30
0.0
 40
0.0058519692653218
 50
294.5373386158631774
 51
4.3961004553066498
  0
ARC
  5
12BC7
  8
0
 10
535.226717697230356
 20
97.2092227058869014
 30
0.0
 40
0.0050613820146755
 50
263.2304898192799101
 51
6.4540868529893647
  0
ARC
  5
12BC8
  8
0
 10
535.2098769637486839
 20
97.2070279324876481
 30
0.0
 40
0.0059942680531427
 50
275.161274761732102
 51
359.121713771007478
  0
ARC
  5
12BC9
  8
0
 10
535.1574541951642914
 20
97.1993875999324644
 30
0.0
 40
0.0050242571121782
 50
254.0996791871777987
 51
4.5249905352959496
  0
ARC
  5
12BCA
  8
0
 10
535.1065885666408803
 20
97.1950551555134012
 30
0.0
 40
0.0050458318155229
 50
249.6251017236249936
 51
3.6028027260647968
  0
LINE
  5
12BCB
  8
0
 10
534.9276551031556437
 20
97.1867604881249889
 30
0.0
 11
534.9539285997557272
 21
97.191389590875005
 31
0.0
  0
LINE
  5
12BCC
  8
0
 10
534.9539285997557272
 20
97.191389590875005
 30
0.0
 11
534.9860208155087093
 21
97.190349865180707
 31
0.0
  0
LINE
  5
12BCD
  8
0
 10
534.9860208155087093
 20
97.190349865180707
 30
0.0
 11
535.0082195187056868
 21
97.1941413737249889
 31
0.0
  0
LINE
  5
12BCE
  8
0
 10
535.0082195187056868
 20
97.1941413737249889
 30
0.0
 11
535.0400102653557042
 21
97.1930814820249935
 31
0.0
  0
LINE
  5
12BCF
  8
0
 10
535.0400102653557042
 20
97.1930814820249935
 30
0.0
 11
535.0627981298556506
 21
97.196867389624984
 31
0.0
  0
LINE
  5
12BD0
  8
0
 10
535.0627981298556506
 20
97.196867389624984
 30
0.0
 11
535.0940197168556551
 21
97.1958124258249967
 31
0.0
  0
LINE
  5
12BD1
  8
0
 10
535.0940197168556551
 20
97.1958124258249967
 30
0.0
 11
535.1167020060556752
 21
97.1996842192250057
 31
0.0
  0
LINE
  5
12BD2
  8
0
 10
535.1167020060556752
 20
97.1996842192250057
 30
0.0
 11
535.1489356299379097
 21
97.1986081075849029
 31
0.0
  0
LINE
  5
12BD3
  8
0
 10
535.1489356299379097
 20
97.1986081075849029
 30
0.0
 11
535.1710089944356241
 21
97.2024368992277346
 31
0.0
  0
LINE
  5
12BD4
  8
0
 10
535.1710089944356241
 20
97.2024368992277346
 30
0.0
 11
535.2104331612180204
 21
97.2010595245032647
 31
0.0
  0
LINE
  5
12BD5
  8
0
 10
535.2317470014556875
 20
97.2097916406249851
 30
0.0
 11
535.2317470014556875
 21
97.2129465575312963
 31
0.0
  0
LINE
  5
12BD6
  8
0
 10
535.2261210840556487
 20
97.2041966099249919
 30
0.0
 11
535.215870527555694
 21
97.2091457122829041
 31
0.0
  0
LINE
  5
12BD7
  8
0
 10
535.215870527555694
 20
97.2069360500373421
 30
0.0
 11
535.215870527555694
 21
97.2101188290043581
 31
0.0
  0
LINE
  5
12BD8
  8
0
 10
535.1624627917557291
 20
97.1997839832249895
 30
0.0
 11
535.1624627918160968
 21
97.2009544958917502
 31
0.0
  0
LINE
  5
12BD9
  8
0
 10
535.1116244261555721
 20
97.1953722322530496
 30
0.0
 11
535.1116244261555721
 21
97.1988174927596305
 31
0.0
  0
LINE
  5
12BDA
  8
0
 10
535.1116244261555721
 20
97.1953722322530496
 30
0.0
 11
535.1489351362847628
 21
97.1986081240653732
 31
0.0
  0
LINE
  5
12BDB
  8
0
 10
535.057588574755755
 20
97.1924733355011341
 30
0.0
 11
535.0968553442036182
 21
97.1943732730710366
 31
0.0
  0
LINE
  5
12BDC
  8
0
 10
535.104831802855756
 20
97.1903250181249945
 30
0.0
 11
535.0940197168556551
 21
97.1958124258249967
 31
0.0
  0
LINE
  5
12BDD
  8
0
 10
535.0400102653557042
 20
97.1930814820249935
 30
0.0
 11
535.0504011338556438
 21
97.1876320507249858
 31
0.0
  0
LINE
  5
12BDE
  8
0
 10
535.057588574755755
 20
97.1924733355011341
 30
0.0
 11
535.0575881663725113
 21
97.1960018218862132
 31
0.0
  0
ARC
  5
12BDF
  8
0
 10
535.0524396205399853
 20
97.1923624042576506
 30
0.0
 40
0.0051501491529639
 50
246.6884480160732096
 51
1.234214106691752
  0
LINE
  5
12BE0
  8
0
 10
534.9957342138507101
 20
97.1851079335515919
 30
0.0
 11
534.9860208155087093
 21
97.190349865180707
 31
0.0
  0
LINE
  5
12BE1
  8
0
 10
534.9201103692556671
 20
97.1915960607250042
 30
0.0
 11
534.9201103692556671
 21
97.1970785279708167
 31
0.0
  0
LINE
  5
12BE2
  8
0
 10
534.8990265423552728
 20
97.1882948978215921
 30
0.0
 11
534.8887063468556562
 21
97.1935353512249947
 31
0.0
  0
LINE
  5
12BE3
  8
0
 10
534.9078121945557314
 20
97.1923548116249947
 30
0.0
 11
534.9078121945575504
 21
97.196681843917716
 31
0.0
  0
ARC
  5
12BE4
  8
0
 10
534.9021621077675945
 20
97.1930455664584656
 30
0.0
 40
0.0056921545088266
 50
236.5741461568455861
 51
353.0298581771729118
  0
ARC
  5
12BE5
  8
0
 10
534.9263838657246879
 20
97.1930806781796264
 30
0.0
 40
0.0064467702714326
 50
193.3140611810327982
 51
281.3726749094147976
  0
LINE
  5
12BE6
  8
0
 10
534.9999792832556977
 20
97.1909660182249553
 30
0.0
 11
535.0422640876453215
 21
97.1918994778710754
 31
0.0
  0
LINE
  5
12BE7
  8
0
 10
535.2689804416170318
 20
97.2186856342840287
 30
0.0
 11
535.2689804416170318
 21
97.2219621450064864
 31
0.0
  0
LINE
  5
12BE8
  8
0
 10
535.2317470014556875
 20
97.2097916406249851
 30
0.0
 11
535.249414717632817
 21
97.2134892375156312
 31
0.0
  0
LINE
  5
12BE9
  8
0
 10
534.9078121945557314
 20
97.1923548116249947
 30
0.0
 11
534.9201103691833623
 21
97.1915960607124418
 31
0.0
  0
ARC
  5
12BEA
  8
0
 10
534.9704094385165263
 20
97.2446569514353456
 30
0.0
 40
0.0036238844815404
 50
278.7633991641868079
 51
278.7634002130860722
  0
ARC
  5
12BEB
  8
0
 10
534.8972659259835609
 20
97.1940472552406334
 30
0.0
 40
0.0060157614551328
 50
287.0177081548902152
 51
1.400669076479971
  0
ARC
  5
12BEC
  8
0
 10
534.9092653940280115
 20
97.2027573250193342
 30
0.0
 40
0.0059315340903826
 50
293.9016428803965937
 51
1.6483755175353321
  0
LINE
  5
12BED
  8
0
 10
534.9032798899555701
 20
97.1941943036248546
 30
0.0
 11
534.9032798899555701
 21
97.1959288604153642
 31
0.0
  0
LINE
  5
12BEE
  8
0
 10
534.9151944735557436
 20
97.2029279492249572
 30
0.0
 11
534.9151944735557436
 21
97.2046439504318016
 31
0.0
  0
ARC
  5
12BEF
  8
0
 10
534.9210792753201531
 20
97.2115544473637812
 30
0.0
 40
0.006030733649922
 50
294.5320021298898041
 51
1.0180221326116561
  0
LINE
  5
12BF0
  8
0
 10
534.927109057055759
 20
97.2114472999025736
 30
0.0
 11
534.927109057055759
 21
97.2133471822354096
 31
0.0
  0
LINE
  5
12BF1
  8
0
 10
534.9390236405556607
 20
97.2203952403248479
 30
0.0
 11
534.9390236405556607
 21
97.222163838818247
 31
0.0
  0
LINE
  5
12BF2
  8
0
 10
534.9509382241556068
 20
97.2282927436248343
 30
0.0
 11
534.9509382241556068
 21
97.2308372473958116
 31
0.0
  0
LINE
  5
12BF3
  8
0
 10
534.9628528076557359
 20
97.2378625315248399
 30
0.0
 11
534.9628528076557359
 21
97.2396912358058643
 31
0.0
  0
ARC
  5
12BF4
  8
0
 10
534.9567145979552834
 20
97.2377732764425531
 30
0.0
 40
0.0061388585907277
 50
296.4618269426615029
 51
0.8330733851041133
  0
ARC
  5
12BF5
  8
0
 10
534.9451904724156748
 20
97.229073969444002
 30
0.0
 40
0.0058006003003784
 50
289.5590479556811943
 51
352.2598740713114012
  0
ARC
  5
12BF6
  8
0
 10
534.9329871554939473
 20
97.2202621332809969
 30
0.0
 40
0.0060379524167495
 50
295.2190874946726922
 51
1.2631914213855491
  0
ARC
  5
12BF7
  8
0
 10
534.9518937047400868
 20
97.1967118747333956
 30
0.0
 40
0.0056980262542441
 50
290.9236012975512153
 51
2.3647799453462071
  0
LINE
  5
12BF8
  8
0
 10
534.9575868784555723
 20
97.1969469837249562
 30
0.0
 11
534.9575868784555723
 21
97.198677948314085
 31
0.0
  0
ARC
  5
12BF9
  8
0
 10
534.9634868114301298
 20
97.2055692561625335
 30
0.0
 40
0.0060156815844839
 50
294.2608434359614762
 51
1.060823558590462
  0
LINE
  5
12BFA
  8
0
 10
534.9695014619555877
 20
97.2056806293249309
 30
0.0
 11
534.9695014619555877
 21
97.2074029401674835
 31
0.0
  0
LINE
  5
12BFB
  8
0
 10
534.9814160454557168
 20
97.2144142748248328
 30
0.0
 11
534.9814160454557168
 21
97.2161226362575803
 31
0.0
  0
LINE
  5
12BFC
  8
0
 10
534.9933306290557766
 20
97.2223117781248334
 30
0.0
 11
534.9933306290557766
 21
97.2249647076944257
 31
0.0
  0
LINE
  5
12BFD
  8
0
 10
535.005245212555792
 20
97.231881566024839
 30
0.0
 11
535.005245212555792
 21
97.2336046221187047
 31
0.0
  0
ARC
  5
12BFE
  8
0
 10
534.9997035833041537
 20
97.2316295555051369
 30
0.0
 40
0.0055473564932793
 50
288.2343451172941968
 51
2.603782605783346
  0
ARC
  5
12BFF
  8
0
 10
534.9867231230731477
 20
97.2234528321919811
 30
0.0
 40
0.0067053068306076
 50
298.5513961583424134
 51
350.2021925520144237
  0
ARC
  5
12C00
  8
0
 10
534.9753261102058559
 20
97.2142956078852052
 30
0.0
 40
0.0060910912971073
 50
296.1785881073137716
 51
1.116309812538532
  0
ARC
  5
12C01
  8
0
 10
534.9940502037280794
 20
97.1907953940193323
 30
0.0
 40
0.0059315340903826
 50
286.4935869794447854
 51
1.6483755175353321
  0
LINE
  5
12C02
  8
0
 10
534.9999792832556977
 20
97.1909660182249553
 30
0.0
 11
534.9999792832556977
 21
97.1926383028248466
 31
0.0
  0
ARC
  5
12C03
  8
0
 10
535.0061248489256513
 20
97.1995196926859961
 30
0.0
 40
0.0057718243505446
 50
291.2791981619021158
 51
1.78682816867173
  0
LINE
  5
12C04
  8
0
 10
535.0118938667557131
 20
97.1996996638249158
 30
0.0
 11
535.0118938667557131
 21
97.2014217493977952
 31
0.0
  0
LINE
  5
12C05
  8
0
 10
535.0238084502557285
 20
97.2084333093248461
 30
0.0
 11
535.0238084502557285
 21
97.2101496848660531
 31
0.0
  0
LINE
  5
12C06
  8
0
 10
535.0357230338556747
 20
97.2163308126248324
 30
0.0
 11
535.0357230338556747
 21
97.2188753162853487
 31
0.0
  0
LINE
  5
12C07
  8
0
 10
535.0476376173555764
 20
97.2259006005248381
 30
0.0
 11
535.0476376173555764
 21
97.2276337483052941
 31
0.0
  0
ARC
  5
12C08
  8
0
 10
535.0414994076552375
 20
97.2258113454425654
 30
0.0
 40
0.0061388585907277
 50
296.4618269426615029
 51
0.8330733851041133
  0
ARC
  5
12C09
  8
0
 10
535.0293576446380257
 20
97.2173705348846227
 30
0.0
 40
0.0064497443570062
 50
295.9520608152686236
 51
350.7232333816081109
  0
ARC
  5
12C0A
  8
0
 10
535.0177185150057539
 20
97.2083146423852043
 30
0.0
 40
0.0060910912971073
 50
296.1785881073137716
 51
1.116309812538532
  0
ARC
  5
12C0B
  8
0
 10
535.0600251048108476
 20
97.2023859610966952
 30
0.0
 40
0.006176107106182
 50
296.6790546234825001
 51
0.6158447913558055
  0
LINE
  5
12C0C
  8
0
 10
535.0662008551557847
 20
97.2024523438249162
 30
0.0
 11
535.0662008551557847
 21
97.2041461363757264
 31
0.0
  0
LINE
  5
12C0D
  8
0
 10
535.0781154386556864
 20
97.2111859893248464
 30
0.0
 11
535.0781154386556864
 21
97.2129534595011364
 31
0.0
  0
LINE
  5
12C0E
  8
0
 10
535.0900300222557462
 20
97.2190834926248471
 30
0.0
 11
535.0900300222557462
 21
97.2216882334782326
 31
0.0
  0
LINE
  5
12C0F
  8
0
 10
535.1019446057556479
 20
97.2286532805248527
 30
0.0
 11
535.1019446057556479
 21
97.2303763366019638
 31
0.0
  0
ARC
  5
12C10
  8
0
 10
535.0964029770043453
 20
97.2284012698686553
 30
0.0
 40
0.0055473559997581
 50
288.2343348127907916
 51
2.6037842486117082
  0
ARC
  5
12C11
  8
0
 10
535.0840057239776115
 20
97.2199804599563464
 30
0.0
 40
0.0060907076877027
 50
292.6949962343547895
 51
351.5313543773351057
  0
ARC
  5
12C12
  8
0
 10
535.0721769175203235
 20
97.2110264163440689
 30
0.0
 40
0.0059406646776258
 50
293.7824528745366024
 51
1.5392146562143221
  0
ARC
  5
12C13
  8
0
 10
535.1149453983828153
 20
97.2049673630276629
 30
0.0
 40
0.0055675200005298
 50
288.3915986662344721
 51
2.44652905702995
  0
LINE
  5
12C14
  8
0
 10
535.1205078435557425
 20
97.2052050238249166
 30
0.0
 11
535.1205078435557425
 21
97.206996660433191
 31
0.0
  0
LINE
  5
12C15
  8
0
 10
535.1324224270556442
 20
97.2139386693248468
 30
0.0
 11
535.1324224270556442
 21
97.215679683463236
 31
0.0
  0
LINE
  5
12C16
  8
0
 10
535.144337010655704
 20
97.2218361726248332
 30
0.0
 11
535.144337010655704
 21
97.2244786701601811
 31
0.0
  0
LINE
  5
12C17
  8
0
 10
535.1562515941557194
 20
97.2314059605248389
 30
0.0
 11
535.1562515941557194
 21
97.2331369251519106
 31
0.0
  0
ARC
  5
12C18
  8
0
 10
535.1507099649040811
 20
97.2311539500051225
 30
0.0
 40
0.0055473564932801
 50
288.2343451173214817
 51
2.6037826058183211
  0
ARC
  5
12C19
  8
0
 10
535.1379716214379414
 20
97.2228758948846377
 30
0.0
 40
0.0064497443570307
 50
295.9520608153555941
 51
350.7232333815131256
  0
ARC
  5
12C1A
  8
0
 10
535.1269160715351063
 20
97.2136623424702435
 30
0.0
 40
0.0055132846516713
 50
287.9652493579562247
 51
2.8728788025641672
  0
ARC
  5
12C1B
  8
0
 10
535.1690387922410537
 20
97.2078687676580557
 30
0.0
 40
0.005778139089055
 50
289.9363003214241985
 51
1.7672179704852331
  0
LINE
  5
12C1C
  8
0
 10
535.1748141830654504
 20
97.2080469590073477
 30
0.0
 11
535.1748141830654504
 21
97.2097192435801816
 31
0.0
  0
LINE
  5
12C1D
  8
0
 10
535.1867287665653521
 20
97.2167806045072638
 30
0.0
 11
535.1867287665653521
 21
97.2184241150282702
 31
0.0
  0
LINE
  5
12C1E
  8
0
 10
535.1986433501655256
 20
97.2246781078072644
 30
0.0
 11
535.1986433501655256
 21
97.2271182777011376
 31
0.0
  0
LINE
  5
12C1F
  8
0
 10
535.210557933665541
 20
97.2342478957072842
 30
0.0
 11
535.210557933665541
 21
97.2359501633773959
 31
0.0
  0
ARC
  5
12C20
  8
0
 10
535.2043109842766171
 20
97.2341883063232046
 30
0.0
 40
0.0062472335927726
 50
295.8284789893323818
 51
0.5465254235575205
  0
ARC
  5
12C21
  8
0
 10
535.1917560538017824
 20
97.2259362610146951
 30
0.0
 40
0.0070012713627558
 50
299.2795014546492212
 51
349.6475080101986919
  0
ARC
  5
12C22
  8
0
 10
535.1806388313157186
 20
97.216661937567622
 30
0.0
 40
0.0060910912971073
 50
296.1785881073137716
 51
1.116309812538532
  0
LINE
  5
12C23
  8
0
 10
535.1560780874557395
 20
97.1945563763249964
 30
0.0
 11
535.1486242421055977
 21
97.1985868421249961
 31
0.0
  0
LINE
  5
12C24
  8
0
 10
535.1624627917557291
 20
97.1997839832249895
 30
0.0
 11
535.1822746539180571
 21
97.2020433072791263
 31
0.0
  0
LINE
  5
12C25
  8
0
 10
535.252950987355689
 20
97.2299317508260827
 30
0.0
 11
535.252950987355689
 21
97.2281776750249946
 31
0.0
  0
LINE
  5
12C26
  8
0
 10
535.2410364038557873
 20
97.2194440295249933
 30
0.0
 11
535.2410364038557873
 21
97.2212356660010073
 31
0.0
  0
ARC
  5
12C27
  8
0
 10
535.2355150465137967
 20
97.219178044217287
 30
0.0
 40
0.0055277604037975
 50
288.0800995891362959
 51
2.7580288389132082
  0
ARC
  5
12C28
  8
0
 10
535.2473719055896026
 20
97.2279255809320659
 30
0.0
 40
0.0055847743718522
 50
290.4845127010976853
 51
2.5871836906350292
  0
LINE
  5
12C29
  8
0
 10
535.2689804416170318
 20
97.2186856342840287
 30
0.0
 11
535.2772906862545597
 21
97.2216710810647129
 31
0.0
  0
ARC
  5
12C2A
  8
0
 10
535.2872654231910019
 20
97.222807301444135
 30
0.0
 40
0.0015829900702711
 50
288.2936917559213157
 51
331.0635381294541162
  0
ARC
  5
12C2B
  8
0
 10
535.242787858798124
 20
97.2475684426846385
 30
0.0
 40
0.0524884629817197
 50
330.8999280223861774
 51
332.7554314408345135
  0
LINE
  5
12C2C
  8
0
 10
531.863197273930723
 20
87.7789296182999976
 30
0.0
 11
532.6880814574057013
 21
87.8120273069249748
 31
0.0
  0
LINE
  5
12C2D
  8
0
 10
532.6880814574057013
 20
87.8834515728749892
 30
0.0
 11
531.8633506556251405
 21
87.8480309996555349
 31
0.0
  0
LINE
  5
12C2E
  8
0
 10
531.863197659780667
 20
87.9190306803749735
 30
0.0
 11
532.6880814574057013
 21
87.9548801770249895
 31
0.0
  0
LINE
  5
12C2F
  8
0
 10
531.8635463073555911
 20
87.9858104371249965
 30
0.0
 11
532.2077047905563632
 21
87.9976488233784977
 31
0.0
  0
LINE
  5
12C30
  8
0
 10
532.6676787528056138
 20
87.7566247684249845
 30
0.0
 11
531.9062655459057396
 21
87.7343682070249855
 31
0.0
  0
ENDSEC
  0
EOF
