  0
SECTION
  2
HEADER
  9
$ACADVER
  1
AC1009
  9
$INSBASE
 10
4071.5515539775451543
 20
99.9354871532650151
 30
0.0
  9
$EXTMIN
 10
4069.0608397332289314
 20
97.4447008919167956
 30
0.0
  9
$EXTMAX
 10
4074.0422682218609225
 20
102.4262734146116998
 30
0.0
  9
$LIMMIN
 10
0.0
 20
0.0
  9
$LIMMAX
 10
11.6929133858000007
 20
8.2677165353999982
  9
$ORTHOMODE
 70
     1
  9
$REGENMODE
 70
     1
  9
$FILLMODE
 70
     1
  9
$QTEXTMODE
 70
     0
  9
$MIRRTEXT
 70
     0
  9
$DRAGMODE
 70
     2
  9
$LTSCALE
 40
0.6431102362
  9
$OSMODE
 70
  4095
  9
$ATTMODE
 70
     1
  9
$TEXTSIZE
 40
0.2
  9
$TRACEWID
 40
0.05
  9
$TEXTSTYLE
  7
STANDARD
  9
$CLAYER
  8
0
  9
$CELTYPE
  6
BYLAYER
  9
$CECOLOR
 62
   256
  9
$DIMSCALE
 40
1.0
  9
$DIMASZ
 40
0.1875
  9
$DIMEXO
 40
0.0625
  9
$DIMDLI
 40
0.4443307087
  9
$DIMRND
 40
0.0
  9
$DIMDLE
 40
0.0
  9
$DIMEXE
 40
0.125
  9
$DIMTP
 40
0.01
  9
$DIMTM
 40
0.01
  9
$DIMTXT
 40
2.0
  9
$DIMCEN
 40
0.1052362205
  9
$DIMTSZ
 40
0.0
  9
$DIMTOL
 70
     1
  9
$DIMLIM
 70
     0
  9
$DIMTIH
 70
     1
  9
$DIMTOH
 70
     1
  9
$DIMSE1
 70
     0
  9
$DIMSE2
 70
     0
  9
$DIMTAD
 70
     0
  9
$DIMZIN
 70
     0
  9
$DIMBLK
  1

  9
$DIMASO
 70
     1
  9
$DIMSHO
 70
     1
  9
$DIMPOST
  1
\X
  9
$DIMAPOST
  1

  9
$DIMALT
 70
     1
  9
$DIMALTD
 70
     2
  9
$DIMALTF
 40
25.3999999999999986
  9
$DIMLFAC
 40
1.0
  9
$DIMTOFL
 70
     0
  9
$DIMTVP
 40
0.0
  9
$DIMTIX
 70
     0
  9
$DIMSOXD
 70
     0
  9
$DIMSAH
 70
     0
  9
$DIMBLK1
  1

  9
$DIMBLK2
  1

  9
$DIMSTYLE
  2
STANDARD
  9
$DIMCLRD
 70
     0
  9
$DIMCLRE
 70
     0
  9
$DIMCLRT
 70
     0
  9
$DIMTFAC
 40
1.0
  9
$DIMGAP
 40
0.09
  9
$LUNITS
 70
     2
  9
$LUPREC
 70
     4
  9
$SKETCHINC
 40
0.1
  9
$FILLETRAD
 40
0.0
  9
$AUNITS
 70
     0
  9
$AUPREC
 70
     0
  9
$MENU
  1
.
  9
$ELEVATION
 40
0.0
  9
$PELEVATION
 40
0.0
  9
$THICKNESS
 40
0.0
  9
$LIMCHECK
 70
     0
  9
$BLIPMODE
 70
     0
  9
$CHAMFERA
 40
0.0
  9
$CHAMFERB
 40
0.0
  9
$SKPOLY
 70
     0
  9
$TDCREATE
 40
2458060.468368056230247
  9
$TDUPDATE
 40
2460101.5895138890482485
  9
$TDINDWG
 40
0.3353311343
  9
$TDUSRTIMER
 40
0.3353311343
  9
$USRTIMER
 70
     1
  9
$ANGBASE
 50
0.0
  9
$ANGDIR
 70
     0
  9
$PDMODE
 70
     0
  9
$PDSIZE
 40
0.3125
  9
$PLINEWID
 40
0.0
  9
$COORDS
 70
     1
  9
$SPLFRAME
 70
     0
  9
$SPLINETYPE
 70
     6
  9
$SPLINESEGS
 70
     8
  9
$ATTDIA
 70
     1
  9
$ATTREQ
 70
     1
  9
$HANDLING
 70
     1
  9
$HANDSEED
  5
13695
  9
$SURFTAB1
 70
     6
  9
$SURFTAB2
 70
     6
  9
$SURFTYPE
 70
     6
  9
$SURFU
 70
     6
  9
$SURFV
 70
     6
  9
$UCSNAME
  2

  9
$UCSORG
 10
0.0
 20
0.0
 30
0.0
  9
$UCSXDIR
 10
1.0
 20
0.0
 30
0.0
  9
$UCSYDIR
 10
0.0
 20
1.0
 30
0.0
  9
$PUCSNAME
  2

  9
$PUCSORG
 10
0.0
 20
0.0
 30
0.0
  9
$PUCSXDIR
 10
1.0
 20
0.0
 30
0.0
  9
$PUCSYDIR
 10
0.0
 20
1.0
 30
0.0
  9
$USERI1
 70
     0
  9
$USERI2
 70
     0
  9
$USERI3
 70
     0
  9
$USERI4
 70
     0
  9
$USERI5
 70
     0
  9
$USERR1
 40
0.0
  9
$USERR2
 40
0.0
  9
$USERR3
 40
0.0
  9
$USERR4
 40
0.0
  9
$USERR5
 40
0.0
  9
$WORLDVIEW
 70
     1
  9
$SHADEDGE
 70
     3
  9
$SHADEDIF
 70
    70
  9
$TILEMODE
 70
     1
  9
$MAXACTVP
 70
    64
  9
$PLIMCHECK
 70
     0
  9
$PEXTMIN
 10
1.0000000000000000E+20
 20
1.0000000000000000E+20
 30
1.0000000000000000E+20
  9
$PEXTMAX
 10
-1.0000000000000000E+20
 20
-1.0000000000000000E+20
 30
-1.0000000000000000E+20
  9
$PLIMMIN
 10
0.0
 20
0.0
  9
$PLIMMAX
 10
12.0
 20
9.0
  9
$UNITMODE
 70
     0
  9
$VISRETAIN
 70
     1
  9
$PLINEGEN
 70
     0
  9
$PSLTSCALE
 70
     1
  0
ENDSEC
  0
SECTION
  2
TABLES
  0
TABLE
  2
VPORT
 70
     1
  0
VPORT
  2
*ACTIVE
 70
     0
 10
0.0
 20
0.0
 11
1.0
 21
1.0
 12
-193.4547936787041067
 22
-4.3685251453197154
 13
0.0
 23
0.0
 14
1.0
 24
1.0
 15
0.0
 25
0.0
 16
0.0
 26
0.0
 36
122.0237731519760018
 17
4265.00634765625
 27
104.3040122985839986
 37
0.0
 40
5.0224093903957963
 41
2.4474358974358972
 42
50.0
 43
0.0
 44
0.0
 50
0.0
 51
0.0
 71
     0
 72
   100
 73
     1
 74
     1
 75
     0
 76
     0
 77
     0
 78
     0
  0
ENDTAB
  0
TABLE
  2
LTYPE
 70
     2
  0
LTYPE
  2
CONTINUOUS
 70
     0
  3
Solid line
 72
    65
 73
     0
 40
0.0
  0
LTYPE
  2
PHANTOM2
 70
     0
  3
___ _ _ ___ _ _ ___ _ _ ___ _ _
 72
    65
 73
     6
 40
1.25
 49
0.625
 49
-0.125
 49
0.125
 49
-0.125
 49
0.125
 49
-0.125
  0
ENDTAB
  0
TABLE
  2
LAYER
 70
     2
  0
LAYER
  2
0
 70
     0
 62
   255
  6
CONTINUOUS
  0
LAYER
  2
DEFPOINTS
 70
     0
 62
     7
  6
CONTINUOUS
  0
ENDTAB
  0
TABLE
  2
STYLE
 70
     1
  0
STYLE
  2
STANDARD
 70
     0
 40
0.0
 41
0.8
 50
0.0
 71
     0
 42
0.2
  3
txt
  4

  0
ENDTAB
  0
TABLE
  2
VIEW
 70
     0
  0
ENDTAB
  0
TABLE
  2
UCS
 70
     0
  0
ENDTAB
  0
TABLE
  2
APPID
 70
     9
  0
APPID
  2
ACAD
 70
     0
  0
APPID
  2
ACAD_MLEADERVER
 70
     0
  0
APPID
  2
ACAD_EXEMPT_FROM_CAD_STANDARDS
 70
     0
  0
APPID
  2
ACAD_NAV_VCDISPLAY
 70
     0
  0
APPID
  2
ACAECLAYERSTANDARD
 70
     0
  0
APPID
  2
ACCMTRANSPARENCY
 70
     0
  0
APPID
  2
ACAD_DSTYLE_DIMJAG
 70
     0
  0
APPID
  2
ACAD_DSTYLE_DIMTALN
 70
     0
  0
APPID
  2
ACDBATTR
 70
     0
  0
ENDTAB
  0
TABLE
  2
DIMSTYLE
 70
     1
  0
DIMSTYLE
  2
STANDARD
 70
     0
  3

  4

  5

  6

  7

 40
1.0
 41
0.1875
 42
0.0625
 43
0.38
 44
0.125
 45
0.0
 46
0.0
 47
0.01
 48
0.01
140
0.15625
141
0.09
142
0.0
143
25.3999999999999986
144
1.0
145
0.0
146
1.0
147
0.09
 71
     1
 72
     0
 73
     1
 74
     1
 75
     0
 76
     0
 77
     0
 78
     4
170
     0
171
     2
172
     0
173
     0
174
     0
175
     0
176
     0
177
     0
178
     0
  0
ENDTAB
  0
ENDSEC
  0
SECTION
  2
BLOCKS
  0
BLOCK
  8
0
  2
$MODEL_SPACE
 70
     0
 10
0.0
 20
0.0
 30
0.0
  3
$MODEL_SPACE
  1

  0
ENDBLK
  5
21
  8
0
  0
BLOCK
 67
     1
  8
0
  2
$PAPER_SPACE
 70
     0
 10
0.0
 20
0.0
 30
0.0
  3
$PAPER_SPACE
  1

  0
ENDBLK
  5
1D
 67
     1
  8
0
  0
BLOCK
  8
0
  2
_FILLED
 70
     0
 10
0.0
 20
0.0
 30
0.0
  3
_FILLED
  1

  0
SOLID
  5
13185
  8
0
  6
BYBLOCK
 62
     0
 10
0.0
 20
0.0
 30
0.0
 11
-1.0
 21
0.1666666667
 31
0.0
 12
-1.0
 22
-0.1666666667
 32
0.0
 13
-1.0
 23
-0.1666666667
 33
0.0
  0
ENDBLK
  5
13186
  8
0
  6
BYBLOCK
 62
     0
  0
ENDSEC
  0
SECTION
  2
ENTITIES
  0
ATTDEF
  5
12DE9
  8
DEFPOINTS
 10
4071.5522101827250481
 20
99.9399841552961732
 30
0.0
 40
0.001
  1
P22079-00
  3

  2
MODELNUMBER
 70
     0
1001
ACDBATTR
1070
     0
1070
     1
  0
ATTDEF
  5
12DEA
  8
DEFPOINTS
 10
4071.5522101827250481
 20
99.9383174886295222
 30
0.0
 40
0.001
  1
TRADITIONAL
  3

  2
TRADENAME
 70
     0
1001
ACDBATTR
1070
     0
1070
     1
  0
ATTDEF
  5
12DEB
  8
DEFPOINTS
 10
4071.5522101827250481
 20
99.9366508219628571
 30
0.0
 40
0.001
  1
BODY SPRAY
  3

  2
PRODUCT
 70
     0
1001
ACDBATTR
1070
     0
1070
     1
  0
ARC
  5
1336D
  8
0
 10
4071.5515651629939384
 20
60.7485817349986092
 30
0.0
 40
41.6776916796145898
 50
90.0000151948415947
 51
92.9737899375682844
  0
ARC
  5
1336E
  8
0
 10
4069.4042930580849315
 20
102.0827502113831997
 30
0.0
 40
0.2877863749794518
 50
92.9737899375682844
 51
177.0261073176247066
  0
ARC
  5
1336F
  8
0
 10
4110.7899887043377021
 20
99.9354892230280143
 30
0.0
 40
41.7291489711082377
 50
177.0298949853288093
 51
182.9701042038047092
  0
ARC
  5
13370
  8
0
 10
4069.4042936801401993
 20
97.7882288542709119
 30
0.0
 40
0.2877870283027866
 50
182.9738918715084992
 51
267.0259747663184839
  0
ARC
  5
13371
  8
0
 10
4071.5515539871657893
 20
139.1188941258382954
 30
0.0
 40
41.6741932339215069
 50
267.0259747663184839
 51
272.9740252363166064
  0
ARC
  5
13372
  8
0
 10
4069.8970510715789715
 20
101.589992386105294
 30
0.0
 40
0.0893562197988241
 50
90.3021404475198892
 51
179.7968922543772976
  0
LINE
  5
13373
  8
0
 10
4069.8965798675330916
 20
101.6793473634903933
 30
0.0
 11
4073.2065280875581266
 21
101.6793473634903933
 31
0.0
  0
LINE
  5
13374
  8
0
 10
4069.8963087961451492
 20
98.1916308334245684
 30
0.0
 11
4073.2056305260348381
 21
98.1916308334245684
 31
0.0
  0
ARC
  5
13375
  8
0
 10
4069.8970466350110655
 20
98.2809797455203551
 30
0.0
 40
0.08935195856215
 50
180.2326761123183019
 51
269.5268650610476016
  0
LINE
  5
13376
  8
0
 10
4069.8076954132179708
 20
98.2806168914082434
 30
0.0
 11
4069.8076954132179708
 21
101.5903091442069979
 31
0.0
  0
LINE
  5
13377
  8
0
 10
4069.9033865801288812
 20
101.529489222013197
 30
0.0
 11
4069.9033865801288812
 21
98.3414892220132515
 31
0.0
  0
LINE
  5
13378
  8
0
 10
4069.9575539878292147
 20
101.5836566297132038
 30
0.0
 11
4073.1455539673320345
 21
101.5836566297132038
 31
0.0
  0
ARC
  5
13379
  8
0
 10
4069.9575539877578194
 20
101.5294892221838978
 30
0.0
 40
0.0541674075292864
 50
89.9999999201932184
 51
180.0000001805715897
  0
LINE
  5
1337A
  8
0
 10
4069.9575539878292147
 20
98.2873218143132732
 30
0.0
 11
4070.7463112288928642
 21
98.2873218143132732
 31
0.0
  0
LINE
  5
1337B
  8
0
 10
4070.8968170713678774
 20
98.2873218143132732
 30
0.0
 11
4073.1455539672620034
 21
98.2873218143132732
 31
0.0
  0
ARC
  5
1337C
  8
0
 10
4069.9575539878292147
 20
98.3414892220132515
 30
0.0
 40
0.0541674076999987
 50
179.9999999949990013
 51
270.0
  0
ARC
  5
1337D
  8
0
 10
4070.7638044963891844
 20
98.2710092691731631
 30
0.0
 40
0.0239308014588899
 50
112.4248006652593972
 51
137.0269110968523876
  0
ARC
  5
1337E
  8
0
 10
4070.8211556825081061
 20
97.3506811771003697
 30
0.0
 40
0.9447911029674706
 50
85.7840597438450629
 51
94.0349431037700754
  0
ARC
  5
1337F
  8
0
 10
4070.2065174721428775
 20
97.5279195539550159
 30
0.0
 40
1.026257925626832
 50
47.7290412962181207
 51
48.1954375348306883
  0
ARC
  5
13380
  8
0
 10
4070.2686300587961341
 20
101.2200972749404997
 30
0.0
 40
0.0135318484990095
 50
81.2580328014287687
 51
179.9428484926318106
  0
ARC
  5
13381
  8
0
 10
4070.2686479721010073
 20
101.2202137681718028
 30
0.0
 40
0.0134139860392535
 50
338.7414092631364042
 51
81.2580328014286408
  0
ARC
  5
13382
  8
0
 10
4070.2685821828108601
 20
101.2202393635839002
 30
0.0
 40
0.0134845789264875
 50
180.5463890185550895
 51
338.7414092631356084
  0
ARC
  5
13383
  8
0
 10
4070.2686527317141554
 20
101.2200414614869999
 30
0.0
 40
0.0315975469727552
 50
42.5366979866898873
 51
186.7877577385494021
  0
ARC
  5
13384
  8
0
 10
4070.2686527317141554
 20
101.2200414614869999
 30
0.0
 40
0.0315975469727552
 50
186.7877577385494021
 51
42.5366979866898873
  0
ARC
  5
13385
  8
0
 10
4070.2740120547800871
 20
101.2136671730433051
 30
0.0
 40
0.0597072407802735
 50
73.1263455224073766
 51
178.7978325632385861
  0
ARC
  5
13386
  8
0
 10
4070.2743810047959414
 20
101.2141212399479002
 30
0.0
 40
0.0591660442493971
 50
351.8571230818798767
 51
73.3406188736506408
  0
ARC
  5
13387
  8
0
 10
4070.27393252449383
 20
101.2141854105986027
 30
0.0
 40
0.0596190922081493
 50
179.2941678197466047
 51
351.8571230818798767
  0
ARC
  5
13388
  8
0
 10
4070.6405501679041663
 20
101.2200972749404997
 30
0.0
 40
0.0135318484990095
 50
81.2580328014287687
 51
179.9428484926318106
  0
ARC
  5
13389
  8
0
 10
4070.64056808120813
 20
101.2202137681718028
 30
0.0
 40
0.0134139860392535
 50
338.7414092631364042
 51
81.2580328014286408
  0
ARC
  5
1338A
  8
0
 10
4070.6405022919188923
 20
101.2202393635839002
 30
0.0
 40
0.0134845789264875
 50
180.5463890185550895
 51
338.7414092631356084
  0
ARC
  5
1338B
  8
0
 10
4070.6405728408208233
 20
101.2200414614869999
 30
0.0
 40
0.0315975469727552
 50
42.5366979866898873
 51
186.7877577385494021
  0
ARC
  5
1338C
  8
0
 10
4070.6405728408208233
 20
101.2200414614869999
 30
0.0
 40
0.0315975469727552
 50
186.7877577385494021
 51
42.5366979866898873
  0
ARC
  5
1338D
  8
0
 10
4070.6459321638881192
 20
101.2136671730433051
 30
0.0
 40
0.0597072407802735
 50
73.1263455224073766
 51
178.7978325632385861
  0
ARC
  5
1338E
  8
0
 10
4070.6463011139030641
 20
101.2141212399479002
 30
0.0
 40
0.0591660442493971
 50
351.8571230818798767
 51
73.3406188736506408
  0
ARC
  5
1338F
  8
0
 10
4070.6458526336018622
 20
101.2141854105986027
 30
0.0
 40
0.0596190922081493
 50
179.2941678197466047
 51
351.8571230818798767
  0
ARC
  5
13390
  8
0
 10
4071.0037533985150731
 20
101.2200972749404997
 30
0.0
 40
0.0135318484990095
 50
81.2580328014287687
 51
179.9428484926318106
  0
ARC
  5
13391
  8
0
 10
4071.0037713118190368
 20
101.2202137681718028
 30
0.0
 40
0.0134139860392535
 50
338.7414092631364042
 51
81.2580328014286408
  0
ARC
  5
13392
  8
0
 10
4071.0037055225311633
 20
101.2202393635839002
 30
0.0
 40
0.0134845789264875
 50
180.5463890185550895
 51
338.7414092631356084
  0
ARC
  5
13393
  8
0
 10
4071.0037760714330943
 20
101.2200414614869999
 30
0.0
 40
0.0315975469727552
 50
42.5366979866898873
 51
186.7877577385494021
  0
ARC
  5
13394
  8
0
 10
4071.0037760714330943
 20
101.2200414614869999
 30
0.0
 40
0.0315975469727552
 50
186.7877577385494021
 51
42.5366979866898873
  0
ARC
  5
13395
  8
0
 10
4071.0091353944999355
 20
101.2136671730433051
 30
0.0
 40
0.0597072407802735
 50
73.1263455224073766
 51
178.7978325632385861
  0
ARC
  5
13396
  8
0
 10
4071.0095043445139709
 20
101.2141212399479002
 30
0.0
 40
0.0591660442493971
 50
351.8571230818798767
 51
73.3406188736506408
  0
ARC
  5
13397
  8
0
 10
4071.0090558642132237
 20
101.2141854105986027
 30
0.0
 40
0.0596190922081493
 50
179.2941678197466047
 51
351.8571230818798767
  0
ARC
  5
13398
  8
0
 10
4071.3713150984358435
 20
101.2200972749404997
 30
0.0
 40
0.0135318484990095
 50
81.2580328014287687
 51
179.9428484926318106
  0
ARC
  5
13399
  8
0
 10
4071.3713330117398073
 20
101.2202137681718028
 30
0.0
 40
0.0134139860392535
 50
338.7414092631364042
 51
81.2580328014286408
  0
ARC
  5
1339A
  8
0
 10
4071.3712672224510243
 20
101.2202393635839002
 30
0.0
 40
0.0134845789264875
 50
180.5463890185550895
 51
338.7414092631356084
  0
ARC
  5
1339B
  8
0
 10
4071.3713377713529553
 20
101.2200414614869999
 30
0.0
 40
0.0315975469727552
 50
42.5366979866898873
 51
186.7877577385494021
  0
ARC
  5
1339C
  8
0
 10
4071.3713377713529553
 20
101.2200414614869999
 30
0.0
 40
0.0315975469727552
 50
186.7877577385494021
 51
42.5366979866898873
  0
ARC
  5
1339D
  8
0
 10
4071.3766970944211607
 20
101.2136671730433051
 30
0.0
 40
0.0597072407802735
 50
73.1263455224073766
 51
178.7978325632385861
  0
ARC
  5
1339E
  8
0
 10
4071.3770660444351961
 20
101.2141212399479002
 30
0.0
 40
0.0591660442493971
 50
351.8571230818798767
 51
73.3406188736506408
  0
ARC
  5
1339F
  8
0
 10
4071.3766175641330847
 20
101.2141854105986027
 30
0.0
 40
0.0596190922081493
 50
179.2941678197466047
 51
351.8571230818798767
  0
ARC
  5
133A0
  8
0
 10
4070.2686300587961341
 20
100.7854114440538069
 30
0.0
 40
0.0135318484990095
 50
81.2580328014287687
 51
179.9428484926318106
  0
ARC
  5
133A1
  8
0
 10
4070.2686479721010073
 20
100.7855279372850958
 30
0.0
 40
0.0134139860392535
 50
338.7414092631364042
 51
81.2580328014286408
  0
ARC
  5
133A2
  8
0
 10
4070.2685821828108601
 20
100.7855535326971932
 30
0.0
 40
0.0134845789264875
 50
180.5463890185550895
 51
338.7414092631356084
  0
ARC
  5
133A3
  8
0
 10
4070.2686527317141554
 20
100.7853556306002929
 30
0.0
 40
0.0315975469727552
 50
42.5366979866898873
 51
186.7877577385494021
  0
ARC
  5
133A4
  8
0
 10
4070.2686527317141554
 20
100.7853556306002929
 30
0.0
 40
0.0315975469727552
 50
186.7877577385494021
 51
42.5366979866898873
  0
ARC
  5
133A5
  8
0
 10
4070.2740120547800871
 20
100.7789813421565981
 30
0.0
 40
0.0597072407802735
 50
73.1263455224073766
 51
178.7978325632385861
  0
ARC
  5
133A6
  8
0
 10
4070.2743810047959414
 20
100.7794354090611932
 30
0.0
 40
0.0591660442493971
 50
351.8571230818798767
 51
73.3406188736506408
  0
ARC
  5
133A7
  8
0
 10
4070.27393252449383
 20
100.7794995797118958
 30
0.0
 40
0.0596190922081493
 50
179.2941678197466047
 51
351.8571230818798767
  0
ARC
  5
133A8
  8
0
 10
4070.6405501679041663
 20
100.7854114440538069
 30
0.0
 40
0.0135318484990095
 50
81.2580328014287687
 51
179.9428484926318106
  0
ARC
  5
133A9
  8
0
 10
4070.64056808120813
 20
100.7855279372850958
 30
0.0
 40
0.0134139860392535
 50
338.7414092631364042
 51
81.2580328014286408
  0
ARC
  5
133AA
  8
0
 10
4070.6405022919188923
 20
100.7855535326971932
 30
0.0
 40
0.0134845789264875
 50
180.5463890185550895
 51
338.7414092631356084
  0
ARC
  5
133AB
  8
0
 10
4070.6405728408208233
 20
100.7853556306002929
 30
0.0
 40
0.0315975469727552
 50
42.5366979866898873
 51
186.7877577385494021
  0
ARC
  5
133AC
  8
0
 10
4070.6405728408208233
 20
100.7853556306002929
 30
0.0
 40
0.0315975469727552
 50
186.7877577385494021
 51
42.5366979866898873
  0
ARC
  5
133AD
  8
0
 10
4070.6459321638881192
 20
100.7789813421565981
 30
0.0
 40
0.0597072407802735
 50
73.1263455224073766
 51
178.7978325632385861
  0
ARC
  5
133AE
  8
0
 10
4070.6463011139030641
 20
100.7794354090611932
 30
0.0
 40
0.0591660442493971
 50
351.8571230818798767
 51
73.3406188736506408
  0
ARC
  5
133AF
  8
0
 10
4070.6458526336018622
 20
100.7794995797118958
 30
0.0
 40
0.0596190922081493
 50
179.2941678197466047
 51
351.8571230818798767
  0
ARC
  5
133B0
  8
0
 10
4071.0037533985150731
 20
100.7854114440538069
 30
0.0
 40
0.0135318484990095
 50
81.2580328014287687
 51
179.9428484926318106
  0
ARC
  5
133B1
  8
0
 10
4071.0037713118190368
 20
100.7855279372850958
 30
0.0
 40
0.0134139860392535
 50
338.7414092631364042
 51
81.2580328014286408
  0
ARC
  5
133B2
  8
0
 10
4071.0037055225311633
 20
100.7855535326971932
 30
0.0
 40
0.0134845789264875
 50
180.5463890185550895
 51
338.7414092631356084
  0
ARC
  5
133B3
  8
0
 10
4071.0037760714330943
 20
100.7853556306002929
 30
0.0
 40
0.0315975469727552
 50
42.5366979866898873
 51
186.7877577385494021
  0
ARC
  5
133B4
  8
0
 10
4071.0037760714330943
 20
100.7853556306002929
 30
0.0
 40
0.0315975469727552
 50
186.7877577385494021
 51
42.5366979866898873
  0
ARC
  5
133B5
  8
0
 10
4071.0091353944999355
 20
100.7789813421565981
 30
0.0
 40
0.0597072407802735
 50
73.1263455224073766
 51
178.7978325632385861
  0
ARC
  5
133B6
  8
0
 10
4071.0095043445139709
 20
100.7794354090611932
 30
0.0
 40
0.0591660442493971
 50
351.8571230818798767
 51
73.3406188736506408
  0
ARC
  5
133B7
  8
0
 10
4071.0090558642132237
 20
100.7794995797118958
 30
0.0
 40
0.0596190922081493
 50
179.2941678197466047
 51
351.8571230818798767
  0
ARC
  5
133B8
  8
0
 10
4071.3713150984358435
 20
100.7854114440538069
 30
0.0
 40
0.0135318484990095
 50
81.2580328014287687
 51
179.9428484926318106
  0
ARC
  5
133B9
  8
0
 10
4071.3713330117398073
 20
100.7855279372850958
 30
0.0
 40
0.0134139860392535
 50
338.7414092631364042
 51
81.2580328014286408
  0
ARC
  5
133BA
  8
0
 10
4071.3712672224510243
 20
100.7855535326971932
 30
0.0
 40
0.0134845789264875
 50
180.5463890185550895
 51
338.7414092631356084
  0
ARC
  5
133BB
  8
0
 10
4071.3713377713529553
 20
100.7853556306002929
 30
0.0
 40
0.0315975469727552
 50
42.5366979866898873
 51
186.7877577385494021
  0
ARC
  5
133BC
  8
0
 10
4071.3713377713529553
 20
100.7853556306002929
 30
0.0
 40
0.0315975469727552
 50
186.7877577385494021
 51
42.5366979866898873
  0
ARC
  5
133BD
  8
0
 10
4071.3766970944211607
 20
100.7789813421565981
 30
0.0
 40
0.0597072407802735
 50
73.1263455224073766
 51
178.7978325632385861
  0
ARC
  5
133BE
  8
0
 10
4071.3770660444351961
 20
100.7794354090611932
 30
0.0
 40
0.0591660442493971
 50
351.8571230818798767
 51
73.3406188736506408
  0
ARC
  5
133BF
  8
0
 10
4071.3766175641330847
 20
100.7794995797118958
 30
0.0
 40
0.0596190922081493
 50
179.2941678197466047
 51
351.8571230818798767
  0
ARC
  5
133C0
  8
0
 10
4070.2686300587961341
 20
100.3655866559056022
 30
0.0
 40
0.0135318484990095
 50
81.2580328014287687
 51
179.9428484926318106
  0
ARC
  5
133C1
  8
0
 10
4070.2686479721010073
 20
100.3657031491369054
 30
0.0
 40
0.0134139860392535
 50
338.7414092631364042
 51
81.2580328014286408
  0
ARC
  5
133C2
  8
0
 10
4070.2685821828108601
 20
100.3657287445490027
 30
0.0
 40
0.0134845789264875
 50
180.5463890185550895
 51
338.7414092631356084
  0
ARC
  5
133C3
  8
0
 10
4070.2686527317141554
 20
100.3655308424521024
 30
0.0
 40
0.0315975469727552
 50
42.5366979866898873
 51
186.7877577385494021
  0
ARC
  5
133C4
  8
0
 10
4070.2686527317141554
 20
100.3655308424521024
 30
0.0
 40
0.0315975469727552
 50
186.7877577385494021
 51
42.5366979866898873
  0
ARC
  5
133C5
  8
0
 10
4070.2740120547800871
 20
100.3591565540082939
 30
0.0
 40
0.0597072407802735
 50
73.1263455224073766
 51
178.7978325632385861
  0
ARC
  5
133C6
  8
0
 10
4070.2743810047959414
 20
100.3596106209130028
 30
0.0
 40
0.0591660442493971
 50
351.8571230818798767
 51
73.3406188736506408
  0
ARC
  5
133C7
  8
0
 10
4070.27393252449383
 20
100.3596747915637053
 30
0.0
 40
0.0596190922081493
 50
179.2941678197466047
 51
351.8571230818798767
  0
ARC
  5
133C8
  8
0
 10
4070.6405501679041663
 20
100.3655866559056022
 30
0.0
 40
0.0135318484990095
 50
81.2580328014287687
 51
179.9428484926318106
  0
ARC
  5
133C9
  8
0
 10
4070.64056808120813
 20
100.3657031491369054
 30
0.0
 40
0.0134139860392535
 50
338.7414092631364042
 51
81.2580328014286408
  0
ARC
  5
133CA
  8
0
 10
4070.6405022919188923
 20
100.3657287445490027
 30
0.0
 40
0.0134845789264875
 50
180.5463890185550895
 51
338.7414092631356084
  0
ARC
  5
133CB
  8
0
 10
4070.6405728408208233
 20
100.3655308424521024
 30
0.0
 40
0.0315975469727552
 50
42.5366979866898873
 51
186.7877577385494021
  0
ARC
  5
133CC
  8
0
 10
4070.6405728408208233
 20
100.3655308424521024
 30
0.0
 40
0.0315975469727552
 50
186.7877577385494021
 51
42.5366979866898873
  0
ARC
  5
133CD
  8
0
 10
4070.6459321638881192
 20
100.3591565540082939
 30
0.0
 40
0.0597072407802735
 50
73.1263455224073766
 51
178.7978325632385861
  0
ARC
  5
133CE
  8
0
 10
4070.6463011139030641
 20
100.3596106209130028
 30
0.0
 40
0.0591660442493971
 50
351.8571230818798767
 51
73.3406188736506408
  0
ARC
  5
133CF
  8
0
 10
4070.6458526336018622
 20
100.3596747915637053
 30
0.0
 40
0.0596190922081493
 50
179.2941678197466047
 51
351.8571230818798767
  0
ARC
  5
133D0
  8
0
 10
4071.0037533985150731
 20
100.3655866559056022
 30
0.0
 40
0.0135318484990095
 50
81.2580328014287687
 51
179.9428484926318106
  0
ARC
  5
133D1
  8
0
 10
4071.0037713118190368
 20
100.3657031491369054
 30
0.0
 40
0.0134139860392535
 50
338.7414092631364042
 51
81.2580328014286408
  0
ARC
  5
133D2
  8
0
 10
4071.0037055225311633
 20
100.3657287445490027
 30
0.0
 40
0.0134845789264875
 50
180.5463890185550895
 51
338.7414092631356084
  0
ARC
  5
133D3
  8
0
 10
4071.0037760714330943
 20
100.3655308424521024
 30
0.0
 40
0.0315975469727552
 50
42.5366979866898873
 51
186.7877577385494021
  0
ARC
  5
133D4
  8
0
 10
4071.0037760714330943
 20
100.3655308424521024
 30
0.0
 40
0.0315975469727552
 50
186.7877577385494021
 51
42.5366979866898873
  0
ARC
  5
133D5
  8
0
 10
4071.0091353944999355
 20
100.3591565540082939
 30
0.0
 40
0.0597072407802735
 50
73.1263455224073766
 51
178.7978325632385861
  0
ARC
  5
133D6
  8
0
 10
4071.0095043445139709
 20
100.3596106209130028
 30
0.0
 40
0.0591660442493971
 50
351.8571230818798767
 51
73.3406188736506408
  0
ARC
  5
133D7
  8
0
 10
4071.0090558642132237
 20
100.3596747915637053
 30
0.0
 40
0.0596190922081493
 50
179.2941678197466047
 51
351.8571230818798767
  0
ARC
  5
133D8
  8
0
 10
4071.3713150984358435
 20
100.3655866559056022
 30
0.0
 40
0.0135318484990095
 50
81.2580328014287687
 51
179.9428484926318106
  0
ARC
  5
133D9
  8
0
 10
4071.3713330117398073
 20
100.3657031491369054
 30
0.0
 40
0.0134139860392535
 50
338.7414092631364042
 51
81.2580328014286408
  0
ARC
  5
133DA
  8
0
 10
4071.3712672224510243
 20
100.3657287445490027
 30
0.0
 40
0.0134845789264875
 50
180.5463890185550895
 51
338.7414092631356084
  0
ARC
  5
133DB
  8
0
 10
4071.3713377713529553
 20
100.3655308424521024
 30
0.0
 40
0.0315975469727552
 50
42.5366979866898873
 51
186.7877577385494021
  0
ARC
  5
133DC
  8
0
 10
4071.3713377713529553
 20
100.3655308424521024
 30
0.0
 40
0.0315975469727552
 50
186.7877577385494021
 51
42.5366979866898873
  0
ARC
  5
133DD
  8
0
 10
4071.3766970944211607
 20
100.3591565540082939
 30
0.0
 40
0.0597072407802735
 50
73.1263455224073766
 51
178.7978325632385861
  0
ARC
  5
133DE
  8
0
 10
4071.3770660444351961
 20
100.3596106209130028
 30
0.0
 40
0.0591660442493971
 50
351.8571230818798767
 51
73.3406188736506408
  0
ARC
  5
133DF
  8
0
 10
4071.3766175641330847
 20
100.3596747915637053
 30
0.0
 40
0.0596190922081493
 50
179.2941678197466047
 51
351.8571230818798767
  0
ARC
  5
133E0
  8
0
 10
4070.2686300587961341
 20
99.9406097593628289
 30
0.0
 40
0.0135318484990095
 50
81.2580328014287687
 51
179.9428484926318106
  0
ARC
  5
133E1
  8
0
 10
4070.2686479721010073
 20
99.9407262525941462
 30
0.0
 40
0.0134139860392535
 50
338.7414092631364042
 51
81.2580328014286408
  0
ARC
  5
133E2
  8
0
 10
4070.2685821828108601
 20
99.9407518480062294
 30
0.0
 40
0.0134845789264875
 50
180.5463890185550895
 51
338.7414092631356084
  0
ARC
  5
133E3
  8
0
 10
4070.2686527317141554
 20
99.9405539459093433
 30
0.0
 40
0.0315975469727552
 50
42.5366979866898873
 51
186.7877577385494021
  0
ARC
  5
133E4
  8
0
 10
4070.2686527317141554
 20
99.9405539459093433
 30
0.0
 40
0.0315975469727552
 50
186.7877577385494021
 51
42.5366979866898873
  0
ARC
  5
133E5
  8
0
 10
4070.2740120547800871
 20
99.93417965746562
 30
0.0
 40
0.0597072407802735
 50
73.1263455224073766
 51
178.7978325632385861
  0
ARC
  5
133E6
  8
0
 10
4070.2743810047959414
 20
99.9346337243702436
 30
0.0
 40
0.0591660442493971
 50
351.8571230818798767
 51
73.3406188736506408
  0
ARC
  5
133E7
  8
0
 10
4070.27393252449383
 20
99.9346978950209746
 30
0.0
 40
0.0596190922081493
 50
179.2941678197466047
 51
351.8571230818798767
  0
ARC
  5
133E8
  8
0
 10
4070.6405501679041663
 20
99.9406097593628289
 30
0.0
 40
0.0135318484990095
 50
81.2580328014287687
 51
179.9428484926318106
  0
ARC
  5
133E9
  8
0
 10
4070.64056808120813
 20
99.9407262525941462
 30
0.0
 40
0.0134139860392535
 50
338.7414092631364042
 51
81.2580328014286408
  0
ARC
  5
133EA
  8
0
 10
4070.6405022919188923
 20
99.9407518480062294
 30
0.0
 40
0.0134845789264875
 50
180.5463890185550895
 51
338.7414092631356084
  0
ARC
  5
133EB
  8
0
 10
4070.6405728408208233
 20
99.9405539459093433
 30
0.0
 40
0.0315975469727552
 50
42.5366979866898873
 51
186.7877577385494021
  0
ARC
  5
133EC
  8
0
 10
4070.6405728408208233
 20
99.9405539459093433
 30
0.0
 40
0.0315975469727552
 50
186.7877577385494021
 51
42.5366979866898873
  0
ARC
  5
133ED
  8
0
 10
4070.6459321638881192
 20
99.93417965746562
 30
0.0
 40
0.0597072407802735
 50
73.1263455224073766
 51
178.7978325632385861
  0
ARC
  5
133EE
  8
0
 10
4070.6463011139030641
 20
99.9346337243702436
 30
0.0
 40
0.0591660442493971
 50
351.8571230818798767
 51
73.3406188736506408
  0
ARC
  5
133EF
  8
0
 10
4070.6458526336018622
 20
99.9346978950209746
 30
0.0
 40
0.0596190922081493
 50
179.2941678197466047
 51
351.8571230818798767
  0
ARC
  5
133F0
  8
0
 10
4071.0037533985150731
 20
99.9406097593628289
 30
0.0
 40
0.0135318484990095
 50
81.2580328014287687
 51
179.9428484926318106
  0
ARC
  5
133F1
  8
0
 10
4071.0037713118190368
 20
99.9407262525941462
 30
0.0
 40
0.0134139860392535
 50
338.7414092631364042
 51
81.2580328014286408
  0
ARC
  5
133F2
  8
0
 10
4071.0037055225311633
 20
99.9407518480062294
 30
0.0
 40
0.0134845789264875
 50
180.5463890185550895
 51
338.7414092631356084
  0
ARC
  5
133F3
  8
0
 10
4071.0037760714330943
 20
99.9405539459093433
 30
0.0
 40
0.0315975469727552
 50
42.5366979866898873
 51
186.7877577385494021
  0
ARC
  5
133F4
  8
0
 10
4071.0037760714330943
 20
99.9405539459093433
 30
0.0
 40
0.0315975469727552
 50
186.7877577385494021
 51
42.5366979866898873
  0
ARC
  5
133F5
  8
0
 10
4071.0091353944999355
 20
99.93417965746562
 30
0.0
 40
0.0597072407802735
 50
73.1263455224073766
 51
178.7978325632385861
  0
ARC
  5
133F6
  8
0
 10
4071.0095043445139709
 20
99.9346337243702436
 30
0.0
 40
0.0591660442493971
 50
351.8571230818798767
 51
73.3406188736506408
  0
ARC
  5
133F7
  8
0
 10
4071.0090558642132237
 20
99.9346978950209746
 30
0.0
 40
0.0596190922081493
 50
179.2941678197466047
 51
351.8571230818798767
  0
ARC
  5
133F8
  8
0
 10
4071.3713150984358435
 20
99.9406097593628289
 30
0.0
 40
0.0135318484990095
 50
81.2580328014287687
 51
179.9428484926318106
  0
ARC
  5
133F9
  8
0
 10
4071.3713330117398073
 20
99.9407262525941462
 30
0.0
 40
0.0134139860392535
 50
338.7414092631364042
 51
81.2580328014286408
  0
ARC
  5
133FA
  8
0
 10
4071.3712672224510243
 20
99.9407518480062294
 30
0.0
 40
0.0134845789264875
 50
180.5463890185550895
 51
338.7414092631356084
  0
ARC
  5
133FB
  8
0
 10
4071.3713377713529553
 20
99.9405539459093433
 30
0.0
 40
0.0315975469727552
 50
42.5366979866898873
 51
186.7877577385494021
  0
ARC
  5
133FC
  8
0
 10
4071.3713377713529553
 20
99.9405539459093433
 30
0.0
 40
0.0315975469727552
 50
186.7877577385494021
 51
42.5366979866898873
  0
ARC
  5
133FD
  8
0
 10
4071.3766970944211607
 20
99.93417965746562
 30
0.0
 40
0.0597072407802735
 50
73.1263455224073766
 51
178.7978325632385861
  0
ARC
  5
133FE
  8
0
 10
4071.3770660444351961
 20
99.9346337243702436
 30
0.0
 40
0.0591660442493971
 50
351.8571230818798767
 51
73.3406188736506408
  0
ARC
  5
133FF
  8
0
 10
4071.3766175641330847
 20
99.9346978950209746
 30
0.0
 40
0.0596190922081493
 50
179.2941678197466047
 51
351.8571230818798767
  0
ARC
  5
13400
  8
0
 10
4070.2686300587961341
 20
99.5074501585696254
 30
0.0
 40
0.0135318484990095
 50
81.2580328014287687
 51
179.9428484926318106
  0
ARC
  5
13401
  8
0
 10
4070.2686479721010073
 20
99.5075666518009569
 30
0.0
 40
0.0134139860392535
 50
338.7414092631364042
 51
81.2580328014286408
  0
ARC
  5
13402
  8
0
 10
4070.2685821828108601
 20
99.5075922472130259
 30
0.0
 40
0.0134845789264875
 50
180.5463890185550895
 51
338.7414092631356084
  0
ARC
  5
13403
  8
0
 10
4070.2686527317141554
 20
99.5073943451161398
 30
0.0
 40
0.0315975469727552
 50
42.5366979866898873
 51
186.7877577385494021
  0
ARC
  5
13404
  8
0
 10
4070.2686527317141554
 20
99.5073943451161398
 30
0.0
 40
0.0315975469727552
 50
186.7877577385494021
 51
42.5366979866898873
  0
ARC
  5
13405
  8
0
 10
4070.2740120547800871
 20
99.5010200566724308
 30
0.0
 40
0.0597072407802735
 50
73.1263455224073766
 51
178.7978325632385861
  0
ARC
  5
13406
  8
0
 10
4070.2743810047959414
 20
99.5014741235770401
 30
0.0
 40
0.0591660442493971
 50
351.8571230818798767
 51
73.3406188736506408
  0
ARC
  5
13407
  8
0
 10
4070.27393252449383
 20
99.5015382942277711
 30
0.0
 40
0.0596190922081493
 50
179.2941678197466047
 51
351.8571230818798767
  0
ARC
  5
13408
  8
0
 10
4070.6405501679041663
 20
99.5074501585696254
 30
0.0
 40
0.0135318484990095
 50
81.2580328014287687
 51
179.9428484926318106
  0
ARC
  5
13409
  8
0
 10
4070.64056808120813
 20
99.5075666518009569
 30
0.0
 40
0.0134139860392535
 50
338.7414092631364042
 51
81.2580328014286408
  0
ARC
  5
1340A
  8
0
 10
4070.6405022919188923
 20
99.5075922472130259
 30
0.0
 40
0.0134845789264875
 50
180.5463890185550895
 51
338.7414092631356084
  0
ARC
  5
1340B
  8
0
 10
4070.6405728408208233
 20
99.5073943451161398
 30
0.0
 40
0.0315975469727552
 50
42.5366979866898873
 51
186.7877577385494021
  0
ARC
  5
1340C
  8
0
 10
4070.6405728408208233
 20
99.5073943451161398
 30
0.0
 40
0.0315975469727552
 50
186.7877577385494021
 51
42.5366979866898873
  0
ARC
  5
1340D
  8
0
 10
4070.6459321638881192
 20
99.5010200566724308
 30
0.0
 40
0.0597072407802735
 50
73.1263455224073766
 51
178.7978325632385861
  0
ARC
  5
1340E
  8
0
 10
4070.6463011139030641
 20
99.5014741235770401
 30
0.0
 40
0.0591660442493971
 50
351.8571230818798767
 51
73.3406188736506408
  0
ARC
  5
1340F
  8
0
 10
4070.6458526336018622
 20
99.5015382942277711
 30
0.0
 40
0.0596190922081493
 50
179.2941678197466047
 51
351.8571230818798767
  0
ARC
  5
13410
  8
0
 10
4071.0037533985150731
 20
99.5074501585696254
 30
0.0
 40
0.0135318484990095
 50
81.2580328014287687
 51
179.9428484926318106
  0
ARC
  5
13411
  8
0
 10
4071.0037713118190368
 20
99.5075666518009569
 30
0.0
 40
0.0134139860392535
 50
338.7414092631364042
 51
81.2580328014286408
  0
ARC
  5
13412
  8
0
 10
4071.0037055225311633
 20
99.5075922472130259
 30
0.0
 40
0.0134845789264875
 50
180.5463890185550895
 51
338.7414092631356084
  0
ARC
  5
13413
  8
0
 10
4071.0037760714330943
 20
99.5073943451161398
 30
0.0
 40
0.0315975469727552
 50
42.5366979866898873
 51
186.7877577385494021
  0
ARC
  5
13414
  8
0
 10
4071.0037760714330943
 20
99.5073943451161398
 30
0.0
 40
0.0315975469727552
 50
186.7877577385494021
 51
42.5366979866898873
  0
ARC
  5
13415
  8
0
 10
4071.0091353944999355
 20
99.5010200566724308
 30
0.0
 40
0.0597072407802735
 50
73.1263455224073766
 51
178.7978325632385861
  0
ARC
  5
13416
  8
0
 10
4071.0095043445139709
 20
99.5014741235770401
 30
0.0
 40
0.0591660442493971
 50
351.8571230818798767
 51
73.3406188736506408
  0
ARC
  5
13417
  8
0
 10
4071.0090558642132237
 20
99.5015382942277711
 30
0.0
 40
0.0596190922081493
 50
179.2941678197466047
 51
351.8571230818798767
  0
ARC
  5
13418
  8
0
 10
4071.3713150984358435
 20
99.5074501585696254
 30
0.0
 40
0.0135318484990095
 50
81.2580328014287687
 51
179.9428484926318106
  0
ARC
  5
13419
  8
0
 10
4071.3713330117398073
 20
99.5075666518009569
 30
0.0
 40
0.0134139860392535
 50
338.7414092631364042
 51
81.2580328014286408
  0
ARC
  5
1341A
  8
0
 10
4071.3712672224510243
 20
99.5075922472130259
 30
0.0
 40
0.0134845789264875
 50
180.5463890185550895
 51
338.7414092631356084
  0
ARC
  5
1341B
  8
0
 10
4071.3713377713529553
 20
99.5073943451161398
 30
0.0
 40
0.0315975469727552
 50
42.5366979866898873
 51
186.7877577385494021
  0
ARC
  5
1341C
  8
0
 10
4071.3713377713529553
 20
99.5073943451161398
 30
0.0
 40
0.0315975469727552
 50
186.7877577385494021
 51
42.5366979866898873
  0
ARC
  5
1341D
  8
0
 10
4071.3766970944211607
 20
99.5010200566724308
 30
0.0
 40
0.0597072407802735
 50
73.1263455224073766
 51
178.7978325632385861
  0
ARC
  5
1341E
  8
0
 10
4071.3770660444351961
 20
99.5014741235770401
 30
0.0
 40
0.0591660442493971
 50
351.8571230818798767
 51
73.3406188736506408
  0
ARC
  5
1341F
  8
0
 10
4071.3766175641330847
 20
99.5015382942277711
 30
0.0
 40
0.0596190922081493
 50
179.2941678197466047
 51
351.8571230818798767
  0
ARC
  5
13420
  8
0
 10
4070.2686300587961341
 20
99.0847746564091949
 30
0.0
 40
0.0135318484990095
 50
81.2580328014287687
 51
179.9428484926318106
  0
ARC
  5
13421
  8
0
 10
4070.2686479721010073
 20
99.0848911496405265
 30
0.0
 40
0.0134139860392535
 50
338.7414092631364042
 51
81.2580328014286408
  0
ARC
  5
13422
  8
0
 10
4070.2685821828108601
 20
99.0849167450526238
 30
0.0
 40
0.0134845789264875
 50
180.5463890185550895
 51
338.7414092631356084
  0
ARC
  5
13423
  8
0
 10
4070.2686527317141554
 20
99.0847188429557235
 30
0.0
 40
0.0315975469727552
 50
42.5366979866898873
 51
186.7877577385494021
  0
ARC
  5
13424
  8
0
 10
4070.2686527317141554
 20
99.0847188429557235
 30
0.0
 40
0.0315975469727552
 50
186.7877577385494021
 51
42.5366979866898873
  0
ARC
  5
13425
  8
0
 10
4070.2740120547800871
 20
99.0783445545120145
 30
0.0
 40
0.0597072407802735
 50
73.1263455224073766
 51
178.7978325632385861
  0
ARC
  5
13426
  8
0
 10
4070.2743810047959414
 20
99.0787986214166239
 30
0.0
 40
0.0591660442493971
 50
351.8571230818798767
 51
73.3406188736506408
  0
ARC
  5
13427
  8
0
 10
4070.27393252449383
 20
99.0788627920673548
 30
0.0
 40
0.0596190922081493
 50
179.2941678197466047
 51
351.8571230818798767
  0
ARC
  5
13428
  8
0
 10
4070.6405501679041663
 20
99.0847746564091949
 30
0.0
 40
0.0135318484990095
 50
81.2580328014287687
 51
179.9428484926318106
  0
ARC
  5
13429
  8
0
 10
4070.64056808120813
 20
99.0848911496405265
 30
0.0
 40
0.0134139860392535
 50
338.7414092631364042
 51
81.2580328014286408
  0
ARC
  5
1342A
  8
0
 10
4070.6405022919188923
 20
99.0849167450526238
 30
0.0
 40
0.0134845789264875
 50
180.5463890185550895
 51
338.7414092631356084
  0
ARC
  5
1342B
  8
0
 10
4070.6405728408208233
 20
99.0847188429557235
 30
0.0
 40
0.0315975469727552
 50
42.5366979866898873
 51
186.7877577385494021
  0
ARC
  5
1342C
  8
0
 10
4070.6405728408208233
 20
99.0847188429557235
 30
0.0
 40
0.0315975469727552
 50
186.7877577385494021
 51
42.5366979866898873
  0
ARC
  5
1342D
  8
0
 10
4070.6459321638881192
 20
99.0783445545120145
 30
0.0
 40
0.0597072407802735
 50
73.1263455224073766
 51
178.7978325632385861
  0
ARC
  5
1342E
  8
0
 10
4070.6463011139030641
 20
99.0787986214166239
 30
0.0
 40
0.0591660442493971
 50
351.8571230818798767
 51
73.3406188736506408
  0
ARC
  5
1342F
  8
0
 10
4070.6458526336018622
 20
99.0788627920673548
 30
0.0
 40
0.0596190922081493
 50
179.2941678197466047
 51
351.8571230818798767
  0
ARC
  5
13430
  8
0
 10
4071.0037533985150731
 20
99.0847746564091949
 30
0.0
 40
0.0135318484990095
 50
81.2580328014287687
 51
179.9428484926318106
  0
ARC
  5
13431
  8
0
 10
4071.0037713118190368
 20
99.0848911496405265
 30
0.0
 40
0.0134139860392535
 50
338.7414092631364042
 51
81.2580328014286408
  0
ARC
  5
13432
  8
0
 10
4071.0037055225311633
 20
99.0849167450526238
 30
0.0
 40
0.0134845789264875
 50
180.5463890185550895
 51
338.7414092631356084
  0
ARC
  5
13433
  8
0
 10
4071.0037760714330943
 20
99.0847188429557235
 30
0.0
 40
0.0315975469727552
 50
42.5366979866898873
 51
186.7877577385494021
  0
ARC
  5
13434
  8
0
 10
4071.0037760714330943
 20
99.0847188429557235
 30
0.0
 40
0.0315975469727552
 50
186.7877577385494021
 51
42.5366979866898873
  0
ARC
  5
13435
  8
0
 10
4071.0091353944999355
 20
99.0783445545120145
 30
0.0
 40
0.0597072407802735
 50
73.1263455224073766
 51
178.7978325632385861
  0
ARC
  5
13436
  8
0
 10
4071.0095043445139709
 20
99.0787986214166239
 30
0.0
 40
0.0591660442493971
 50
351.8571230818798767
 51
73.3406188736506408
  0
ARC
  5
13437
  8
0
 10
4071.0090558642132237
 20
99.0788627920673548
 30
0.0
 40
0.0596190922081493
 50
179.2941678197466047
 51
351.8571230818798767
  0
ARC
  5
13438
  8
0
 10
4071.3713150984358435
 20
99.0847746564091949
 30
0.0
 40
0.0135318484990095
 50
81.2580328014287687
 51
179.9428484926318106
  0
ARC
  5
13439
  8
0
 10
4071.3713330117398073
 20
99.0848911496405265
 30
0.0
 40
0.0134139860392535
 50
338.7414092631364042
 51
81.2580328014286408
  0
ARC
  5
1343A
  8
0
 10
4071.3712672224510243
 20
99.0849167450526238
 30
0.0
 40
0.0134845789264875
 50
180.5463890185550895
 51
338.7414092631356084
  0
ARC
  5
1343B
  8
0
 10
4071.3713377713529553
 20
99.0847188429557235
 30
0.0
 40
0.0315975469727552
 50
42.5366979866898873
 51
186.7877577385494021
  0
ARC
  5
1343C
  8
0
 10
4071.3713377713529553
 20
99.0847188429557235
 30
0.0
 40
0.0315975469727552
 50
186.7877577385494021
 51
42.5366979866898873
  0
ARC
  5
1343D
  8
0
 10
4071.3766970944211607
 20
99.0783445545120145
 30
0.0
 40
0.0597072407802735
 50
73.1263455224073766
 51
178.7978325632385861
  0
ARC
  5
1343E
  8
0
 10
4071.3770660444351961
 20
99.0787986214166239
 30
0.0
 40
0.0591660442493971
 50
351.8571230818798767
 51
73.3406188736506408
  0
ARC
  5
1343F
  8
0
 10
4071.3766175641330847
 20
99.0788627920673548
 30
0.0
 40
0.0596190922081493
 50
179.2941678197466047
 51
351.8571230818798767
  0
ARC
  5
13440
  8
0
 10
4070.2686300587961341
 20
98.6512329070181977
 30
0.0
 40
0.0135318484990095
 50
81.2580328014287687
 51
179.9428484926318106
  0
ARC
  5
13441
  8
0
 10
4070.2686479721010073
 20
98.651349400249515
 30
0.0
 40
0.0134139860392535
 50
338.7414092631364042
 51
81.2580328014286408
  0
ARC
  5
13442
  8
0
 10
4070.2685821828108601
 20
98.651374995661584
 30
0.0
 40
0.0134845789264875
 50
180.5463890185550895
 51
338.7414092631356084
  0
ARC
  5
13443
  8
0
 10
4070.2686527317141554
 20
98.6511770935646979
 30
0.0
 40
0.0315975469727552
 50
42.5366979866898873
 51
186.7877577385494021
  0
ARC
  5
13444
  8
0
 10
4070.2686527317141554
 20
98.6511770935646979
 30
0.0
 40
0.0315975469727552
 50
186.7877577385494021
 51
42.5366979866898873
  0
ARC
  5
13445
  8
0
 10
4070.2740120547800871
 20
98.6448028051209889
 30
0.0
 40
0.0597072407802735
 50
73.1263455224073766
 51
178.7978325632385861
  0
ARC
  5
13446
  8
0
 10
4070.2743810047959414
 20
98.6452568720256124
 30
0.0
 40
0.0591660442493971
 50
351.8571230818798767
 51
73.3406188736506408
  0
ARC
  5
13447
  8
0
 10
4070.27393252449383
 20
98.6453210426763292
 30
0.0
 40
0.0596190922081493
 50
179.2941678197466047
 51
351.8571230818798767
  0
ARC
  5
13448
  8
0
 10
4070.6405501679041663
 20
98.6512329070181977
 30
0.0
 40
0.0135318484990095
 50
81.2580328014287687
 51
179.9428484926318106
  0
ARC
  5
13449
  8
0
 10
4070.64056808120813
 20
98.651349400249515
 30
0.0
 40
0.0134139860392535
 50
338.7414092631364042
 51
81.2580328014286408
  0
ARC
  5
1344A
  8
0
 10
4070.6405022919188923
 20
98.651374995661584
 30
0.0
 40
0.0134845789264875
 50
180.5463890185550895
 51
338.7414092631356084
  0
ARC
  5
1344B
  8
0
 10
4070.6405728408208233
 20
98.6511770935646979
 30
0.0
 40
0.0315975469727552
 50
42.5366979866898873
 51
186.7877577385494021
  0
ARC
  5
1344C
  8
0
 10
4070.6405728408208233
 20
98.6511770935646979
 30
0.0
 40
0.0315975469727552
 50
186.7877577385494021
 51
42.5366979866898873
  0
ARC
  5
1344D
  8
0
 10
4070.6459321638881192
 20
98.6448028051209889
 30
0.0
 40
0.0597072407802735
 50
73.1263455224073766
 51
178.7978325632385861
  0
ARC
  5
1344E
  8
0
 10
4070.6463011139030641
 20
98.6452568720256124
 30
0.0
 40
0.0591660442493971
 50
351.8571230818798767
 51
73.3406188736506408
  0
ARC
  5
1344F
  8
0
 10
4070.6458526336018622
 20
98.6453210426763292
 30
0.0
 40
0.0596190922081493
 50
179.2941678197466047
 51
351.8571230818798767
  0
ARC
  5
13450
  8
0
 10
4071.0037533985150731
 20
98.6512329070181977
 30
0.0
 40
0.0135318484990095
 50
81.2580328014287687
 51
179.9428484926318106
  0
ARC
  5
13451
  8
0
 10
4071.0037713118190368
 20
98.651349400249515
 30
0.0
 40
0.0134139860392535
 50
338.7414092631364042
 51
81.2580328014286408
  0
ARC
  5
13452
  8
0
 10
4071.0037055225311633
 20
98.651374995661584
 30
0.0
 40
0.0134845789264875
 50
180.5463890185550895
 51
338.7414092631356084
  0
ARC
  5
13453
  8
0
 10
4071.0037760714330943
 20
98.6511770935646979
 30
0.0
 40
0.0315975469727552
 50
42.5366979866898873
 51
186.7877577385494021
  0
ARC
  5
13454
  8
0
 10
4071.0037760714330943
 20
98.6511770935646979
 30
0.0
 40
0.0315975469727552
 50
186.7877577385494021
 51
42.5366979866898873
  0
ARC
  5
13455
  8
0
 10
4071.0091353944999355
 20
98.6448028051209889
 30
0.0
 40
0.0597072407802735
 50
73.1263455224073766
 51
178.7978325632385861
  0
ARC
  5
13456
  8
0
 10
4071.0095043445139709
 20
98.6452568720256124
 30
0.0
 40
0.0591660442493971
 50
351.8571230818798767
 51
73.3406188736506408
  0
ARC
  5
13457
  8
0
 10
4071.0090558642132237
 20
98.6453210426763292
 30
0.0
 40
0.0596190922081493
 50
179.2941678197466047
 51
351.8571230818798767
  0
ARC
  5
13458
  8
0
 10
4071.3713150984358435
 20
98.6512329070181977
 30
0.0
 40
0.0135318484990095
 50
81.2580328014287687
 51
179.9428484926318106
  0
ARC
  5
13459
  8
0
 10
4071.3713330117398073
 20
98.651349400249515
 30
0.0
 40
0.0134139860392535
 50
338.7414092631364042
 51
81.2580328014286408
  0
ARC
  5
1345A
  8
0
 10
4071.3712672224510243
 20
98.651374995661584
 30
0.0
 40
0.0134845789264875
 50
180.5463890185550895
 51
338.7414092631356084
  0
ARC
  5
1345B
  8
0
 10
4071.3713377713529553
 20
98.6511770935646979
 30
0.0
 40
0.0315975469727552
 50
42.5366979866898873
 51
186.7877577385494021
  0
ARC
  5
1345C
  8
0
 10
4071.3713377713529553
 20
98.6511770935646979
 30
0.0
 40
0.0315975469727552
 50
186.7877577385494021
 51
42.5366979866898873
  0
ARC
  5
1345D
  8
0
 10
4071.3766970944211607
 20
98.6448028051209889
 30
0.0
 40
0.0597072407802735
 50
73.1263455224073766
 51
178.7978325632385861
  0
ARC
  5
1345E
  8
0
 10
4071.3770660444351961
 20
98.6452568720256124
 30
0.0
 40
0.0591660442493971
 50
351.8571230818798767
 51
73.3406188736506408
  0
ARC
  5
1345F
  8
0
 10
4071.3766175641330847
 20
98.6453210426763292
 30
0.0
 40
0.0596190922081493
 50
179.2941678197466047
 51
351.8571230818798767
  0
ARC
  5
13460
  8
0
 10
4071.551542792096825
 20
60.7485817349986092
 30
0.0
 40
41.6776916796145898
 50
87.0262100624317299
 51
89.9999848051584053
  0
ARC
  5
13461
  8
0
 10
4073.6988148970058319
 20
102.0827502113831997
 30
0.0
 40
0.2877863749794518
 50
2.9738926823752592
 51
87.0262100624317299
  0
ARC
  5
13462
  8
0
 10
4032.3131192507539708
 20
99.9354892230280143
 30
0.0
 40
41.7291489711082377
 50
357.0298957961953192
 51
2.9701050146711911
  0
ARC
  5
13463
  8
0
 10
4073.6988142749501094
 20
97.7882288542709119
 30
0.0
 40
0.2877870283027866
 50
272.9740252336815161
 51
357.0261081284915008
  0
ARC
  5
13464
  8
0
 10
4073.206056883511792
 20
101.589992386105294
 30
0.0
 40
0.0893562197988241
 50
0.2031077456226918
 51
89.6978595524800966
  0
ARC
  5
13465
  8
0
 10
4073.2060613200801527
 20
98.2809797455203551
 30
0.0
 40
0.08935195856215
 50
270.4731349389523984
 51
359.7673238876815844
  0
LINE
  5
13466
  8
0
 10
4073.2954125418727926
 20
98.2806168914082434
 30
0.0
 11
4073.2954125418727926
 21
101.5903091442069979
 31
0.0
  0
LINE
  5
13467
  8
0
 10
4073.1997213749618822
 20
101.529489222013197
 30
0.0
 11
4073.1997213749618822
 21
98.3414892220132515
 31
0.0
  0
ARC
  5
13468
  8
0
 10
4073.1455539673320345
 20
101.5294892221838978
 30
0.0
 40
0.0541674075292864
 50
359.9999998194284103
 51
90.0000000798067958
  0
ARC
  5
13469
  8
0
 10
4073.1455539672620034
 20
98.3414892220132515
 30
0.0
 40
0.0541674076999987
 50
270.0
 51
0.0000000050009515
  0
ARC
  5
1346A
  8
0
 10
4072.8344778962950841
 20
101.2200972749404997
 30
0.0
 40
0.0135318484990095
 50
0.0571515073682364
 51
98.7419671985712455
  0
ARC
  5
1346B
  8
0
 10
4072.8344599829911203
 20
101.2202137681718028
 30
0.0
 40
0.0134139860392535
 50
98.7419671985713592
 51
201.2585907368635958
  0
ARC
  5
1346C
  8
0
 10
4072.8345257722799033
 20
101.2202393635839002
 30
0.0
 40
0.0134845789264875
 50
201.2585907368643916
 51
359.4536109814449105
  0
ARC
  5
1346D
  8
0
 10
4072.8344552233770628
 20
101.2200414614869999
 30
0.0
 40
0.0315975469727552
 50
353.2122422614506263
 51
137.4633020133101127
  0
ARC
  5
1346E
  8
0
 10
4072.8344552233770628
 20
101.2200414614869999
 30
0.0
 40
0.0315975469727552
 50
137.4633020133101127
 51
353.2122422614506263
  0
ARC
  5
1346F
  8
0
 10
4072.8290959003111311
 20
101.2136671730433051
 30
0.0
 40
0.0597072407802735
 50
1.2021674367613959
 51
106.873654477592595
  0
ARC
  5
13470
  8
0
 10
4072.828726950294822
 20
101.2141212399479002
 30
0.0
 40
0.0591660442493971
 50
106.6593811263494018
 51
188.1428769181200948
  0
ARC
  5
13471
  8
0
 10
4072.8291754305969334
 20
101.2141854105986027
 30
0.0
 40
0.0596190922081493
 50
188.1428769181200948
 51
0.7058321802533842
  0
ARC
  5
13472
  8
0
 10
4072.4625577871861424
 20
101.2200972749404997
 30
0.0
 40
0.0135318484990095
 50
0.0571515073682364
 51
98.7419671985712455
  0
ARC
  5
13473
  8
0
 10
4072.4625398738830881
 20
101.2202137681718028
 30
0.0
 40
0.0134139860392535
 50
98.7419671985713592
 51
201.2585907368635958
  0
ARC
  5
13474
  8
0
 10
4072.4626056631718711
 20
101.2202393635839002
 30
0.0
 40
0.0134845789264875
 50
201.2585907368643916
 51
359.4536109814449105
  0
ARC
  5
13475
  8
0
 10
4072.4625351142699401
 20
101.2200414614869999
 30
0.0
 40
0.0315975469727552
 50
353.2122422614506263
 51
137.4633020133101127
  0
ARC
  5
13476
  8
0
 10
4072.4625351142699401
 20
101.2200414614869999
 30
0.0
 40
0.0315975469727552
 50
137.4633020133101127
 51
353.2122422614506263
  0
ARC
  5
13477
  8
0
 10
4072.4571757912021894
 20
101.2136671730433051
 30
0.0
 40
0.0597072407802735
 50
1.2021674367613959
 51
106.873654477592595
  0
ARC
  5
13478
  8
0
 10
4072.4568068411867898
 20
101.2141212399479002
 30
0.0
 40
0.0591660442493971
 50
106.6593811263494018
 51
188.1428769181200948
  0
ARC
  5
13479
  8
0
 10
4072.4572553214889012
 20
101.2141854105986027
 30
0.0
 40
0.0596190922081493
 50
188.1428769181200948
 51
0.7058321802533842
  0
ARC
  5
1347A
  8
0
 10
4072.0993545565761451
 20
101.2200972749404997
 30
0.0
 40
0.0135318484990095
 50
0.0571515073682364
 51
98.7419671985712455
  0
ARC
  5
1347B
  8
0
 10
4072.0993366432721814
 20
101.2202137681718028
 30
0.0
 40
0.0134139860392535
 50
98.7419671985713592
 51
201.2585907368635958
  0
ARC
  5
1347C
  8
0
 10
4072.0994024325609644
 20
101.2202393635839002
 30
0.0
 40
0.0134845789264875
 50
201.2585907368643916
 51
359.4536109814449105
  0
ARC
  5
1347D
  8
0
 10
4072.0993318836581238
 20
101.2200414614869999
 30
0.0
 40
0.0315975469727552
 50
353.2122422614506263
 51
137.4633020133101127
  0
ARC
  5
1347E
  8
0
 10
4072.0993318836581238
 20
101.2200414614869999
 30
0.0
 40
0.0315975469727552
 50
137.4633020133101127
 51
353.2122422614506263
  0
ARC
  5
1347F
  8
0
 10
4072.0939725605908279
 20
101.2136671730433051
 30
0.0
 40
0.0597072407802735
 50
1.2021674367613959
 51
106.873654477592595
  0
ARC
  5
13480
  8
0
 10
4072.0936036105767926
 20
101.2141212399479002
 30
0.0
 40
0.0591660442493971
 50
106.6593811263494018
 51
188.1428769181200948
  0
ARC
  5
13481
  8
0
 10
4072.0940520908779945
 20
101.2141854105986027
 30
0.0
 40
0.0596190922081493
 50
188.1428769181200948
 51
0.7058321802533842
  0
ARC
  5
13482
  8
0
 10
4071.7317928566549199
 20
101.2200972749404997
 30
0.0
 40
0.0135318484990095
 50
0.0571515073682364
 51
98.7419671985712455
  0
ARC
  5
13483
  8
0
 10
4071.7317749433509562
 20
101.2202137681718028
 30
0.0
 40
0.0134139860392535
 50
98.7419671985713592
 51
201.2585907368635958
  0
ARC
  5
13484
  8
0
 10
4071.7318407326401939
 20
101.2202393635839002
 30
0.0
 40
0.0134845789264875
 50
201.2585907368643916
 51
359.4536109814449105
  0
ARC
  5
13485
  8
0
 10
4071.7317701837368986
 20
101.2200414614869999
 30
0.0
 40
0.0315975469727552
 50
353.2122422614506263
 51
137.4633020133101127
  0
ARC
  5
13486
  8
0
 10
4071.7317701837368986
 20
101.2200414614869999
 30
0.0
 40
0.0315975469727552
 50
137.4633020133101127
 51
353.2122422614506263
  0
ARC
  5
13487
  8
0
 10
4071.7264108606709669
 20
101.2136671730433051
 30
0.0
 40
0.0597072407802735
 50
1.2021674367613959
 51
106.873654477592595
  0
ARC
  5
13488
  8
0
 10
4071.7260419106560221
 20
101.2141212399479002
 30
0.0
 40
0.0591660442493971
 50
106.6593811263494018
 51
188.1428769181200948
  0
ARC
  5
13489
  8
0
 10
4071.726490390957224
 20
101.2141854105986027
 30
0.0
 40
0.0596190922081493
 50
188.1428769181200948
 51
0.7058321802533842
  0
ARC
  5
1348A
  8
0
 10
4072.8344778962950841
 20
100.7854114440538069
 30
0.0
 40
0.0135318484990095
 50
0.0571515073682364
 51
98.7419671985712455
  0
ARC
  5
1348B
  8
0
 10
4072.8344599829911203
 20
100.7855279372850958
 30
0.0
 40
0.0134139860392535
 50
98.7419671985713592
 51
201.2585907368635958
  0
ARC
  5
1348C
  8
0
 10
4072.8345257722799033
 20
100.7855535326971932
 30
0.0
 40
0.0134845789264875
 50
201.2585907368643916
 51
359.4536109814449105
  0
ARC
  5
1348D
  8
0
 10
4072.8344552233770628
 20
100.7853556306002929
 30
0.0
 40
0.0315975469727552
 50
353.2122422614506263
 51
137.4633020133101127
  0
ARC
  5
1348E
  8
0
 10
4072.8344552233770628
 20
100.7853556306002929
 30
0.0
 40
0.0315975469727552
 50
137.4633020133101127
 51
353.2122422614506263
  0
ARC
  5
1348F
  8
0
 10
4072.8290959003111311
 20
100.7789813421565981
 30
0.0
 40
0.0597072407802735
 50
1.2021674367613959
 51
106.873654477592595
  0
ARC
  5
13490
  8
0
 10
4072.828726950294822
 20
100.7794354090611932
 30
0.0
 40
0.0591660442493971
 50
106.6593811263494018
 51
188.1428769181200948
  0
ARC
  5
13491
  8
0
 10
4072.8291754305969334
 20
100.7794995797118958
 30
0.0
 40
0.0596190922081493
 50
188.1428769181200948
 51
0.7058321802533842
  0
ARC
  5
13492
  8
0
 10
4072.4625577871861424
 20
100.7854114440538069
 30
0.0
 40
0.0135318484990095
 50
0.0571515073682364
 51
98.7419671985712455
  0
ARC
  5
13493
  8
0
 10
4072.4625398738830881
 20
100.7855279372850958
 30
0.0
 40
0.0134139860392535
 50
98.7419671985713592
 51
201.2585907368635958
  0
ARC
  5
13494
  8
0
 10
4072.4626056631718711
 20
100.7855535326971932
 30
0.0
 40
0.0134845789264875
 50
201.2585907368643916
 51
359.4536109814449105
  0
ARC
  5
13495
  8
0
 10
4072.4625351142699401
 20
100.7853556306002929
 30
0.0
 40
0.0315975469727552
 50
353.2122422614506263
 51
137.4633020133101127
  0
ARC
  5
13496
  8
0
 10
4072.4625351142699401
 20
100.7853556306002929
 30
0.0
 40
0.0315975469727552
 50
137.4633020133101127
 51
353.2122422614506263
  0
ARC
  5
13497
  8
0
 10
4072.4571757912021894
 20
100.7789813421565981
 30
0.0
 40
0.0597072407802735
 50
1.2021674367613959
 51
106.873654477592595
  0
ARC
  5
13498
  8
0
 10
4072.4568068411867898
 20
100.7794354090611932
 30
0.0
 40
0.0591660442493971
 50
106.6593811263494018
 51
188.1428769181200948
  0
ARC
  5
13499
  8
0
 10
4072.4572553214889012
 20
100.7794995797118958
 30
0.0
 40
0.0596190922081493
 50
188.1428769181200948
 51
0.7058321802533842
  0
ARC
  5
1349A
  8
0
 10
4072.0993545565761451
 20
100.7854114440538069
 30
0.0
 40
0.0135318484990095
 50
0.0571515073682364
 51
98.7419671985712455
  0
ARC
  5
1349B
  8
0
 10
4072.0993366432721814
 20
100.7855279372850958
 30
0.0
 40
0.0134139860392535
 50
98.7419671985713592
 51
201.2585907368635958
  0
ARC
  5
1349C
  8
0
 10
4072.0994024325609644
 20
100.7855535326971932
 30
0.0
 40
0.0134845789264875
 50
201.2585907368643916
 51
359.4536109814449105
  0
ARC
  5
1349D
  8
0
 10
4072.0993318836581238
 20
100.7853556306002929
 30
0.0
 40
0.0315975469727552
 50
353.2122422614506263
 51
137.4633020133101127
  0
ARC
  5
1349E
  8
0
 10
4072.0993318836581238
 20
100.7853556306002929
 30
0.0
 40
0.0315975469727552
 50
137.4633020133101127
 51
353.2122422614506263
  0
ARC
  5
1349F
  8
0
 10
4072.0939725605908279
 20
100.7789813421565981
 30
0.0
 40
0.0597072407802735
 50
1.2021674367613959
 51
106.873654477592595
  0
ARC
  5
134A0
  8
0
 10
4072.0936036105767926
 20
100.7794354090611932
 30
0.0
 40
0.0591660442493971
 50
106.6593811263494018
 51
188.1428769181200948
  0
ARC
  5
134A1
  8
0
 10
4072.0940520908779945
 20
100.7794995797118958
 30
0.0
 40
0.0596190922081493
 50
188.1428769181200948
 51
0.7058321802533842
  0
ARC
  5
134A2
  8
0
 10
4071.7317928566549199
 20
100.7854114440538069
 30
0.0
 40
0.0135318484990095
 50
0.0571515073682364
 51
98.7419671985712455
  0
ARC
  5
134A3
  8
0
 10
4071.7317749433509562
 20
100.7855279372850958
 30
0.0
 40
0.0134139860392535
 50
98.7419671985713592
 51
201.2585907368635958
  0
ARC
  5
134A4
  8
0
 10
4071.7318407326401939
 20
100.7855535326971932
 30
0.0
 40
0.0134845789264875
 50
201.2585907368643916
 51
359.4536109814449105
  0
ARC
  5
134A5
  8
0
 10
4071.7317701837368986
 20
100.7853556306002929
 30
0.0
 40
0.0315975469727552
 50
353.2122422614506263
 51
137.4633020133101127
  0
ARC
  5
134A6
  8
0
 10
4071.7317701837368986
 20
100.7853556306002929
 30
0.0
 40
0.0315975469727552
 50
137.4633020133101127
 51
353.2122422614506263
  0
ARC
  5
134A7
  8
0
 10
4071.7264108606709669
 20
100.7789813421565981
 30
0.0
 40
0.0597072407802735
 50
1.2021674367613959
 51
106.873654477592595
  0
ARC
  5
134A8
  8
0
 10
4071.7260419106560221
 20
100.7794354090611932
 30
0.0
 40
0.0591660442493971
 50
106.6593811263494018
 51
188.1428769181200948
  0
ARC
  5
134A9
  8
0
 10
4071.726490390957224
 20
100.7794995797118958
 30
0.0
 40
0.0596190922081493
 50
188.1428769181200948
 51
0.7058321802533842
  0
ARC
  5
134AA
  8
0
 10
4072.8344778962950841
 20
100.3655866559056022
 30
0.0
 40
0.0135318484990095
 50
0.0571515073682364
 51
98.7419671985712455
  0
ARC
  5
134AB
  8
0
 10
4072.8344599829911203
 20
100.3657031491369054
 30
0.0
 40
0.0134139860392535
 50
98.7419671985713592
 51
201.2585907368635958
  0
ARC
  5
134AC
  8
0
 10
4072.8345257722799033
 20
100.3657287445490027
 30
0.0
 40
0.0134845789264875
 50
201.2585907368643916
 51
359.4536109814449105
  0
ARC
  5
134AD
  8
0
 10
4072.8344552233770628
 20
100.3655308424521024
 30
0.0
 40
0.0315975469727552
 50
353.2122422614506263
 51
137.4633020133101127
  0
ARC
  5
134AE
  8
0
 10
4072.8344552233770628
 20
100.3655308424521024
 30
0.0
 40
0.0315975469727552
 50
137.4633020133101127
 51
353.2122422614506263
  0
ARC
  5
134AF
  8
0
 10
4072.8290959003111311
 20
100.3591565540082939
 30
0.0
 40
0.0597072407802735
 50
1.2021674367613959
 51
106.873654477592595
  0
ARC
  5
134B0
  8
0
 10
4072.828726950294822
 20
100.3596106209130028
 30
0.0
 40
0.0591660442493971
 50
106.6593811263494018
 51
188.1428769181200948
  0
ARC
  5
134B1
  8
0
 10
4072.8291754305969334
 20
100.3596747915637053
 30
0.0
 40
0.0596190922081493
 50
188.1428769181200948
 51
0.7058321802533842
  0
ARC
  5
134B2
  8
0
 10
4072.4625577871861424
 20
100.3655866559056022
 30
0.0
 40
0.0135318484990095
 50
0.0571515073682364
 51
98.7419671985712455
  0
ARC
  5
134B3
  8
0
 10
4072.4625398738830881
 20
100.3657031491369054
 30
0.0
 40
0.0134139860392535
 50
98.7419671985713592
 51
201.2585907368635958
  0
ARC
  5
134B4
  8
0
 10
4072.4626056631718711
 20
100.3657287445490027
 30
0.0
 40
0.0134845789264875
 50
201.2585907368643916
 51
359.4536109814449105
  0
ARC
  5
134B5
  8
0
 10
4072.4625351142699401
 20
100.3655308424521024
 30
0.0
 40
0.0315975469727552
 50
353.2122422614506263
 51
137.4633020133101127
  0
ARC
  5
134B6
  8
0
 10
4072.4625351142699401
 20
100.3655308424521024
 30
0.0
 40
0.0315975469727552
 50
137.4633020133101127
 51
353.2122422614506263
  0
ARC
  5
134B7
  8
0
 10
4072.4571757912021894
 20
100.3591565540082939
 30
0.0
 40
0.0597072407802735
 50
1.2021674367613959
 51
106.873654477592595
  0
ARC
  5
134B8
  8
0
 10
4072.4568068411867898
 20
100.3596106209130028
 30
0.0
 40
0.0591660442493971
 50
106.6593811263494018
 51
188.1428769181200948
  0
ARC
  5
134B9
  8
0
 10
4072.4572553214889012
 20
100.3596747915637053
 30
0.0
 40
0.0596190922081493
 50
188.1428769181200948
 51
0.7058321802533842
  0
ARC
  5
134BA
  8
0
 10
4072.0993545565761451
 20
100.3655866559056022
 30
0.0
 40
0.0135318484990095
 50
0.0571515073682364
 51
98.7419671985712455
  0
ARC
  5
134BB
  8
0
 10
4072.0993366432721814
 20
100.3657031491369054
 30
0.0
 40
0.0134139860392535
 50
98.7419671985713592
 51
201.2585907368635958
  0
ARC
  5
134BC
  8
0
 10
4072.0994024325609644
 20
100.3657287445490027
 30
0.0
 40
0.0134845789264875
 50
201.2585907368643916
 51
359.4536109814449105
  0
ARC
  5
134BD
  8
0
 10
4072.0993318836581238
 20
100.3655308424521024
 30
0.0
 40
0.0315975469727552
 50
353.2122422614506263
 51
137.4633020133101127
  0
ARC
  5
134BE
  8
0
 10
4072.0993318836581238
 20
100.3655308424521024
 30
0.0
 40
0.0315975469727552
 50
137.4633020133101127
 51
353.2122422614506263
  0
ARC
  5
134BF
  8
0
 10
4072.0939725605908279
 20
100.3591565540082939
 30
0.0
 40
0.0597072407802735
 50
1.2021674367613959
 51
106.873654477592595
  0
ARC
  5
134C0
  8
0
 10
4072.0936036105767926
 20
100.3596106209130028
 30
0.0
 40
0.0591660442493971
 50
106.6593811263494018
 51
188.1428769181200948
  0
ARC
  5
134C1
  8
0
 10
4072.0940520908779945
 20
100.3596747915637053
 30
0.0
 40
0.0596190922081493
 50
188.1428769181200948
 51
0.7058321802533842
  0
ARC
  5
134C2
  8
0
 10
4071.7317928566549199
 20
100.3655866559056022
 30
0.0
 40
0.0135318484990095
 50
0.0571515073682364
 51
98.7419671985712455
  0
ARC
  5
134C3
  8
0
 10
4071.7317749433509562
 20
100.3657031491369054
 30
0.0
 40
0.0134139860392535
 50
98.7419671985713592
 51
201.2585907368635958
  0
ARC
  5
134C4
  8
0
 10
4071.7318407326401939
 20
100.3657287445490027
 30
0.0
 40
0.0134845789264875
 50
201.2585907368643916
 51
359.4536109814449105
  0
ARC
  5
134C5
  8
0
 10
4071.7317701837368986
 20
100.3655308424521024
 30
0.0
 40
0.0315975469727552
 50
353.2122422614506263
 51
137.4633020133101127
  0
ARC
  5
134C6
  8
0
 10
4071.7317701837368986
 20
100.3655308424521024
 30
0.0
 40
0.0315975469727552
 50
137.4633020133101127
 51
353.2122422614506263
  0
ARC
  5
134C7
  8
0
 10
4071.7264108606709669
 20
100.3591565540082939
 30
0.0
 40
0.0597072407802735
 50
1.2021674367613959
 51
106.873654477592595
  0
ARC
  5
134C8
  8
0
 10
4071.7260419106560221
 20
100.3596106209130028
 30
0.0
 40
0.0591660442493971
 50
106.6593811263494018
 51
188.1428769181200948
  0
ARC
  5
134C9
  8
0
 10
4071.726490390957224
 20
100.3596747915637053
 30
0.0
 40
0.0596190922081493
 50
188.1428769181200948
 51
0.7058321802533842
  0
ARC
  5
134CA
  8
0
 10
4072.8344778962950841
 20
99.9406097593628289
 30
0.0
 40
0.0135318484990095
 50
0.0571515073682364
 51
98.7419671985712455
  0
ARC
  5
134CB
  8
0
 10
4072.8344599829911203
 20
99.9407262525941462
 30
0.0
 40
0.0134139860392535
 50
98.7419671985713592
 51
201.2585907368635958
  0
ARC
  5
134CC
  8
0
 10
4072.8345257722799033
 20
99.9407518480062294
 30
0.0
 40
0.0134845789264875
 50
201.2585907368643916
 51
359.4536109814449105
  0
ARC
  5
134CD
  8
0
 10
4072.8344552233770628
 20
99.9405539459093433
 30
0.0
 40
0.0315975469727552
 50
353.2122422614506263
 51
137.4633020133101127
  0
ARC
  5
134CE
  8
0
 10
4072.8344552233770628
 20
99.9405539459093433
 30
0.0
 40
0.0315975469727552
 50
137.4633020133101127
 51
353.2122422614506263
  0
ARC
  5
134CF
  8
0
 10
4072.8290959003111311
 20
99.93417965746562
 30
0.0
 40
0.0597072407802735
 50
1.2021674367613959
 51
106.873654477592595
  0
ARC
  5
134D0
  8
0
 10
4072.828726950294822
 20
99.9346337243702436
 30
0.0
 40
0.0591660442493971
 50
106.6593811263494018
 51
188.1428769181200948
  0
ARC
  5
134D1
  8
0
 10
4072.8291754305969334
 20
99.9346978950209746
 30
0.0
 40
0.0596190922081493
 50
188.1428769181200948
 51
0.7058321802533842
  0
ARC
  5
134D2
  8
0
 10
4072.4625577871861424
 20
99.9406097593628289
 30
0.0
 40
0.0135318484990095
 50
0.0571515073682364
 51
98.7419671985712455
  0
ARC
  5
134D3
  8
0
 10
4072.4625398738830881
 20
99.9407262525941462
 30
0.0
 40
0.0134139860392535
 50
98.7419671985713592
 51
201.2585907368635958
  0
ARC
  5
134D4
  8
0
 10
4072.4626056631718711
 20
99.9407518480062294
 30
0.0
 40
0.0134845789264875
 50
201.2585907368643916
 51
359.4536109814449105
  0
ARC
  5
134D5
  8
0
 10
4072.4625351142699401
 20
99.9405539459093433
 30
0.0
 40
0.0315975469727552
 50
353.2122422614506263
 51
137.4633020133101127
  0
ARC
  5
134D6
  8
0
 10
4072.4625351142699401
 20
99.9405539459093433
 30
0.0
 40
0.0315975469727552
 50
137.4633020133101127
 51
353.2122422614506263
  0
ARC
  5
134D7
  8
0
 10
4072.4571757912021894
 20
99.93417965746562
 30
0.0
 40
0.0597072407802735
 50
1.2021674367613959
 51
106.873654477592595
  0
ARC
  5
134D8
  8
0
 10
4072.4568068411867898
 20
99.9346337243702436
 30
0.0
 40
0.0591660442493971
 50
106.6593811263494018
 51
188.1428769181200948
  0
ARC
  5
134D9
  8
0
 10
4072.4572553214889012
 20
99.9346978950209746
 30
0.0
 40
0.0596190922081493
 50
188.1428769181200948
 51
0.7058321802533842
  0
ARC
  5
134DA
  8
0
 10
4072.0993545565761451
 20
99.9406097593628289
 30
0.0
 40
0.0135318484990095
 50
0.0571515073682364
 51
98.7419671985712455
  0
ARC
  5
134DB
  8
0
 10
4072.0993366432721814
 20
99.9407262525941462
 30
0.0
 40
0.0134139860392535
 50
98.7419671985713592
 51
201.2585907368635958
  0
ARC
  5
134DC
  8
0
 10
4072.0994024325609644
 20
99.9407518480062294
 30
0.0
 40
0.0134845789264875
 50
201.2585907368643916
 51
359.4536109814449105
  0
ARC
  5
134DD
  8
0
 10
4072.0993318836581238
 20
99.9405539459093433
 30
0.0
 40
0.0315975469727552
 50
353.2122422614506263
 51
137.4633020133101127
  0
ARC
  5
134DE
  8
0
 10
4072.0993318836581238
 20
99.9405539459093433
 30
0.0
 40
0.0315975469727552
 50
137.4633020133101127
 51
353.2122422614506263
  0
ARC
  5
134DF
  8
0
 10
4072.0939725605908279
 20
99.93417965746562
 30
0.0
 40
0.0597072407802735
 50
1.2021674367613959
 51
106.873654477592595
  0
ARC
  5
134E0
  8
0
 10
4072.0936036105767926
 20
99.9346337243702436
 30
0.0
 40
0.0591660442493971
 50
106.6593811263494018
 51
188.1428769181200948
  0
ARC
  5
134E1
  8
0
 10
4072.0940520908779945
 20
99.9346978950209746
 30
0.0
 40
0.0596190922081493
 50
188.1428769181200948
 51
0.7058321802533842
  0
ARC
  5
134E2
  8
0
 10
4071.7317928566549199
 20
99.9406097593628289
 30
0.0
 40
0.0135318484990095
 50
0.0571515073682364
 51
98.7419671985712455
  0
ARC
  5
134E3
  8
0
 10
4071.7317749433509562
 20
99.9407262525941462
 30
0.0
 40
0.0134139860392535
 50
98.7419671985713592
 51
201.2585907368635958
  0
ARC
  5
134E4
  8
0
 10
4071.7318407326401939
 20
99.9407518480062294
 30
0.0
 40
0.0134845789264875
 50
201.2585907368643916
 51
359.4536109814449105
  0
ARC
  5
134E5
  8
0
 10
4071.7317701837368986
 20
99.9405539459093433
 30
0.0
 40
0.0315975469727552
 50
353.2122422614506263
 51
137.4633020133101127
  0
ARC
  5
134E6
  8
0
 10
4071.7317701837368986
 20
99.9405539459093433
 30
0.0
 40
0.0315975469727552
 50
137.4633020133101127
 51
353.2122422614506263
  0
ARC
  5
134E7
  8
0
 10
4071.7264108606709669
 20
99.93417965746562
 30
0.0
 40
0.0597072407802735
 50
1.2021674367613959
 51
106.873654477592595
  0
ARC
  5
134E8
  8
0
 10
4071.7260419106560221
 20
99.9346337243702436
 30
0.0
 40
0.0591660442493971
 50
106.6593811263494018
 51
188.1428769181200948
  0
ARC
  5
134E9
  8
0
 10
4071.726490390957224
 20
99.9346978950209746
 30
0.0
 40
0.0596190922081493
 50
188.1428769181200948
 51
0.7058321802533842
  0
ARC
  5
134EA
  8
0
 10
4072.8344778962950841
 20
99.5074501585696254
 30
0.0
 40
0.0135318484990095
 50
0.0571515073682364
 51
98.7419671985712455
  0
ARC
  5
134EB
  8
0
 10
4072.8344599829911203
 20
99.5075666518009569
 30
0.0
 40
0.0134139860392535
 50
98.7419671985713592
 51
201.2585907368635958
  0
ARC
  5
134EC
  8
0
 10
4072.8345257722799033
 20
99.5075922472130259
 30
0.0
 40
0.0134845789264875
 50
201.2585907368643916
 51
359.4536109814449105
  0
ARC
  5
134ED
  8
0
 10
4072.8344552233770628
 20
99.5073943451161398
 30
0.0
 40
0.0315975469727552
 50
353.2122422614506263
 51
137.4633020133101127
  0
ARC
  5
134EE
  8
0
 10
4072.8344552233770628
 20
99.5073943451161398
 30
0.0
 40
0.0315975469727552
 50
137.4633020133101127
 51
353.2122422614506263
  0
ARC
  5
134EF
  8
0
 10
4072.8290959003111311
 20
99.5010200566724308
 30
0.0
 40
0.0597072407802735
 50
1.2021674367613959
 51
106.873654477592595
  0
ARC
  5
134F0
  8
0
 10
4072.828726950294822
 20
99.5014741235770401
 30
0.0
 40
0.0591660442493971
 50
106.6593811263494018
 51
188.1428769181200948
  0
ARC
  5
134F1
  8
0
 10
4072.8291754305969334
 20
99.5015382942277711
 30
0.0
 40
0.0596190922081493
 50
188.1428769181200948
 51
0.7058321802533842
  0
ARC
  5
134F2
  8
0
 10
4072.4625577871861424
 20
99.5074501585696254
 30
0.0
 40
0.0135318484990095
 50
0.0571515073682364
 51
98.7419671985712455
  0
ARC
  5
134F3
  8
0
 10
4072.4625398738830881
 20
99.5075666518009569
 30
0.0
 40
0.0134139860392535
 50
98.7419671985713592
 51
201.2585907368635958
  0
ARC
  5
134F4
  8
0
 10
4072.4626056631718711
 20
99.5075922472130259
 30
0.0
 40
0.0134845789264875
 50
201.2585907368643916
 51
359.4536109814449105
  0
ARC
  5
134F5
  8
0
 10
4072.4625351142699401
 20
99.5073943451161398
 30
0.0
 40
0.0315975469727552
 50
353.2122422614506263
 51
137.4633020133101127
  0
ARC
  5
134F6
  8
0
 10
4072.4625351142699401
 20
99.5073943451161398
 30
0.0
 40
0.0315975469727552
 50
137.4633020133101127
 51
353.2122422614506263
  0
ARC
  5
134F7
  8
0
 10
4072.4571757912021894
 20
99.5010200566724308
 30
0.0
 40
0.0597072407802735
 50
1.2021674367613959
 51
106.873654477592595
  0
ARC
  5
134F8
  8
0
 10
4072.4568068411867898
 20
99.5014741235770401
 30
0.0
 40
0.0591660442493971
 50
106.6593811263494018
 51
188.1428769181200948
  0
ARC
  5
134F9
  8
0
 10
4072.4572553214889012
 20
99.5015382942277711
 30
0.0
 40
0.0596190922081493
 50
188.1428769181200948
 51
0.7058321802533842
  0
ARC
  5
134FA
  8
0
 10
4072.0993545565761451
 20
99.5074501585696254
 30
0.0
 40
0.0135318484990095
 50
0.0571515073682364
 51
98.7419671985712455
  0
ARC
  5
134FB
  8
0
 10
4072.0993366432721814
 20
99.5075666518009569
 30
0.0
 40
0.0134139860392535
 50
98.7419671985713592
 51
201.2585907368635958
  0
ARC
  5
134FC
  8
0
 10
4072.0994024325609644
 20
99.5075922472130259
 30
0.0
 40
0.0134845789264875
 50
201.2585907368643916
 51
359.4536109814449105
  0
ARC
  5
134FD
  8
0
 10
4072.0993318836581238
 20
99.5073943451161398
 30
0.0
 40
0.0315975469727552
 50
353.2122422614506263
 51
137.4633020133101127
  0
ARC
  5
134FE
  8
0
 10
4072.0993318836581238
 20
99.5073943451161398
 30
0.0
 40
0.0315975469727552
 50
137.4633020133101127
 51
353.2122422614506263
  0
ARC
  5
134FF
  8
0
 10
4072.0939725605908279
 20
99.5010200566724308
 30
0.0
 40
0.0597072407802735
 50
1.2021674367613959
 51
106.873654477592595
  0
ARC
  5
13500
  8
0
 10
4072.0936036105767926
 20
99.5014741235770401
 30
0.0
 40
0.0591660442493971
 50
106.6593811263494018
 51
188.1428769181200948
  0
ARC
  5
13501
  8
0
 10
4072.0940520908779945
 20
99.5015382942277711
 30
0.0
 40
0.0596190922081493
 50
188.1428769181200948
 51
0.7058321802533842
  0
ARC
  5
13502
  8
0
 10
4071.7317928566549199
 20
99.5074501585696254
 30
0.0
 40
0.0135318484990095
 50
0.0571515073682364
 51
98.7419671985712455
  0
ARC
  5
13503
  8
0
 10
4071.7317749433509562
 20
99.5075666518009569
 30
0.0
 40
0.0134139860392535
 50
98.7419671985713592
 51
201.2585907368635958
  0
ARC
  5
13504
  8
0
 10
4071.7318407326401939
 20
99.5075922472130259
 30
0.0
 40
0.0134845789264875
 50
201.2585907368643916
 51
359.4536109814449105
  0
ARC
  5
13505
  8
0
 10
4071.7317701837368986
 20
99.5073943451161398
 30
0.0
 40
0.0315975469727552
 50
353.2122422614506263
 51
137.4633020133101127
  0
ARC
  5
13506
  8
0
 10
4071.7317701837368986
 20
99.5073943451161398
 30
0.0
 40
0.0315975469727552
 50
137.4633020133101127
 51
353.2122422614506263
  0
ARC
  5
13507
  8
0
 10
4071.7264108606709669
 20
99.5010200566724308
 30
0.0
 40
0.0597072407802735
 50
1.2021674367613959
 51
106.873654477592595
  0
ARC
  5
13508
  8
0
 10
4071.7260419106560221
 20
99.5014741235770401
 30
0.0
 40
0.0591660442493971
 50
106.6593811263494018
 51
188.1428769181200948
  0
ARC
  5
13509
  8
0
 10
4071.726490390957224
 20
99.5015382942277711
 30
0.0
 40
0.0596190922081493
 50
188.1428769181200948
 51
0.7058321802533842
  0
ARC
  5
1350A
  8
0
 10
4072.8344778962950841
 20
99.0847746564091949
 30
0.0
 40
0.0135318484990095
 50
0.0571515073682364
 51
98.7419671985712455
  0
ARC
  5
1350B
  8
0
 10
4072.8344599829911203
 20
99.0848911496405265
 30
0.0
 40
0.0134139860392535
 50
98.7419671985713592
 51
201.2585907368635958
  0
ARC
  5
1350C
  8
0
 10
4072.8345257722799033
 20
99.0849167450526238
 30
0.0
 40
0.0134845789264875
 50
201.2585907368643916
 51
359.4536109814449105
  0
ARC
  5
1350D
  8
0
 10
4072.8344552233770628
 20
99.0847188429557235
 30
0.0
 40
0.0315975469727552
 50
353.2122422614506263
 51
137.4633020133101127
  0
ARC
  5
1350E
  8
0
 10
4072.8344552233770628
 20
99.0847188429557235
 30
0.0
 40
0.0315975469727552
 50
137.4633020133101127
 51
353.2122422614506263
  0
ARC
  5
1350F
  8
0
 10
4072.8290959003111311
 20
99.0783445545120145
 30
0.0
 40
0.0597072407802735
 50
1.2021674367613959
 51
106.873654477592595
  0
ARC
  5
13510
  8
0
 10
4072.828726950294822
 20
99.0787986214166239
 30
0.0
 40
0.0591660442493971
 50
106.6593811263494018
 51
188.1428769181200948
  0
ARC
  5
13511
  8
0
 10
4072.8291754305969334
 20
99.0788627920673548
 30
0.0
 40
0.0596190922081493
 50
188.1428769181200948
 51
0.7058321802533842
  0
ARC
  5
13512
  8
0
 10
4072.4625577871861424
 20
99.0847746564091949
 30
0.0
 40
0.0135318484990095
 50
0.0571515073682364
 51
98.7419671985712455
  0
ARC
  5
13513
  8
0
 10
4072.4625398738830881
 20
99.0848911496405265
 30
0.0
 40
0.0134139860392535
 50
98.7419671985713592
 51
201.2585907368635958
  0
ARC
  5
13514
  8
0
 10
4072.4626056631718711
 20
99.0849167450526238
 30
0.0
 40
0.0134845789264875
 50
201.2585907368643916
 51
359.4536109814449105
  0
ARC
  5
13515
  8
0
 10
4072.4625351142699401
 20
99.0847188429557235
 30
0.0
 40
0.0315975469727552
 50
353.2122422614506263
 51
137.4633020133101127
  0
ARC
  5
13516
  8
0
 10
4072.4625351142699401
 20
99.0847188429557235
 30
0.0
 40
0.0315975469727552
 50
137.4633020133101127
 51
353.2122422614506263
  0
ARC
  5
13517
  8
0
 10
4072.4571757912021894
 20
99.0783445545120145
 30
0.0
 40
0.0597072407802735
 50
1.2021674367613959
 51
106.873654477592595
  0
ARC
  5
13518
  8
0
 10
4072.4568068411867898
 20
99.0787986214166239
 30
0.0
 40
0.0591660442493971
 50
106.6593811263494018
 51
188.1428769181200948
  0
ARC
  5
13519
  8
0
 10
4072.4572553214889012
 20
99.0788627920673548
 30
0.0
 40
0.0596190922081493
 50
188.1428769181200948
 51
0.7058321802533842
  0
ARC
  5
1351A
  8
0
 10
4072.0993545565761451
 20
99.0847746564091949
 30
0.0
 40
0.0135318484990095
 50
0.0571515073682364
 51
98.7419671985712455
  0
ARC
  5
1351B
  8
0
 10
4072.0993366432721814
 20
99.0848911496405265
 30
0.0
 40
0.0134139860392535
 50
98.7419671985713592
 51
201.2585907368635958
  0
ARC
  5
1351C
  8
0
 10
4072.0994024325609644
 20
99.0849167450526238
 30
0.0
 40
0.0134845789264875
 50
201.2585907368643916
 51
359.4536109814449105
  0
ARC
  5
1351D
  8
0
 10
4072.0993318836581238
 20
99.0847188429557235
 30
0.0
 40
0.0315975469727552
 50
353.2122422614506263
 51
137.4633020133101127
  0
ARC
  5
1351E
  8
0
 10
4072.0993318836581238
 20
99.0847188429557235
 30
0.0
 40
0.0315975469727552
 50
137.4633020133101127
 51
353.2122422614506263
  0
ARC
  5
1351F
  8
0
 10
4072.0939725605908279
 20
99.0783445545120145
 30
0.0
 40
0.0597072407802735
 50
1.2021674367613959
 51
106.873654477592595
  0
ARC
  5
13520
  8
0
 10
4072.0936036105767926
 20
99.0787986214166239
 30
0.0
 40
0.0591660442493971
 50
106.6593811263494018
 51
188.1428769181200948
  0
ARC
  5
13521
  8
0
 10
4072.0940520908779945
 20
99.0788627920673548
 30
0.0
 40
0.0596190922081493
 50
188.1428769181200948
 51
0.7058321802533842
  0
ARC
  5
13522
  8
0
 10
4071.7317928566549199
 20
99.0847746564091949
 30
0.0
 40
0.0135318484990095
 50
0.0571515073682364
 51
98.7419671985712455
  0
ARC
  5
13523
  8
0
 10
4071.7317749433509562
 20
99.0848911496405265
 30
0.0
 40
0.0134139860392535
 50
98.7419671985713592
 51
201.2585907368635958
  0
ARC
  5
13524
  8
0
 10
4071.7318407326401939
 20
99.0849167450526238
 30
0.0
 40
0.0134845789264875
 50
201.2585907368643916
 51
359.4536109814449105
  0
ARC
  5
13525
  8
0
 10
4071.7317701837368986
 20
99.0847188429557235
 30
0.0
 40
0.0315975469727552
 50
353.2122422614506263
 51
137.4633020133101127
  0
ARC
  5
13526
  8
0
 10
4071.7317701837368986
 20
99.0847188429557235
 30
0.0
 40
0.0315975469727552
 50
137.4633020133101127
 51
353.2122422614506263
  0
ARC
  5
13527
  8
0
 10
4071.7264108606709669
 20
99.0783445545120145
 30
0.0
 40
0.0597072407802735
 50
1.2021674367613959
 51
106.873654477592595
  0
ARC
  5
13528
  8
0
 10
4071.7260419106560221
 20
99.0787986214166239
 30
0.0
 40
0.0591660442493971
 50
106.6593811263494018
 51
188.1428769181200948
  0
ARC
  5
13529
  8
0
 10
4071.726490390957224
 20
99.0788627920673548
 30
0.0
 40
0.0596190922081493
 50
188.1428769181200948
 51
0.7058321802533842
  0
ARC
  5
1352A
  8
0
 10
4072.8344778962950841
 20
98.6512329070181977
 30
0.0
 40
0.0135318484990095
 50
0.0571515073682364
 51
98.7419671985712455
  0
ARC
  5
1352B
  8
0
 10
4072.8344599829911203
 20
98.651349400249515
 30
0.0
 40
0.0134139860392535
 50
98.7419671985713592
 51
201.2585907368635958
  0
ARC
  5
1352C
  8
0
 10
4072.8345257722799033
 20
98.651374995661584
 30
0.0
 40
0.0134845789264875
 50
201.2585907368643916
 51
359.4536109814449105
  0
ARC
  5
1352D
  8
0
 10
4072.8344552233770628
 20
98.6511770935646979
 30
0.0
 40
0.0315975469727552
 50
353.2122422614506263
 51
137.4633020133101127
  0
ARC
  5
1352E
  8
0
 10
4072.8344552233770628
 20
98.6511770935646979
 30
0.0
 40
0.0315975469727552
 50
137.4633020133101127
 51
353.2122422614506263
  0
ARC
  5
1352F
  8
0
 10
4072.8290959003111311
 20
98.6448028051209889
 30
0.0
 40
0.0597072407802735
 50
1.2021674367613959
 51
106.873654477592595
  0
ARC
  5
13530
  8
0
 10
4072.828726950294822
 20
98.6452568720256124
 30
0.0
 40
0.0591660442493971
 50
106.6593811263494018
 51
188.1428769181200948
  0
ARC
  5
13531
  8
0
 10
4072.8291754305969334
 20
98.6453210426763292
 30
0.0
 40
0.0596190922081493
 50
188.1428769181200948
 51
0.7058321802533842
  0
ARC
  5
13532
  8
0
 10
4072.4625577871861424
 20
98.6512329070181977
 30
0.0
 40
0.0135318484990095
 50
0.0571515073682364
 51
98.7419671985712455
  0
ARC
  5
13533
  8
0
 10
4072.4625398738830881
 20
98.651349400249515
 30
0.0
 40
0.0134139860392535
 50
98.7419671985713592
 51
201.2585907368635958
  0
ARC
  5
13534
  8
0
 10
4072.4626056631718711
 20
98.651374995661584
 30
0.0
 40
0.0134845789264875
 50
201.2585907368643916
 51
359.4536109814449105
  0
ARC
  5
13535
  8
0
 10
4072.4625351142699401
 20
98.6511770935646979
 30
0.0
 40
0.0315975469727552
 50
353.2122422614506263
 51
137.4633020133101127
  0
ARC
  5
13536
  8
0
 10
4072.4625351142699401
 20
98.6511770935646979
 30
0.0
 40
0.0315975469727552
 50
137.4633020133101127
 51
353.2122422614506263
  0
ARC
  5
13537
  8
0
 10
4072.4571757912021894
 20
98.6448028051209889
 30
0.0
 40
0.0597072407802735
 50
1.2021674367613959
 51
106.873654477592595
  0
ARC
  5
13538
  8
0
 10
4072.4568068411867898
 20
98.6452568720256124
 30
0.0
 40
0.0591660442493971
 50
106.6593811263494018
 51
188.1428769181200948
  0
ARC
  5
13539
  8
0
 10
4072.4572553214889012
 20
98.6453210426763292
 30
0.0
 40
0.0596190922081493
 50
188.1428769181200948
 51
0.7058321802533842
  0
ARC
  5
1353A
  8
0
 10
4072.0993545565761451
 20
98.6512329070181977
 30
0.0
 40
0.0135318484990095
 50
0.0571515073682364
 51
98.7419671985712455
  0
ARC
  5
1353B
  8
0
 10
4072.0993366432721814
 20
98.651349400249515
 30
0.0
 40
0.0134139860392535
 50
98.7419671985713592
 51
201.2585907368635958
  0
ARC
  5
1353C
  8
0
 10
4072.0994024325609644
 20
98.651374995661584
 30
0.0
 40
0.0134845789264875
 50
201.2585907368643916
 51
359.4536109814449105
  0
ARC
  5
1353D
  8
0
 10
4072.0993318836581238
 20
98.6511770935646979
 30
0.0
 40
0.0315975469727552
 50
353.2122422614506263
 51
137.4633020133101127
  0
ARC
  5
1353E
  8
0
 10
4072.0993318836581238
 20
98.6511770935646979
 30
0.0
 40
0.0315975469727552
 50
137.4633020133101127
 51
353.2122422614506263
  0
ARC
  5
1353F
  8
0
 10
4072.0939725605908279
 20
98.6448028051209889
 30
0.0
 40
0.0597072407802735
 50
1.2021674367613959
 51
106.873654477592595
  0
ARC
  5
13540
  8
0
 10
4072.0936036105767926
 20
98.6452568720256124
 30
0.0
 40
0.0591660442493971
 50
106.6593811263494018
 51
188.1428769181200948
  0
ARC
  5
13541
  8
0
 10
4072.0940520908779945
 20
98.6453210426763292
 30
0.0
 40
0.0596190922081493
 50
188.1428769181200948
 51
0.7058321802533842
  0
ARC
  5
13542
  8
0
 10
4071.7317928566549199
 20
98.6512329070181977
 30
0.0
 40
0.0135318484990095
 50
0.0571515073682364
 51
98.7419671985712455
  0
ARC
  5
13543
  8
0
 10
4071.7317749433509562
 20
98.651349400249515
 30
0.0
 40
0.0134139860392535
 50
98.7419671985713592
 51
201.2585907368635958
  0
ARC
  5
13544
  8
0
 10
4071.7318407326401939
 20
98.651374995661584
 30
0.0
 40
0.0134845789264875
 50
201.2585907368643916
 51
359.4536109814449105
  0
ARC
  5
13545
  8
0
 10
4071.7317701837368986
 20
98.6511770935646979
 30
0.0
 40
0.0315975469727552
 50
353.2122422614506263
 51
137.4633020133101127
  0
ARC
  5
13546
  8
0
 10
4071.7317701837368986
 20
98.6511770935646979
 30
0.0
 40
0.0315975469727552
 50
137.4633020133101127
 51
353.2122422614506263
  0
ARC
  5
13547
  8
0
 10
4071.7264108606709669
 20
98.6448028051209889
 30
0.0
 40
0.0597072407802735
 50
1.2021674367613959
 51
106.873654477592595
  0
ARC
  5
13548
  8
0
 10
4071.7260419106560221
 20
98.6452568720256124
 30
0.0
 40
0.0591660442493971
 50
106.6593811263494018
 51
188.1428769181200948
  0
ARC
  5
13549
  8
0
 10
4071.726490390957224
 20
98.6453210426763292
 30
0.0
 40
0.0596190922081493
 50
188.1428769181200948
 51
0.7058321802533842
  0
ENDSEC
  0
EOF
