  0
SECTION
  2
HEADER
  9
$ACADVER
  1
AC1009
  9
$INSBASE
 10
4662.041350895900905
 20
316.9254162193059869
 30
0.0
  9
$EXTMIN
 10
4660.9153508957006125
 20
314.9743912654369069
 30
0.0
  9
$EXTMAX
 10
4663.1673508961021071
 20
316.930617235568775
 30
0.0
  9
$LIMMIN
 10
0.0
 20
0.0
  9
$LIMMAX
 10
11.6929133858000007
 20
8.2677165353999982
  9
$ORTHOMODE
 70
     0
  9
$REGENMODE
 70
     1
  9
$FILLMODE
 70
     1
  9
$QTEXTMODE
 70
     0
  9
$MIRRTEXT
 70
     0
  9
$DRAGMODE
 70
     2
  9
$LTSCALE
 40
0.6431102362
  9
$OSMODE
 70
  4095
  9
$ATTMODE
 70
     1
  9
$TEXTSIZE
 40
0.2
  9
$TRACEWID
 40
0.05
  9
$TEXTSTYLE
  7
STANDARD
  9
$CLAYER
  8
0
  9
$CELTYPE
  6
BYLAYER
  9
$CECOLOR
 62
   256
  9
$DIMSCALE
 40
1.0
  9
$DIMASZ
 40
0.1875
  9
$DIMEXO
 40
0.0625
  9
$DIMDLI
 40
0.4443307087
  9
$DIMRND
 40
0.0
  9
$DIMDLE
 40
0.0
  9
$DIMEXE
 40
0.125
  9
$DIMTP
 40
0.01
  9
$DIMTM
 40
0.01
  9
$DIMTXT
 40
2.0
  9
$DIMCEN
 40
0.1052362205
  9
$DIMTSZ
 40
0.0
  9
$DIMTOL
 70
     1
  9
$DIMLIM
 70
     0
  9
$DIMTIH
 70
     1
  9
$DIMTOH
 70
     1
  9
$DIMSE1
 70
     0
  9
$DIMSE2
 70
     0
  9
$DIMTAD
 70
     0
  9
$DIMZIN
 70
     0
  9
$DIMBLK
  1

  9
$DIMASO
 70
     1
  9
$DIMSHO
 70
     1
  9
$DIMPOST
  1
\X
  9
$DIMAPOST
  1

  9
$DIMALT
 70
     1
  9
$DIMALTD
 70
     2
  9
$DIMALTF
 40
25.3999999999999986
  9
$DIMLFAC
 40
1.0
  9
$DIMTOFL
 70
     0
  9
$DIMTVP
 40
0.0
  9
$DIMTIX
 70
     0
  9
$DIMSOXD
 70
     0
  9
$DIMSAH
 70
     0
  9
$DIMBLK1
  1

  9
$DIMBLK2
  1

  9
$DIMSTYLE
  2
STANDARD
  9
$DIMCLRD
 70
     0
  9
$DIMCLRE
 70
     0
  9
$DIMCLRT
 70
     0
  9
$DIMTFAC
 40
1.0
  9
$DIMGAP
 40
0.09
  9
$LUNITS
 70
     2
  9
$LUPREC
 70
     4
  9
$SKETCHINC
 40
0.1
  9
$FILLETRAD
 40
0.0
  9
$AUNITS
 70
     0
  9
$AUPREC
 70
     0
  9
$MENU
  1
.
  9
$ELEVATION
 40
0.0
  9
$PELEVATION
 40
0.0
  9
$THICKNESS
 40
0.0
  9
$LIMCHECK
 70
     0
  9
$BLIPMODE
 70
     0
  9
$CHAMFERA
 40
0.0
  9
$CHAMFERB
 40
0.0
  9
$SKPOLY
 70
     0
  9
$TDCREATE
 40
2458060.468368056230247
  9
$TDUPDATE
 40
2459698.7491203709505498
  9
$TDINDWG
 40
0.6538728009
  9
$TDUSRTIMER
 40
0.6538728009
  9
$USRTIMER
 70
     1
  9
$ANGBASE
 50
0.0
  9
$ANGDIR
 70
     0
  9
$PDMODE
 70
     0
  9
$PDSIZE
 40
0.3125
  9
$PLINEWID
 40
0.0
  9
$COORDS
 70
     1
  9
$SPLFRAME
 70
     0
  9
$SPLINETYPE
 70
     6
  9
$SPLINESEGS
 70
     8
  9
$ATTDIA
 70
     1
  9
$ATTREQ
 70
     1
  9
$HANDLING
 70
     1
  9
$HANDSEED
  5
22F18
  9
$SURFTAB1
 70
     6
  9
$SURFTAB2
 70
     6
  9
$SURFTYPE
 70
     6
  9
$SURFU
 70
     6
  9
$SURFV
 70
     6
  9
$UCSNAME
  2

  9
$UCSORG
 10
0.0
 20
0.0
 30
0.0
  9
$UCSXDIR
 10
1.0
 20
0.0
 30
0.0
  9
$UCSYDIR
 10
0.0
 20
1.0
 30
0.0
  9
$PUCSNAME
  2

  9
$PUCSORG
 10
0.0
 20
0.0
 30
0.0
  9
$PUCSXDIR
 10
1.0
 20
0.0
 30
0.0
  9
$PUCSYDIR
 10
0.0
 20
1.0
 30
0.0
  9
$USERI1
 70
     0
  9
$USERI2
 70
     0
  9
$USERI3
 70
     0
  9
$USERI4
 70
     0
  9
$USERI5
 70
     0
  9
$USERR1
 40
0.0
  9
$USERR2
 40
0.0
  9
$USERR3
 40
0.0
  9
$USERR4
 40
0.0
  9
$USERR5
 40
0.0
  9
$WORLDVIEW
 70
     1
  9
$SHADEDGE
 70
     3
  9
$SHADEDIF
 70
    70
  9
$TILEMODE
 70
     1
  9
$MAXACTVP
 70
    64
  9
$PLIMCHECK
 70
     0
  9
$PEXTMIN
 10
1.0000000000000000E+20
 20
1.0000000000000000E+20
 30
1.0000000000000000E+20
  9
$PEXTMAX
 10
-1.0000000000000000E+20
 20
-1.0000000000000000E+20
 30
-1.0000000000000000E+20
  9
$PLIMMIN
 10
0.0
 20
0.0
  9
$PLIMMAX
 10
12.0
 20
9.0
  9
$UNITMODE
 70
     0
  9
$VISRETAIN
 70
     1
  9
$PLINEGEN
 70
     0
  9
$PSLTSCALE
 70
     1
  0
ENDSEC
  0
SECTION
  2
TABLES
  0
TABLE
  2
VPORT
 70
     1
  0
VPORT
  2
*ACTIVE
 70
     0
 10
0.0
 20
0.0
 11
1.0
 21
1.0
 12
750.6759944505882913
 22
183.3728991479636932
 13
0.0
 23
0.0
 14
1.0
 24
1.0
 15
0.0
 25
0.0
 16
0.0
 26
0.0
 36
60.4960186965801583
 17
3911.3653564453120453
 27
132.5796051025390057
 37
0.0
 40
1.971489111641346
 41
2.4830729166666661
 42
50.0
 43
0.0
 44
0.0
 50
0.0
 51
0.0
 71
     0
 72
   100
 73
     1
 74
     1
 75
     0
 76
     0
 77
     0
 78
     0
  0
ENDTAB
  0
TABLE
  2
LTYPE
 70
     2
  0
LTYPE
  2
CONTINUOUS
 70
     0
  3
Solid line
 72
    65
 73
     0
 40
0.0
  0
LTYPE
  2
PHANTOM2
 70
     0
  3
___ _ _ ___ _ _ ___ _ _ ___ _ _
 72
    65
 73
     6
 40
1.25
 49
0.625
 49
-0.125
 49
0.125
 49
-0.125
 49
0.125
 49
-0.125
  0
ENDTAB
  0
TABLE
  2
LAYER
 70
     2
  0
LAYER
  2
0
 70
     0
 62
   255
  6
CONTINUOUS
  0
LAYER
  2
DEFPOINTS
 70
     0
 62
     7
  6
CONTINUOUS
  0
ENDTAB
  0
TABLE
  2
STYLE
 70
     1
  0
STYLE
  2
STANDARD
 70
     0
 40
0.0
 41
0.8
 50
0.0
 71
     0
 42
0.2
  3
txt
  4

  0
ENDTAB
  0
TABLE
  2
VIEW
 70
     0
  0
ENDTAB
  0
TABLE
  2
UCS
 70
     0
  0
ENDTAB
  0
TABLE
  2
APPID
 70
    11
  0
APPID
  2
ACAD
 70
     0
  0
APPID
  2
ACAD_MLEADERVER
 70
     0
  0
APPID
  2
ACAD_EXEMPT_FROM_CAD_STANDARDS
 70
     0
  0
APPID
  2
ACAD_NAV_VCDISPLAY
 70
     0
  0
APPID
  2
ACAECLAYERSTANDARD
 70
     0
  0
APPID
  2
ACCMTRANSPARENCY
 70
     0
  0
APPID
  2
ACAD_DSTYLE_DIMJAG
 70
     0
  0
APPID
  2
ACAD_DSTYLE_DIMTALN
 70
     0
  0
APPID
  2
ACDBATTR
 70
     0
  0
APPID
  2
ACADANNOTATIVE
 70
     0
  0
APPID
  2
DCO15
 70
     0
  0
ENDTAB
  0
TABLE
  2
DIMSTYLE
 70
     1
  0
DIMSTYLE
  2
STANDARD
 70
     0
  3

  4

  5

  6

  7

 40
1.0
 41
0.1875
 42
0.0625
 43
0.38
 44
0.125
 45
0.0
 46
0.0
 47
0.01
 48
0.01
140
0.15625
141
0.09
142
0.0
143
25.3999999999999986
144
1.0
145
0.0
146
1.0
147
0.09
 71
     1
 72
     0
 73
     1
 74
     1
 75
     0
 76
     0
 77
     0
 78
     4
170
     0
171
     2
172
     0
173
     0
174
     0
175
     0
176
     0
177
     0
178
     0
  0
ENDTAB
  0
ENDSEC
  0
SECTION
  2
BLOCKS
  0
BLOCK
  8
0
  2
$MODEL_SPACE
 70
     0
 10
0.0
 20
0.0
 30
0.0
  3
$MODEL_SPACE
  1

  0
ENDBLK
  5
21
  8
0
  0
BLOCK
 67
     1
  8
0
  2
$PAPER_SPACE
 70
     0
 10
0.0
 20
0.0
 30
0.0
  3
$PAPER_SPACE
  1

  0
ENDBLK
  5
1D
 67
     1
  8
0
  0
ENDSEC
  0
SECTION
  2
ENTITIES
  0
ATTDEF
  5
211C4
  8
DEFPOINTS
 10
4662.0385270670822138
 20
316.9296172355687986
 30
0.0
 40
0.001
  1
P22078-H
  3

  2
MODELNUMBER
 70
     0
1001
ACDBATTR
1070
     0
1070
     1
  0
ATTDEF
  5
211C5
  8
DEFPOINTS
 10
4662.0385270670822138
 20
316.9279503951897254
 30
0.0
 40
0.001
  1
MODERN
  3

  2
TRADENAME
 70
     0
1001
ACDBATTR
1070
     0
1070
     1
  0
ATTDEF
  5
211C6
  8
DEFPOINTS
 10
4662.0385270670822138
 20
316.9262839022355251
 30
0.0
 40
0.001
  1
BODY SPRAY
  3

  2
PRODUCT
 70
     0
1001
ACDBATTR
1070
     0
1070
     1
  0
LINE
  5
22D48
  8
0
 10
4660.9938508959003229
 20
316.9254162193059869
 30
0.0
 11
4663.0888508958996681
 21
316.9254162193059869
 31
0.0
  0
LINE
  5
22D49
  8
0
 10
4660.9788508958999955
 20
316.8154162193059733
 30
0.0
 11
4660.9788508958999955
 21
316.9104162193060006
 31
0.0
  0
LINE
  5
22D4A
  8
0
 10
4660.9977803573137862
 20
316.1984162193060115
 30
0.0
 11
4663.0849214344862048
 21
316.1984162193060115
 31
0.0
  0
LINE
  5
22D4B
  8
0
 10
4661.4063508959006867
 20
316.4418903118059916
 30
0.0
 11
4662.6837493526372782
 21
316.4418903118059916
 31
0.0
  0
LINE
  5
22D4C
  8
0
 10
4661.4343508959009341
 20
316.7404162193059847
 30
0.0
 11
4661.4343508959009341
 21
316.4418903118059916
 31
0.0
  0
LINE
  5
22D4D
  8
0
 10
4660.9491148967008485
 20
315.0584162193060251
 30
0.0
 11
4663.1335868951009616
 21
315.0584162193060251
 31
0.0
  0
ARC
  5
22D4E
  8
0
 10
4660.9491148967008485
 20
315.078416219306007
 30
0.0
 40
0.0200000000000012
 50
184.2608415189098992
 51
270.0
  0
ARC
  5
22D4F
  8
0
 10
4665.9153507301007267
 20
315.4484162161679137
 30
0.0
 40
4.9999998344006711
 50
179.9999999640407111
 51
184.2608416246351055
  0
ARC
  5
22D50
  8
0
 10
4665.9153509387942904
 20
315.4484162161679137
 30
0.0
 40
5.0000000430940608
 50
171.6702884089625059
 51
179.9999999640407111
  0
ARC
  5
22D51
  8
0
 10
4660.9977803573137862
 20
316.1684162193059819
 30
0.0
 40
0.03
 50
90.0
 51
171.6702942245798909
  0
LINE
  5
22D52
  8
0
 10
4660.9938508959003229
 20
316.8004162193059869
 30
0.0
 11
4663.0888508958996681
 21
316.8004162193059869
 31
0.0
  0
ARC
  5
22D53
  8
0
 10
4660.9938508959003229
 20
316.8154162193059733
 30
0.0
 40
0.015
 50
180.0000000000065086
 51
270.0
  0
ARC
  5
22D54
  8
0
 10
4660.9938508959003229
 20
316.9104162193060006
 30
0.0
 40
0.015
 50
90.0
 51
179.9999999999870113
  0
LINE
  5
22D55
  8
0
 10
4663.1038508958999955
 20
316.8154162193059733
 30
0.0
 11
4663.1038508958999955
 21
316.9104162193060006
 31
0.0
  0
ARC
  5
22D56
  8
0
 10
4663.0888508958996681
 20
316.8154162193059733
 30
0.0
 40
0.015
 50
270.0
 51
0.0000000000065138
  0
ARC
  5
22D57
  8
0
 10
4663.0888508958996681
 20
316.9104162193060006
 30
0.0
 40
0.015
 50
0.0000000000260551
 51
90.0
  0
ARC
  5
22D58
  8
0
 10
4662.0413508945011927
 20
315.9444162198993808
 30
0.0
 40
0.812499998484964
 50
142.7723665319701922
 51
161.7783440973817903
  0
ARC
  5
22D59
  8
0
 10
4661.4063508959006867
 20
316.4268903118060052
 30
0.0
 40
0.015
 50
90.0000000000521254
 51
142.7723678584119966
  0
ARC
  5
22D5A
  8
0
 10
4661.3743508958996244
 20
316.7404162193059847
 30
0.0
 40
0.06
 50
359.9999999999968168
 51
90.0
  0
LINE
  5
22D5B
  8
0
 10
4662.6483508959008759
 20
316.7404162193059847
 30
0.0
 11
4662.6483508959008759
 21
316.4418903118059916
 31
0.0
  0
ARC
  5
22D5C
  8
0
 10
4663.1335868951009616
 20
315.078416219306007
 30
0.0
 40
0.0200000000000012
 50
270.0
 51
355.7391584810901008
  0
ARC
  5
22D5D
  8
0
 10
4658.1673510617001739
 20
315.4484162161679137
 30
0.0
 40
4.9999998344006711
 50
355.7391583753649229
 51
0.0000000359593003
  0
ARC
  5
22D5E
  8
0
 10
4658.1673508530057006
 20
315.4484162161679137
 30
0.0
 40
5.0000000430940608
 50
0.0000000359593003
 51
8.3297115910375314
  0
ARC
  5
22D5F
  8
0
 10
4663.0849214344862048
 20
316.1684162193059819
 30
0.0
 40
0.03
 50
8.3297057754201216
 51
90.0
  0
ARC
  5
22D60
  8
0
 10
4662.0413508972997079
 20
315.9444162198993808
 30
0.0
 40
0.812499998484964
 50
18.2216559026181812
 51
37.7542411325727301
  0
ARC
  5
22D61
  8
0
 10
4662.7083508959003666
 20
316.7404162193059847
 30
0.0
 40
0.06
 50
90.0
 51
180.0
  0
LINE
  5
22D62
  8
0
 10
4661.9948990307511849
 20
315.0411880199059738
 30
0.0
 11
4661.9903139132693468
 21
315.0128220422139975
 31
0.0
  0
LINE
  5
22D63
  8
0
 10
4661.8768797558423103
 20
315.020247588446523
 30
0.0
 11
4661.8775108216495937
 21
315.0150479412059781
 31
0.0
  0
LINE
  5
22D64
  8
0
 10
4661.6259214400761266
 20
315.0190891973899738
 30
0.0
 11
4661.6236146709115928
 21
315.0090964988351061
 31
0.0
  0
LINE
  5
22D65
  8
0
 10
4661.5097707489921959
 20
315.0458927652591115
 30
0.0
 11
4661.5112068278504012
 21
315.0188863351060036
 31
0.0
  0
LINE
  5
22D66
  8
0
 10
4661.5734585118507312
 20
315.0584162193060251
 30
0.0
 11
4661.5748523930624287
 21
315.0417565759676108
 31
0.0
  0
LINE
  5
22D67
  8
0
 10
4661.6916379066506124
 20
315.0584162193060251
 30
0.0
 11
4661.6868254129503839
 21
315.0365402501059862
 31
0.0
  0
LINE
  5
22D68
  8
0
 10
4661.7938179140510329
 20
315.0382485204060004
 30
0.0
 11
4661.7883373363792998
 21
315.010887291162021
 31
0.0
  0
LINE
  5
22D69
  8
0
 10
4661.675144593830737
 20
315.0235078547029275
 30
0.0
 11
4661.6756811410496084
 21
315.0173700437060234
 31
0.0
  0
LINE
  5
22D6A
  8
0
 10
4661.3557099172503513
 20
315.0584162193060251
 30
0.0
 11
4661.3559826324935784
 21
315.0473807350638253
 31
0.0
  0
LINE
  5
22D6B
  8
0
 10
4661.4743530569503491
 20
315.0584162193060251
 30
0.0
 11
4661.4680556534503921
 21
315.0343554254059768
 31
0.0
  0
LINE
  5
22D6C
  8
0
 10
4661.2135328011509046
 20
315.0584162193060251
 30
0.0
 11
4661.2135156339509194
 21
315.0488838797060112
 31
0.0
  0
LINE
  5
22D6D
  8
0
 10
4661.332307044773188
 20
315.05746424229892
 30
0.0
 11
4661.3252248060189231
 21
315.0329664471855722
 31
0.0
  0
LINE
  5
22D6E
  8
0
 10
4661.1641457202504171
 20
315.0584162193060251
 30
0.0
 11
4661.1640471124992473
 21
315.0494046671373098
 31
0.0
  0
LINE
  5
22D6F
  8
0
 10
4661.1810459152502517
 20
315.0294121128727056
 30
0.0
 11
4661.253445937950346
 21
315.0184278333060206
 31
0.0
  0
LINE
  5
22D70
  8
0
 10
4661.3843475034909716
 20
315.0010628933184762
 30
0.0
 11
4661.4593665719503406
 21
314.9926627655059974
 31
0.0
  0
LINE
  5
22D71
  8
0
 10
4661.9837650517320071
 20
315.0008396241718742
 30
0.0
 11
4662.0561299608461923
 21
315.00055572674529
 31
0.0
  0
ARC
  5
22D72
  8
0
 10
4661.8987381679544342
 20
315.0178943456677985
 30
0.0
 40
0.0214015239987749
 50
187.2621234940550892
 51
248.173955440120892
  0
ARC
  5
22D73
  8
0
 10
4661.9198312944763529
 20
315.0877584879797837
 30
0.0
 40
0.0943167609085528
 50
252.0609806577884058
 51
267.9757827986030065
  0
ARC
  5
22D74
  8
0
 10
4661.9379230602771713
 20
315.2569230662379027
 30
0.0
 40
0.264292185457155
 50
265.3505704828614853
 51
276.910698089339121
  0
ARC
  5
22D75
  8
0
 10
4661.9679901197787331
 20
315.0172420572355918
 30
0.0
 40
0.0227571590612207
 50
274.3678073897721106
 51
348.8005312967255236
  0
ARC
  5
22D76
  8
0
 10
4661.9159255771946846
 20
314.9972856784057171
 30
0.0
 40
0.0003441433419309
 50
101.1438358407896061
 51
246.398630900175192
  0
ARC
  5
22D77
  8
0
 10
4661.930041758660991
 20
314.9256251508003857
 30
0.0
 40
0.0733817897706481
 50
87.4563987015899613
 51
101.1438358407896061
  0
ARC
  5
22D78
  8
0
 10
4661.9226524314817652
 20
314.7592865476187853
 30
0.0
 40
0.239884441595008
 50
83.8784943917400625
 51
87.4563987015899613
  0
ARC
  5
22D79
  8
0
 10
4661.9471971702159863
 20
314.9881444463475759
 30
0.0
 40
0.0097141089931305
 50
66.2001711664387926
 51
83.8784943917400625
  0
ARC
  5
22D7A
  8
0
 10
4661.9228939045133302
 20
315.0148704825684263
 30
0.0
 40
0.0192590912569727
 50
248.3476180895889911
 51
266.7292425635586142
  0
ARC
  5
22D7B
  8
0
 10
4661.936189400747935
 20
315.1333734550231043
 30
0.0
 40
0.1384808281594707
 50
264.033644656418403
 51
270.2039402043686209
  0
ARC
  5
22D7C
  8
0
 10
4661.93930925143286
 20
315.0552620026832074
 30
0.0
 40
0.0604256272614535
 50
267.5083422972103904
 51
280.2213203927170753
  0
ARC
  5
22D7D
  8
0
 10
4661.9492903263499102
 20
314.9999077131648164
 30
0.0
 40
0.0041786786813469
 50
280.2213203927170753
 51
300.164117340057885
  0
ARC
  5
22D7E
  8
0
 10
4661.9512665558213484
 20
314.9965725677408841
 30
0.0
 40
0.00030390740403
 50
293.9704456353475166
 51
56.043146587423351
  0
ARC
  5
22D7F
  8
0
 10
4661.9505427389267425
 20
314.9958016019945717
 30
0.0
 40
0.001358339780777
 50
48.8646685003565011
 51
64.980053894616745
  0
ARC
  5
22D80
  8
0
 10
4661.8803312862419261
 20
315.0249433289677086
 30
0.0
 40
0.0003441433419309
 50
101.1438358407896061
 51
246.398630900175192
  0
ARC
  5
22D81
  8
0
 10
4661.8944474677073231
 20
314.9532828013623202
 30
0.0
 40
0.0733817897706481
 50
87.4563987015899613
 51
101.1438358407896061
  0
ARC
  5
22D82
  8
0
 10
4661.8870581405280973
 20
314.7869441981807768
 30
0.0
 40
0.239884441595008
 50
83.8784943917400625
 51
87.4563987015899613
  0
ARC
  5
22D83
  8
0
 10
4661.9116028792632278
 20
315.0158020969095105
 30
0.0
 40
0.0097141089931305
 50
66.2001711664387926
 51
83.8784943917400625
  0
ARC
  5
22D84
  8
0
 10
4661.8872996135587528
 20
315.0425281331304177
 30
0.0
 40
0.0192590912569727
 50
248.3476180895889911
 51
266.7292425635586142
  0
ARC
  5
22D85
  8
0
 10
4661.9005951097951765
 20
315.161031105584982
 30
0.0
 40
0.1384808281594707
 50
264.033644656418403
 51
270.2039402043686209
  0
ARC
  5
22D86
  8
0
 10
4661.9037149604810111
 20
315.0829196532450851
 30
0.0
 40
0.0604256272614535
 50
267.5083422972103904
 51
280.2213203927170753
  0
ARC
  5
22D87
  8
0
 10
4661.9136960353971517
 20
315.0275653637268078
 30
0.0
 40
0.0041786786813469
 50
280.2213203927170753
 51
300.164117340057885
  0
ARC
  5
22D88
  8
0
 10
4661.915672264866771
 20
315.0242302183028187
 30
0.0
 40
0.00030390740403
 50
293.9704456353475166
 51
56.043146587423351
  0
ARC
  5
22D89
  8
0
 10
4661.9149484479730745
 20
315.0234592525565063
 30
0.0
 40
0.001358339780777
 50
48.8646685003565011
 51
64.980053894616745
  0
ARC
  5
22D8A
  8
0
 10
4661.7131140530318589
 20
314.9974976632673247
 30
0.0
 40
0.0003441433419309
 50
101.1438358407896061
 51
246.398630900175192
  0
ARC
  5
22D8B
  8
0
 10
4661.7272302344990749
 20
314.9258371356618795
 30
0.0
 40
0.0733817897706481
 50
87.4563987015899613
 51
101.1438358407896061
  0
ARC
  5
22D8C
  8
0
 10
4661.7198409073189396
 20
314.7594985324803929
 30
0.0
 40
0.239884441595008
 50
83.8784943917400625
 51
87.4563987015899613
  0
ARC
  5
22D8D
  8
0
 10
4661.7443856460540701
 20
314.9883564312091266
 30
0.0
 40
0.0097141089931305
 50
66.2001711664387926
 51
83.8784943917400625
  0
ARC
  5
22D8E
  8
0
 10
4661.720082380351414
 20
315.0150824674299201
 30
0.0
 40
0.0192590912569727
 50
248.3476180895889911
 51
266.7292425635586142
  0
ARC
  5
22D8F
  8
0
 10
4661.7333778765851093
 20
315.1335854398844845
 30
0.0
 40
0.1384808281594707
 50
264.033644656418403
 51
270.2039402043686209
  0
ARC
  5
22D90
  8
0
 10
4661.7364977272718534
 20
315.0554739875448149
 30
0.0
 40
0.0604256272614535
 50
267.5083422972103904
 51
280.2213203927170753
  0
ARC
  5
22D91
  8
0
 10
4661.746478802187994
 20
315.000119698026424
 30
0.0
 40
0.0041786786813469
 50
280.2213203927170753
 51
300.164117340057885
  0
ARC
  5
22D92
  8
0
 10
4661.7484550316576133
 20
314.996784552602378
 30
0.0
 40
0.00030390740403
 50
293.9704456353475166
 51
56.043146587423351
  0
ARC
  5
22D93
  8
0
 10
4661.7477312147639168
 20
314.9960135868561224
 30
0.0
 40
0.001358339780777
 50
48.8646685003565011
 51
64.980053894616745
  0
ARC
  5
22D94
  8
0
 10
4661.6125642718570816
 20
315.0255232344840124
 30
0.0
 40
0.0003441433419309
 50
97.921012668212299
 51
243.1758077276064967
  0
ARC
  5
22D95
  8
0
 10
4661.6226294289708676
 20
314.9531824409568799
 30
0.0
 40
0.0733817897706481
 50
84.2335755290498867
 51
97.921012668212299
  0
ARC
  5
22D96
  8
0
 10
4661.6059003620357544
 20
314.7875223329525056
 30
0.0
 40
0.239884441595008
 50
80.6556712191784015
 51
84.2335755290498867
  0
ARC
  5
22D97
  8
0
 10
4661.6432724943342691
 20
315.0146383952147744
 30
0.0
 40
0.0097141089931305
 50
62.9773479938564478
 51
80.6556712191784015
  0
ARC
  5
22D98
  8
0
 10
4661.6205101823652512
 20
315.0426884734637838
 30
0.0
 40
0.0192590912569727
 50
245.1247949170140998
 51
263.506419390981705
  0
ARC
  5
22D99
  8
0
 10
4661.6404467956517692
 20
315.1602565650168231
 30
0.0
 40
0.1384808281594707
 50
260.8108214838555909
 51
266.9811170317893243
  0
ARC
  5
22D9A
  8
0
 10
4661.639170347291838
 20
315.0820932543492177
 30
0.0
 40
0.0604256272614535
 50
264.2855191246762274
 51
276.9984972201314122
  0
ARC
  5
22D9B
  8
0
 10
4661.6460236617085684
 20
315.0262653822234142
 30
0.0
 40
0.0041786786813469
 50
276.9984972201314122
 51
296.9412941674905255
  0
ARC
  5
22D9C
  8
0
 10
4661.6478092664001451
 20
315.0228244094245156
 30
0.0
 40
0.00030390740403
 50
290.7476224627383772
 51
52.8203234148100904
  0
ARC
  5
22D9D
  8
0
 10
4661.647043251166906
 20
315.0220953554202197
 30
0.0
 40
0.001358339780777
 50
45.6418453277733818
 51
61.7572307220564127
  0
ARC
  5
22D9E
  8
0
 10
4661.5491529171222282
 20
314.9988993085135007
 30
0.0
 40
0.0003441433419309
 50
97.1082780196158666
 51
242.3630730790276004
  0
ARC
  5
22D9F
  8
0
 10
4661.5581909494521824
 20
314.9264230243410907
 30
0.0
 40
0.0733817897706481
 50
83.4208408804852155
 51
97.1082780196158666
  0
ARC
  5
22DA0
  8
0
 10
4661.5391137729993716
 20
314.7610168745064243
 30
0.0
 40
0.239884441595008
 50
79.8429365705721921
 51
83.4208408804852155
  0
ARC
  5
22DA1
  8
0
 10
4661.5797036551002748
 20
314.9875799859809717
 30
0.0
 40
0.0097141089931305
 50
62.1646133452915777
 51
79.842936570623479
  0
ARC
  5
22DA2
  8
0
 10
4661.5573415071967247
 20
315.0159501124717281
 30
0.0
 40
0.0192590912569727
 50
244.3120602684506082
 51
262.6936847423959875
  0
ARC
  5
22DA3
  8
0
 10
4661.5789437499561245
 20
315.1332235869173246
 30
0.0
 40
0.1384808281594707
 50
259.9980868352619154
 51
266.1683823832415214
  0
ARC
  5
22DA4
  8
0
 10
4661.5765587287951348
 20
315.055086245466498
 30
0.0
 40
0.0604256272614535
 50
263.4727844761090978
 51
276.1857625715804829
  0
ARC
  5
22DA5
  8
0
 10
4661.5826194677601961
 20
314.9991667795555941
 30
0.0
 40
0.0041786786813469
 50
276.1857625715804829
 51
296.128559518908105
  0
ARC
  5
22DA6
  8
0
 10
4661.5843560846105902
 20
314.9957008251654997
 30
0.0
 40
0.00030390740403
 50
289.9348878142056947
 51
52.0075887662637726
  0
ARC
  5
22DA7
  8
0
 10
4661.5835798052348764
 20
314.9949827099886761
 30
0.0
 40
0.001358339780777
 50
44.8291106792161074
 51
60.9444960734830303
  0
ARC
  5
22DA8
  8
0
 10
4661.3930028406239217
 20
315.0259505062185212
 30
0.0
 40
0.0003441433419309
 50
96.1774617301938264
 51
241.4322567895630982
  0
ARC
  5
22DA9
  8
0
 10
4661.4008622962173831
 20
314.9533369623466115
 30
0.0
 40
0.0733817897706481
 50
82.4900245909939684
 51
96.1774617301934853
  0
ARC
  5
22DAA
  8
0
 10
4661.3791005986777236
 20
314.7882625500810718
 30
0.0
 40
0.239884441595008
 50
78.9121202811444533
 51
82.4900245909939684
  0
ARC
  5
22DAB
  8
0
 10
4661.4233656636570231
 20
315.0141363777648849
 30
0.0
 40
0.0097141089931305
 50
61.2337970557926923
 51
78.9121202811444533
  0
ARC
  5
22DAC
  8
0
 10
4661.4014673420506369
 20
315.0428660357296735
 30
0.0
 40
0.0192590912569727
 50
243.3812439790011979
 51
261.7628684529340717
  0
ARC
  5
22DAD
  8
0
 10
4661.4249718528326412
 20
315.1597731042655823
 30
0.0
 40
0.1384808281594707
 50
259.0672705458187011
 51
265.2375660937653947
  0
ARC
  5
22DAE
  8
0
 10
4661.4213177979136162
 20
315.0816848187320147
 30
0.0
 40
0.0604256272614535
 50
262.5419681866430892
 51
275.2549462820717849
  0
ARC
  5
22DAF
  8
0
 10
4661.4264693201021146
 20
315.0256742746914824
 30
0.0
 40
0.0041786786813469
 50
275.2549462820717849
 51
295.1977432294373784
  0
ARC
  5
22DB0
  8
0
 10
4661.4281494030319664
 20
315.0221805661648773
 30
0.0
 40
0.00030390740403
 50
289.0040715247131971
 51
51.0767724768074274
  0
ARC
  5
22DB1
  8
0
 10
4661.4273615602432983
 20
315.0214751564824951
 30
0.0
 40
0.001358339780777
 50
43.8982943897611122
 51
60.0136797840220311
  0
ARC
  5
22DB2
  8
0
 10
4661.2916401363218029
 20
315.197401336528003
 30
0.0
 40
0.1761539586473339
 50
256.0338962669937928
 51
267.7629770878608042
  0
ARC
  5
22DB3
  8
0
 10
4661.2423475670511834
 20
314.8511214245659176
 30
0.0
 40
0.1754642671364846
 50
76.0107633945288512
 51
87.7861099603082664
  0
LINE
  5
22DB4
  8
0
 10
4661.9583098306511602
 20
315.0584162193060251
 30
0.0
 11
4661.9550737818917696
 21
315.0392827949302159
 31
0.0
  0
LINE
  5
22DB5
  8
0
 10
4661.8404341079503865
 20
315.0584162193060251
 30
0.0
 11
4661.8422986941768613
 21
315.0422524511902793
 31
0.0
  0
ARC
  5
22DB6
  8
0
 10
4661.9525604167865822
 20
314.789987861095824
 30
0.0
 40
0.2547431608867647
 50
80.4329794330044336
 51
89.2248764196260851
  0
ARC
  5
22DB7
  8
0
 10
4661.9551698378054425
 20
314.8054698741470929
 30
0.0
 40
0.2390427848986909
 50
75.0657481700441878
 51
80.4329794330044336
  0
ARC
  5
22DB8
  8
0
 10
4662.0162249766872264
 20
315.0343811549694806
 30
0.0
 40
0.0021290780946205
 50
330.4148071635789279
 51
75.0657481700458646
  0
ARC
  5
22DB9
  8
0
 10
4661.9905796831653788
 20
315.1036099317794879
 30
0.0
 40
0.0754674975792782
 50
271.7273387344905018
 51
291.3677532837203898
  0
ARC
  5
22DBA
  8
0
 10
4661.4725350048029213
 20
312.7310770718427193
 30
0.0
 40
2.329434008689744
 50
82.0723135198874445
 51
83.0423518525219464
  0
ARC
  5
22DBB
  8
0
 10
4661.7833615039662618
 20
314.9422214822484989
 30
0.0
 40
0.0965946611832685
 50
70.5847777989706344
 51
83.7855317713056849
  0
ARC
  5
22DBC
  8
0
 10
4661.7920596124367876
 20
315.1206186798228259
 30
0.0
 40
0.0937939478107617
 50
269.6950486769544
 51
285.1701050627348195
  0
ARC
  5
22DBD
  8
0
 10
4661.1840459151835603
 20
315.0491858327815748
 30
0.0
 40
0.0199999999329209
 50
179.3730732384242117
 51
261.3730736073155185
  0
ARC
  5
22DBE
  8
0
 10
4661.2564459379509572
 20
315.0382015532060223
 30
0.0
 40
0.0200000000000057
 50
261.373073400758301
 51
305.0701392234925038
  0
ARC
  5
22DBF
  8
0
 10
4661.2344338369339312
 20
315.049135672891623
 30
0.0
 40
0.0209197183516045
 50
180.6896381181022093
 51
258.7119083253595022
  0
ARC
  5
22DC0
  8
0
 10
4661.3366616501962199
 20
315.5115613231189968
 30
0.0
 40
0.4945060347283241
 50
257.5840111648395236
 51
265.6803814052387906
  0
ARC
  5
22DC1
  8
0
 10
4661.3044472835472334
 20
315.0397202550170164
 30
0.0
 40
0.0218476396957761
 50
256.6841890619792252
 51
341.9930623886049261
  0
ARC
  5
22DC2
  8
0
 10
4661.3768726943244474
 20
315.048035557669607
 30
0.0
 40
0.020900322387417
 50
181.7954130943300015
 51
239.804941271321411
  0
ARC
  5
22DC3
  8
0
 10
4661.4205174289072602
 20
315.1704111553395933
 30
0.0
 40
0.150520266971045
 50
248.9123865376697893
 51
265.3083268737199774
  0
ARC
  5
22DC4
  8
0
 10
4661.4412864798896408
 20
315.3010071621113752
 30
0.0
 40
0.2825550940459039
 50
263.2765719154838848
 51
271.2732708103043251
  0
ARC
  5
22DC5
  8
0
 10
4661.4470514632612321
 20
315.0403619465560041
 30
0.0
 40
0.0218461507317996
 50
271.347287157771575
 51
344.0411782407845749
  0
ARC
  5
22DC6
  8
0
 10
4661.386606762827796
 20
315.0209348774600926
 30
0.0
 40
0.0200000001619793
 50
181.5138545393770073
 51
263.5138540522237918
  0
ARC
  5
22DC7
  8
0
 10
4661.4593665719503406
 20
315.0126627655059792
 30
0.0
 40
0.0199999999999818
 50
270.0
 51
294.6772951586034992
  0
ARC
  5
22DC8
  8
0
 10
4661.4961218696789729
 20
315.0132294290385744
 30
0.0
 40
0.0206333576000168
 50
265.3919908635368188
 51
342.7256290936874166
  0
ARC
  5
22DC9
  8
0
 10
4661.5327669233802226
 20
315.0205382450985212
 30
0.0
 40
0.0216232866573931
 50
184.3813772742643948
 51
262.2446844153596999
  0
ARC
  5
22DCA
  8
0
 10
4661.6029960795749503
 20
315.0141488998186787
 30
0.0
 40
0.0212091991265353
 50
270.4738126530530735
 51
346.4952385741975718
  0
ARC
  5
22DCB
  8
0
 10
4661.5996452670060535
 20
315.4193365630167136
 30
0.0
 40
0.4264107173278675
 50
265.4089265240090185
 51
270.4738126530530735
  0
ARC
  5
22DCC
  8
0
 10
4661.5921169874245606
 20
315.3255861391285748
 30
0.0
 40
0.3323585138839529
 50
259.1799445904812274
 51
265.4089265240090185
  0
ARC
  5
22DCD
  8
0
 10
4661.7674025578517103
 20
315.0151788494326865
 30
0.0
 40
0.0213701292559746
 50
278.1781948409335996
 51
348.4150611165940745
  0
ARC
  5
22DCE
  8
0
 10
4661.6978793391590443
 20
315.0196715184545155
 30
0.0
 40
0.0223055810954485
 50
186.0112241728807874
 51
262.2485701160063059
  0
ARC
  5
22DCF
  8
0
 10
4661.7452656398927502
 20
315.2646912184878829
 30
0.0
 40
0.2718336085975532
 50
259.3162258660881889
 51
275.3142751679689013
  0
ARC
  5
22DD0
  8
0
 10
4661.7974676407511652
 20
314.9991107328485214
 30
0.0
 40
0.0205373078448211
 50
188.2662804661005964
 51
267.8471872729637084
  0
ARC
  5
22DD1
  8
0
 10
4661.8500917867813769
 20
315.3523461355645736
 30
0.0
 40
0.3775530377890817
 50
261.8696579133094815
 51
272.1921718761378202
  0
ARC
  5
22DD2
  8
0
 10
4661.8661632941239077
 20
314.9996996903515765
 30
0.0
 40
0.0246841326725765
 50
266.2146425165046253
 51
356.1074083935253043
  0
ARC
  5
22DD3
  8
0
 10
4661.8657188133638556
 20
315.0459353677808849
 30
0.0
 40
0.0237079281540727
 50
188.9368264372419048
 51
259.4624107570763272
  0
ARC
  5
22DD4
  8
0
 10
4661.9068378565798412
 20
315.2669844341116914
 30
0.0
 40
0.2485489062713322
 50
259.4624107570763272
 51
269.9120449775252268
  0
ARC
  5
22DD5
  8
0
 10
4661.9066867615993033
 20
315.1685580146580037
 30
0.0
 40
0.1501223708442312
 50
269.9120449775252268
 51
282.8673505928171039
  0
ARC
  5
22DD6
  8
0
 10
4661.935809781090029
 20
315.0410659930288944
 30
0.0
 40
0.0193463568227388
 50
282.867640845422784
 51
354.7114100251015998
  0
ARC
  5
22DD7
  8
0
 10
4661.9530650832002721
 20
315.1232894117716796
 30
0.0
 40
0.0711152025561472
 50
273.439360369232304
 51
294.1789806683609072
  0
ARC
  5
22DD8
  8
0
 10
4661.8146055708020867
 20
315.0301290820819986
 30
0.0
 40
0.0033092320831512
 50
23.3330537584781013
 51
74.8451158194325217
  0
ARC
  5
22DD9
  8
0
 10
4661.8160649493829624
 20
315.0315845118529978
 30
0.0
 40
0.0015858356741506
 50
289.8771564573020783
 51
354.7638523725419759
  0
ARC
  5
22DDA
  8
0
 10
4661.5138409412911642
 20
315.0988530994545727
 30
0.0
 40
0.0620550466618988
 50
243.2219859457482869
 51
266.6495955652073917
  0
ARC
  5
22DDB
  8
0
 10
4661.512527686489193
 20
314.9007419874758966
 30
0.0
 40
0.1451769575224024
 50
91.0881229457734918
 51
100.5755962333170004
  0
ARC
  5
22DDC
  8
0
 10
4661.4528547189947858
 20
313.6362490996780252
 30
0.0
 40
1.4107922236755699
 50
85.0391752923534767
 51
87.6878710390180487
  0
ARC
  5
22DDD
  8
0
 10
4661.342845773645422
 20
315.1067702843932921
 30
0.0
 40
0.0565960204905472
 50
257.5215011016525182
 51
283.3098921806429757
  0
ARC
  5
22DDE
  8
0
 10
4661.2891335738895577
 20
314.833991284251681
 30
0.0
 40
0.227704028243218
 50
72.9559500439217175
 51
80.2613500036639351
  0
ARC
  5
22DDF
  8
0
 10
4661.4244952475119135
 20
315.0209394032830801
 30
0.0
 40
0.0206402914969211
 50
180.3426947404798
 51
260.4239372658811931
  0
ARC
  5
22DE0
  8
0
 10
4661.524162192356016
 20
315.6117066515124066
 30
0.0
 40
0.6197558408485357
 50
260.4239372658811931
 51
267.2534018443934087
  0
ARC
  5
22DE1
  8
0
 10
4661.4335310134092651
 20
314.7662498613677826
 30
0.0
 40
0.2326832610120618
 50
79.4703443813436934
 51
88.3433712081452853
  0
ARC
  5
22DE2
  8
0
 10
4661.4828138464936274
 20
315.2279239016497172
 30
0.0
 40
0.2330071778617554
 50
259.4765241669060174
 51
268.3371914226109993
  0
ARC
  5
22DE3
  8
0
 10
4661.4805407466119505
 20
315.093632318356299
 30
0.0
 40
0.0441345058262119
 50
259.1789899438920202
 51
294.528195078913825
  0
ARC
  5
22DE4
  8
0
 10
4661.484866614380735
 20
315.0372594934455037
 30
0.0
 40
0.0214247233695198
 50
49.2112114693018725
 51
80.8718981078207548
  0
ARC
  5
22DE5
  8
0
 10
4661.6921193926336855
 20
315.1176106666579813
 30
0.0
 40
0.0671161066261151
 50
268.1077949519419121
 51
289.9566036458824101
  0
ARC
  5
22DE6
  8
0
 10
4661.7142668009064437
 20
315.0566174631383092
 30
0.0
 40
0.0022263649963341
 50
289.956603645884627
 51
53.764000359520729
  0
ARC
  5
22DE7
  8
0
 10
4661.675888785153802
 20
313.6813647472728235
 30
0.0
 40
1.364271304535783
 50
86.6877688945213549
 51
89.4572120213544082
  0
ARC
  5
22DE8
  8
0
 10
4661.6141720584173527
 20
315.0000654305122794
 30
0.0
 40
0.0198696534903041
 50
200.9998716093205928
 51
266.1730657097446056
  0
ARC
  5
22DE9
  8
0
 10
4661.734454339968579
 20
316.0333133750972934
 30
0.0
 40
1.060071682892314
 50
263.4126869305002856
 51
267.331436206164085
  0
ARC
  5
22DEA
  8
0
 10
4661.6837692337048793
 20
314.9988225447880268
 30
0.0
 40
0.0244674474887126
 50
273.1157304883673191
 51
340.7559611559801738
  0
ARC
  5
22DEB
  8
0
 10
4661.4677567479766367
 20
315.0443797182711023
 30
0.0
 40
0.2450513808110165
 50
347.3604286338565998
 51
348.4486514544688021
  0
ARC
  5
22DEC
  8
0
 10
4661.8275269203159041
 20
314.8415155714625939
 30
0.0
 40
0.1373886605317203
 50
80.2634428734983771
 51
95.3181550253833052
  0
ARC
  5
22DED
  8
0
 10
4661.8380450926133562
 20
315.1139522132734783
 30
0.0
 40
0.1376179776295013
 50
260.2725346778011044
 51
275.3018835812770249
  0
ARC
  5
22DEE
  8
0
 10
4661.787408261069686
 20
313.7932295708134234
 30
0.0
 40
1.2300656546172459
 50
85.8275789410803185
 51
89.8419347772614572
  0
ARC
  5
22DEF
  8
0
 10
4661.5977004186515842
 20
315.0479500446932093
 30
0.0
 40
0.0236725860051768
 50
195.1668277816295927
 51
255.5967652128965995
  0
ARC
  5
22DF0
  8
0
 10
4661.6462462786257674
 20
315.2369793798624187
 30
0.0
 40
0.2188360817597677
 50
255.5967652128965995
 51
273.583852830808496
  0
ARC
  5
22DF1
  8
0
 10
4661.6579130783002256
 20
315.0507032119433006
 30
0.0
 40
0.0321949154826857
 50
273.583852830808496
 51
333.9016697065579251
  0
LINE
  5
22DF2
  8
0
 10
4661.3663609731438555
 20
315.029971029064086
 30
0.0
 11
4661.3666137434283883
 21
315.0204065039757779
 31
0.0
  0
ARC
  5
22DF3
  8
0
 10
4661.6247041404576521
 20
314.6328276251966827
 30
0.0
 40
0.3461402945084811
 50
82.928204308593493
 51
88.8895891192987904
  0
ARC
  5
22DF4
  8
0
 10
4661.6740977015706449
 20
315.3234067788339985
 30
0.0
 40
0.3471382680012094
 50
262.9367789953769261
 51
268.8810123411918198
  0
LINE
  5
22DF5
  8
0
 10
4662.0878027610506251
 20
315.0411880199059738
 30
0.0
 11
4662.0923878785333727
 21
315.0128220422139975
 31
0.0
  0
LINE
  5
22DF6
  8
0
 10
4662.2058220359576808
 20
315.020247588446523
 30
0.0
 11
4662.2051934696228273
 21
315.0151890032138908
 31
0.0
  0
LINE
  5
22DF7
  8
0
 10
4662.4567803517256834
 20
315.0190891973899738
 30
0.0
 11
4662.4590829364869933
 21
315.0091959967891171
 31
0.0
  0
LINE
  5
22DF8
  8
0
 10
4662.5729310428087047
 20
315.0458927652591115
 30
0.0
 11
4662.5714949639514089
 21
315.0188863351060036
 31
0.0
  0
LINE
  5
22DF9
  8
0
 10
4662.5092432799501694
 20
315.0584162193060251
 30
0.0
 11
4662.5078493987375623
 21
315.0417565759676108
 31
0.0
  0
LINE
  5
22DFA
  8
0
 10
4662.3910638851502881
 20
315.0584162193060251
 30
0.0
 11
4662.3958763788514261
 21
315.0365402501059862
 31
0.0
  0
LINE
  5
22DFB
  8
0
 10
4662.2888838777498677
 20
315.0382485204060004
 30
0.0
 11
4662.2943644554216007
 21
315.010887291162021
 31
0.0
  0
LINE
  5
22DFC
  8
0
 10
4662.4075571979701635
 20
315.0235078547029275
 30
0.0
 11
4662.4070206507503826
 21
315.0173700437060234
 31
0.0
  0
LINE
  5
22DFD
  8
0
 10
4662.7269918745496398
 20
315.0584162193060251
 30
0.0
 11
4662.7267191593064126
 21
315.0473807350638253
 31
0.0
  0
LINE
  5
22DFE
  8
0
 10
4662.6083487348505514
 20
315.0584162193060251
 30
0.0
 11
4662.6146461383495989
 21
315.0343554254059768
 31
0.0
  0
LINE
  5
22DFF
  8
0
 10
4662.8691689906509055
 20
315.0584162193060251
 30
0.0
 11
4662.8691861578508906
 21
315.0488838797060112
 31
0.0
  0
LINE
  5
22E00
  8
0
 10
4662.7503947470268031
 20
315.05746424229892
 30
0.0
 11
4662.7575025806236226
 21
315.0330985348260242
 31
0.0
  0
LINE
  5
22E01
  8
0
 10
4662.918556071549574
 20
315.0584162193060251
 30
0.0
 11
4662.9186546793025627
 21
315.0494046671373098
 31
0.0
  0
LINE
  5
22E02
  8
0
 10
4662.9016558765506488
 20
315.0294121128727056
 30
0.0
 11
4662.8292558538496451
 21
315.0184278333060206
 31
0.0
  0
LINE
  5
22E03
  8
0
 10
4662.698354288309929
 20
315.0010628933184762
 30
0.0
 11
4662.6233352198496505
 21
314.9926627655059974
 31
0.0
  0
ARC
  5
22E04
  8
0
 10
4662.1839636238482854
 20
315.0178943456677985
 30
0.0
 40
0.0214015239987749
 50
291.8260445598792217
 51
352.7378765059448824
  0
ARC
  5
22E05
  8
0
 10
4662.1628704973245476
 20
315.0877584879797837
 30
0.0
 40
0.0943167609085528
 50
272.0242172013969935
 51
287.9390193422116226
  0
ARC
  5
22E06
  8
0
 10
4662.1447787315219102
 20
315.2569230662379027
 30
0.0
 40
0.264292185457155
 50
263.089301910660879
 51
274.649429517138401
  0
ARC
  5
22E07
  8
0
 10
4662.1147116720221675
 20
315.0172420572355918
 30
0.0
 40
0.0227571590612207
 50
191.1994687032745048
 51
265.6321926102278894
  0
ARC
  5
22E08
  8
0
 10
4662.1667762146062159
 20
314.9972856784057171
 30
0.0
 40
0.0003441433419309
 50
293.6013690998246943
 51
78.8561641592104223
  0
ARC
  5
22E09
  8
0
 10
4662.152660033139
 20
314.9256251508003857
 30
0.0
 40
0.0733817897706481
 50
78.8561641592104223
 51
92.5436012984100245
  0
ARC
  5
22E0A
  8
0
 10
4662.1600493603191353
 20
314.7592865476187853
 30
0.0
 40
0.239884441595008
 50
92.5436012984100245
 51
96.1215056082599517
  0
ARC
  5
22E0B
  8
0
 10
4662.1355046215840048
 20
314.9881444463475759
 30
0.0
 40
0.0097141089931305
 50
96.1215056082599517
 51
113.7998288335611932
  0
ARC
  5
22E0C
  8
0
 10
4662.1598078872866608
 20
315.0148704825684263
 30
0.0
 40
0.0192590912569727
 50
273.2707574364413858
 51
291.6523819104110089
  0
ARC
  5
22E0D
  8
0
 10
4662.1465123910529655
 20
315.1333734550231043
 30
0.0
 40
0.1384808281594707
 50
269.7960597956313791
 51
275.966355343581597
  0
ARC
  5
22E0E
  8
0
 10
4662.143392540367131
 20
315.0552620026832074
 30
0.0
 40
0.0604256272614535
 50
259.778679607282811
 51
272.4916577027896096
  0
ARC
  5
22E0F
  8
0
 10
4662.1334114654500809
 20
314.9999077131648164
 30
0.0
 40
0.0041786786813469
 50
239.8358826599422002
 51
259.778679607282811
  0
ARC
  5
22E10
  8
0
 10
4662.1314352359795521
 20
314.9965725677408841
 30
0.0
 40
0.00030390740403
 50
123.9568534125766064
 51
246.0295543646525118
  0
ARC
  5
22E11
  8
0
 10
4662.1321590528750676
 20
314.9958016019945717
 30
0.0
 40
0.001358339780777
 50
115.0199461053831982
 51
131.1353314996435131
  0
ARC
  5
22E12
  8
0
 10
4662.2023705055589744
 20
315.0249433289677086
 30
0.0
 40
0.0003441433419309
 50
293.6013690998246943
 51
78.8561641592104223
  0
ARC
  5
22E13
  8
0
 10
4662.188254324092668
 20
314.9532828013623202
 30
0.0
 40
0.0733817897706481
 50
78.8561641592104223
 51
92.5436012984100245
  0
ARC
  5
22E14
  8
0
 10
4662.1956436512718938
 20
314.7869441981807768
 30
0.0
 40
0.239884441595008
 50
92.5436012984100245
 51
96.1215056082599517
  0
ARC
  5
22E15
  8
0
 10
4662.1710989125367632
 20
315.0158020969095105
 30
0.0
 40
0.0097141089931305
 50
96.1215056082599517
 51
113.7998288335611932
  0
ARC
  5
22E16
  8
0
 10
4662.1954021782412383
 20
315.0425281331304177
 30
0.0
 40
0.0192590912569727
 50
273.2707574364413858
 51
291.6523819104110089
  0
ARC
  5
22E17
  8
0
 10
4662.182106682005724
 20
315.161031105584982
 30
0.0
 40
0.1384808281594707
 50
269.7960597956313791
 51
275.966355343581597
  0
ARC
  5
22E18
  8
0
 10
4662.1789868313198895
 20
315.0829196532450851
 30
0.0
 40
0.0604256272614535
 50
259.778679607282811
 51
272.4916577027896096
  0
ARC
  5
22E19
  8
0
 10
4662.1690057564028393
 20
315.0275653637268078
 30
0.0
 40
0.0041786786813469
 50
239.8358826599422002
 51
259.778679607282811
  0
ARC
  5
22E1A
  8
0
 10
4662.16702952693322
 20
315.0242302183028187
 30
0.0
 40
0.00030390740403
 50
123.9568534125766064
 51
246.0295543646525118
  0
ARC
  5
22E1B
  8
0
 10
4662.167753343827826
 20
315.0234592525565063
 30
0.0
 40
0.001358339780777
 50
115.0199461053831982
 51
131.1353314996435131
  0
ARC
  5
22E1C
  8
0
 10
4662.3695877387681321
 20
314.9974976632673247
 30
0.0
 40
0.0003441433419309
 50
293.6013690998246943
 51
78.8561641592104223
  0
ARC
  5
22E1D
  8
0
 10
4662.3554715573027352
 20
314.9258371356618795
 30
0.0
 40
0.0733817897706481
 50
78.8561641592104223
 51
92.5436012984100245
  0
ARC
  5
22E1E
  8
0
 10
4662.362860884480142
 20
314.7594985324803929
 30
0.0
 40
0.239884441595008
 50
92.5436012984100245
 51
96.1215056082599517
  0
ARC
  5
22E1F
  8
0
 10
4662.3383161457468304
 20
314.9883564312091266
 30
0.0
 40
0.0097141089931305
 50
96.1215056082599517
 51
113.7998288335611932
  0
ARC
  5
22E20
  8
0
 10
4662.362619411450396
 20
315.0150824674299201
 30
0.0
 40
0.0192590912569727
 50
273.2707574364413858
 51
291.6523819104110089
  0
ARC
  5
22E21
  8
0
 10
4662.3493239152157912
 20
315.1335854398844845
 30
0.0
 40
0.1384808281594707
 50
269.7960597956313791
 51
275.966355343581597
  0
ARC
  5
22E22
  8
0
 10
4662.3462040645299567
 20
315.0554739875448149
 30
0.0
 40
0.0604256272614535
 50
259.778679607282811
 51
272.4916577027896096
  0
ARC
  5
22E23
  8
0
 10
4662.3362229896129065
 20
315.000119698026424
 30
0.0
 40
0.0041786786813469
 50
239.8358826599422002
 51
259.778679607282811
  0
ARC
  5
22E24
  8
0
 10
4662.3342467601423778
 20
314.996784552602378
 30
0.0
 40
0.00030390740403
 50
123.9568534125766064
 51
246.0295543646525118
  0
ARC
  5
22E25
  8
0
 10
4662.3349705770369837
 20
314.9960135868561224
 30
0.0
 40
0.001358339780777
 50
115.0199461053831982
 51
131.1353314996435131
  0
ARC
  5
22E26
  8
0
 10
4662.4701375199429094
 20
315.0255232344840124
 30
0.0
 40
0.0003441433419309
 50
296.8241922723934181
 51
82.0789873317877152
  0
ARC
  5
22E27
  8
0
 10
4662.4600723628291234
 20
314.9531824409568799
 30
0.0
 40
0.0733817897706481
 50
82.0789873317877152
 51
95.7664244709501133
  0
ARC
  5
22E28
  8
0
 10
4662.4768014297651462
 20
314.7875223329525056
 30
0.0
 40
0.239884441595008
 50
95.7664244709501133
 51
99.3443287808216269
  0
ARC
  5
22E29
  8
0
 10
4662.4394292974657219
 20
315.0146383952147744
 30
0.0
 40
0.0097141089931305
 50
99.3443287808216269
 51
117.0226520061435025
  0
ARC
  5
22E2A
  8
0
 10
4662.4621916094338303
 20
315.0426884734637838
 30
0.0
 40
0.0192590912569727
 50
276.493580609018295
 51
294.8752050829858149
  0
ARC
  5
22E2B
  8
0
 10
4662.4422549961491313
 20
315.1602565650168231
 30
0.0
 40
0.1384808281594707
 50
273.0188829682106757
 51
279.1891785161442954
  0
ARC
  5
22E2C
  8
0
 10
4662.4435314445081531
 20
315.0820932543492177
 30
0.0
 40
0.0604256272614535
 50
263.0015027798687015
 51
275.7144808753237726
  0
ARC
  5
22E2D
  8
0
 10
4662.4366781300932416
 20
315.0262653822234142
 30
0.0
 40
0.0041786786813469
 50
243.0587058325095029
 51
263.0015027798687015
  0
ARC
  5
22E2E
  8
0
 10
4662.4348925254007554
 20
315.0228244094245156
 30
0.0
 40
0.00030390740403
 50
127.1796765851898954
 51
249.2523775372615944
  0
ARC
  5
22E2F
  8
0
 10
4662.4356585406330851
 20
315.0220953554202197
 30
0.0
 40
0.001358339780777
 50
118.2427692779435944
 51
134.3581546722265898
  0
ARC
  5
22E30
  8
0
 10
4662.5335488746786723
 20
314.9988993085135007
 30
0.0
 40
0.0003441433419309
 50
297.636926920972428
 51
82.8917219803841192
  0
ARC
  5
22E31
  8
0
 10
4662.5245108423496276
 20
314.9264230243410907
 30
0.0
 40
0.0733817897706481
 50
82.8917219803841192
 51
96.5791591195147987
  0
ARC
  5
22E32
  8
0
 10
4662.5435880188024385
 20
314.7610168745064243
 30
0.0
 40
0.239884441595008
 50
96.5791591195147987
 51
100.1570634294277937
  0
ARC
  5
22E33
  8
0
 10
4662.5029981367006258
 20
314.9875799859809717
 30
0.0
 40
0.0097141089931305
 50
100.1570634293765067
 51
117.835386654708401
  0
ARC
  5
22E34
  8
0
 10
4662.5253602846032663
 20
315.0159501124717281
 30
0.0
 40
0.0192590912569727
 50
277.3063152576038988
 51
295.6879397315494202
  0
ARC
  5
22E35
  8
0
 10
4662.5037580418456855
 20
315.1332235869173246
 30
0.0
 40
0.1384808281594707
 50
273.8316176167584786
 51
280.0019131647380846
  0
ARC
  5
22E36
  8
0
 10
4662.5061430630057657
 20
315.055086245466498
 30
0.0
 40
0.0604256272614535
 50
263.8142374284194034
 51
276.5272155238910159
  0
ARC
  5
22E37
  8
0
 10
4662.5000823240388854
 20
314.9991667795555941
 30
0.0
 40
0.0041786786813469
 50
243.871440481091895
 51
263.8142374284194034
  0
ARC
  5
22E38
  8
0
 10
4662.4983457071894009
 20
314.9957008251654997
 30
0.0
 40
0.00030390740403
 50
127.9924112337362061
 51
250.0651121857943053
  0
ARC
  5
22E39
  8
0
 10
4662.4991219865669336
 20
314.9949827099886761
 30
0.0
 40
0.001358339780777
 50
119.0555039265170052
 51
135.1708893207839139
  0
ARC
  5
22E3A
  8
0
 10
4662.6896989511760694
 20
315.0259505062185212
 30
0.0
 40
0.0003441433419309
 50
298.5677432104369018
 51
83.8225382698061878
  0
ARC
  5
22E3B
  8
0
 10
4662.6818394955853364
 20
314.9533369623466115
 30
0.0
 40
0.0733817897706481
 50
83.8225382698065431
 51
97.5099754090060458
  0
ARC
  5
22E3C
  8
0
 10
4662.7036011931222674
 20
314.7882625500810718
 30
0.0
 40
0.239884441595008
 50
97.5099754090060458
 51
101.0878797188555041
  0
ARC
  5
22E3D
  8
0
 10
4662.6593361281429679
 20
315.0141363777648849
 30
0.0
 40
0.0097141089931305
 50
101.0878797188555041
 51
118.7662029442072935
  0
ARC
  5
22E3E
  8
0
 10
4662.6812344497493541
 20
315.0428660357296735
 30
0.0
 40
0.0192590912569727
 50
278.2371315470659283
 51
296.6187560209987737
  0
ARC
  5
22E3F
  8
0
 10
4662.6577299389691689
 20
315.1597731042655823
 30
0.0
 40
0.1384808281594707
 50
274.762433906234719
 51
280.9327294541814126
  0
ARC
  5
22E40
  8
0
 10
4662.6613839938881938
 20
315.0816848187320147
 30
0.0
 40
0.0604256272614535
 50
264.7450537179282151
 51
277.4580318133569108
  0
ARC
  5
22E41
  8
0
 10
4662.656232471698786
 20
315.0256742746914824
 30
0.0
 40
0.0041786786813469
 50
244.8022567705625079
 51
264.7450537179282151
  0
ARC
  5
22E42
  8
0
 10
4662.6545523887698437
 20
315.0221805661648773
 30
0.0
 40
0.00030390740403
 50
128.9232275231925087
 51
250.9959284752868029
  0
ARC
  5
22E43
  8
0
 10
4662.6553402315576022
 20
315.0214751564824951
 30
0.0
 40
0.001358339780777
 50
119.9863202159779973
 51
136.1017056102388949
  0
ARC
  5
22E44
  8
0
 10
4662.7910616554790977
 20
315.197401336528003
 30
0.0
 40
0.1761539586473339
 50
272.2370229121393095
 51
283.9661037330062072
  0
ARC
  5
22E45
  8
0
 10
4662.8403542247497171
 20
314.8511214245659176
 30
0.0
 40
0.1754642671364846
 50
92.2138900396917762
 51
103.9892366054711061
  0
LINE
  5
22E46
  8
0
 10
4662.1243919611506499
 20
315.0584162193060251
 30
0.0
 11
4662.1276280099082214
 21
315.0392827949302159
 31
0.0
  0
LINE
  5
22E47
  8
0
 10
4662.2422676838496045
 20
315.0584162193060251
 30
0.0
 11
4662.2404030976240392
 21
315.0422524511902793
 31
0.0
  0
ARC
  5
22E48
  8
0
 10
4662.1301413750152278
 20
314.789987861095824
 30
0.0
 40
0.2547431608867647
 50
90.7751235803739149
 51
99.5670205669955521
  0
ARC
  5
22E49
  8
0
 10
4662.1275319539963675
 20
314.8054698741470929
 30
0.0
 40
0.2390427848986909
 50
99.5670205669955521
 51
104.934251829955798
  0
ARC
  5
22E4A
  8
0
 10
4662.0664768151136741
 20
315.0343811549694806
 30
0.0
 40
0.0021290780946205
 50
104.9342518299541069
 51
209.5851928364211005
  0
ARC
  5
22E4B
  8
0
 10
4662.0921221086346122
 20
315.1036099317794879
 30
0.0
 40
0.0754674975792782
 50
248.6322467162796102
 51
268.2726612655094982
  0
ARC
  5
22E4C
  8
0
 10
4662.6101667869979792
 20
312.7310770718427193
 30
0.0
 40
2.329434008689744
 50
96.9576481474780536
 51
97.9276864801125555
  0
ARC
  5
22E4D
  8
0
 10
4662.2993402878328197
 20
314.9422214822484989
 30
0.0
 40
0.0965946611832685
 50
96.2144682286943151
 51
109.4152222010292945
  0
ARC
  5
22E4E
  8
0
 10
4662.290642179364113
 20
315.1206186798228259
 30
0.0
 40
0.0937939478107617
 50
254.8298949372652089
 51
270.3049513230456
  0
ARC
  5
22E4F
  8
0
 10
4662.8986558766191592
 20
315.0491858327815748
 30
0.0
 40
0.0199999999329209
 50
278.6269263926844815
 51
0.6269267615757683
  0
ARC
  5
22E50
  8
0
 10
4662.8262558538499434
 20
315.0382015532060223
 30
0.0
 40
0.0200000000000057
 50
234.9298607765076099
 51
278.6269265992418127
  0
ARC
  5
22E51
  8
0
 10
4662.8482679548660599
 20
315.049135672891623
 30
0.0
 40
0.0209197183516062
 50
281.2880916746406115
 51
359.3103618818977907
  0
ARC
  5
22E52
  8
0
 10
4662.7460401416046807
 20
315.5115613231189968
 30
0.0
 40
0.4945060347283241
 50
274.319618594761323
 51
282.4159888351597942
  0
ARC
  5
22E53
  8
0
 10
4662.7782362359430408
 20
315.0395914191208249
 30
0.0
 40
0.0217265277786693
 50
197.3882999033002932
 51
283.4409544921837778
  0
ARC
  5
22E54
  8
0
 10
4662.7058290974764532
 20
315.048035557669607
 30
0.0
 40
0.020900322387417
 50
300.195058728678589
 51
358.2045869056699985
  0
ARC
  5
22E55
  8
0
 10
4662.6621843628927309
 20
315.1704111553395933
 30
0.0
 40
0.150520266971045
 50
274.6916731262800226
 51
291.0876134623301823
  0
ARC
  5
22E56
  8
0
 10
4662.6414153119121693
 20
315.3010071621113752
 30
0.0
 40
0.2825550940459039
 50
268.7267291896957886
 51
276.7234280845161152
  0
ARC
  5
22E57
  8
0
 10
4662.6356503285378494
 20
315.0403619465560041
 30
0.0
 40
0.0218461507317996
 50
195.9588217592153967
 51
268.652712842228425
  0
ARC
  5
22E58
  8
0
 10
4662.696095028972195
 20
315.0209348774600926
 30
0.0
 40
0.0200000001619793
 50
276.4861459477760945
 51
358.4861454606229927
  0
ARC
  5
22E59
  8
0
 10
4662.6233352198496505
 20
315.0126627655059792
 30
0.0
 40
0.0199999999999818
 50
245.3227048413965008
 51
270.0
  0
ARC
  5
22E5A
  8
0
 10
4662.5865799221219277
 20
315.0132294290385744
 30
0.0
 40
0.0206333576000168
 50
197.2743709063126971
 51
274.6080091364631812
  0
ARC
  5
22E5B
  8
0
 10
4662.549934868420678
 20
315.0205382450985212
 30
0.0
 40
0.0216232866573931
 50
277.7553155846403001
 51
355.6186227257355768
  0
ARC
  5
22E5C
  8
0
 10
4662.4797057122241313
 20
315.0141488998186787
 30
0.0
 40
0.0212091991265353
 50
193.5047614258023998
 51
269.5261873469469265
  0
ARC
  5
22E5D
  8
0
 10
4662.4830565247939376
 20
315.4193365630167136
 30
0.0
 40
0.4264107173278675
 50
269.5261873469469265
 51
274.5910734759909815
  0
ARC
  5
22E5E
  8
0
 10
4662.4905848043754304
 20
315.3255861391285748
 30
0.0
 40
0.3323585138839529
 50
274.5910734759909815
 51
280.8200554095187726
  0
ARC
  5
22E5F
  8
0
 10
4662.3152992339500997
 20
315.0151788494326865
 30
0.0
 40
0.0213701292559746
 50
191.5849388834058118
 51
261.8218051590664004
  0
ARC
  5
22E60
  8
0
 10
4662.3848224526418562
 20
315.0196715184545155
 30
0.0
 40
0.0223055810954485
 50
277.7514298839938078
 51
353.9887758271191274
  0
ARC
  5
22E61
  8
0
 10
4662.3374361519072409
 20
315.2646912184878829
 30
0.0
 40
0.2718336085975532
 50
264.6857248320312124
 51
280.6837741339118111
  0
ARC
  5
22E62
  8
0
 10
4662.2169829784361355
 20
315.0459353677808849
 30
0.0
 40
0.0237079281540727
 50
280.5375892429236728
 51
351.0631735627582088
  0
ARC
  5
22E63
  8
0
 10
4662.1758639352201499
 20
315.2669844341116914
 30
0.0
 40
0.2485489062713322
 50
270.0879550224747732
 51
280.5375892429236728
  0
ARC
  5
22E64
  8
0
 10
4662.1760150302006878
 20
315.1685580146580037
 30
0.0
 40
0.1501223708442312
 50
257.1326494071830098
 51
270.0879550224747732
  0
ARC
  5
22E65
  8
0
 10
4662.1468920107090526
 20
315.0410659930288944
 30
0.0
 40
0.0193463568227389
 50
185.2885899748982865
 51
257.132359154577216
  0
ARC
  5
22E66
  8
0
 10
4662.1296367086006285
 20
315.1232894117716796
 30
0.0
 40
0.0711152025561472
 50
245.8210193316390928
 51
266.5606396307678096
  0
ARC
  5
22E67
  8
0
 10
4662.2680962209988138
 20
315.0301290820819986
 30
0.0
 40
0.0033092320831512
 50
105.1548841805675067
 51
156.666946241521913
  0
ARC
  5
22E68
  8
0
 10
4662.2666368424170287
 20
315.0315845118529978
 30
0.0
 40
0.0015858356741506
 50
185.2361476274579957
 51
250.1228435426978933
  0
ARC
  5
22E69
  8
0
 10
4662.5688608505097363
 20
315.0988530994545727
 30
0.0
 40
0.0620550466618988
 50
273.3504044347926083
 51
296.7780140542516847
  0
ARC
  5
22E6A
  8
0
 10
4662.5701741053117075
 20
314.9007419874758966
 30
0.0
 40
0.1451769575224024
 50
79.4244037666829286
 51
88.9118770542265224
  0
ARC
  5
22E6B
  8
0
 10
4662.6298470728052052
 20
313.6362490996780252
 30
0.0
 40
1.4107922236755699
 50
92.3121289609819655
 51
94.9608247076465233
  0
ARC
  5
22E6C
  8
0
 10
4662.739856018156388
 20
315.1067702843932921
 30
0.0
 40
0.0565960204905472
 50
256.6901078193570243
 51
282.4784988983474818
  0
ARC
  5
22E6D
  8
0
 10
4662.7935682179104333
 20
314.833991284251681
 30
0.0
 40
0.227704028243218
 50
99.7386499963360507
 51
107.0440499560782968
  0
ARC
  5
22E6E
  8
0
 10
4662.6582065442880776
 20
315.0209394032830801
 30
0.0
 40
0.0206402914969211
 50
279.5760627341188069
 51
359.6573052595201716
  0
ARC
  5
22E6F
  8
0
 10
4662.558539599443975
 20
315.6117066515124066
 30
0.0
 40
0.6197558408485357
 50
272.7465981556065913
 51
279.5760627341188069
  0
ARC
  5
22E70
  8
0
 10
4662.6491707783916354
 20
314.7662498613677826
 30
0.0
 40
0.2326832610120618
 50
91.6566287918547289
 51
100.5296556186563066
  0
ARC
  5
22E71
  8
0
 10
4662.5998879453063637
 20
315.2279239016497172
 30
0.0
 40
0.2330071778617554
 50
271.662808577388887
 51
280.5234758330939826
  0
ARC
  5
22E72
  8
0
 10
4662.6021610451898596
 20
315.093632318356299
 30
0.0
 40
0.0441345058262119
 50
245.4718049210860897
 51
280.8210100561079798
  0
ARC
  5
22E73
  8
0
 10
4662.5978351774201656
 20
315.0372594934455037
 30
0.0
 40
0.0214247233695198
 50
99.1281018921792452
 51
130.7887885306980991
  0
ARC
  5
22E74
  8
0
 10
4662.3905823991663055
 20
315.1176106666579813
 30
0.0
 40
0.0671161066261151
 50
250.0433963541175899
 51
271.8850694994594051
  0
ARC
  5
22E75
  8
0
 10
4662.3684349908935474
 20
315.0566174631383092
 30
0.0
 40
0.0022263649963341
 50
126.2359996404793065
 51
250.0433963541154014
  0
ARC
  5
22E76
  8
0
 10
4662.406813006646189
 20
313.6813647472728235
 30
0.0
 40
1.364271304535783
 50
90.5415414952346254
 51
93.3122311054786451
  0
ARC
  5
22E77
  8
0
 10
4662.4850013731493164
 20
315.0479500446932093
 30
0.0
 40
0.0236725860051768
 50
284.4032347871034858
 51
344.8331722183702936
  0
ARC
  5
22E78
  8
0
 10
4662.4364555131760426
 20
315.2369793798624187
 30
0.0
 40
0.2188360817597677
 50
266.4161471691916176
 51
284.4032347871034858
  0
ARC
  5
22E79
  8
0
 10
4662.4247887134997654
 20
315.0507032119433006
 30
0.0
 40
0.0321949154826857
 50
206.0983302934421033
 51
266.4161471691916176
  0
LINE
  5
22E7A
  8
0
 10
4662.7163412004492784
 20
315.0299854757059848
 30
0.0
 11
4662.7160880483716028
 21
315.0204065039757779
 31
0.0
  0
ARC
  5
22E7B
  8
0
 10
5244.2007927779941383
 20
404.9277193889308251
 30
0.0
 40
589.0494913085118469
 50
188.7794375903596915
 51
188.7820369197403068
  0
ARC
  5
22E7C
  8
0
 10
4662.0777156889926118
 20
314.9971748128664899
 30
0.0
 40
0.0208165164308469
 50
188.78203691974349
 51
264.7353866283909269
  0
ARC
  5
22E7D
  8
0
 10
4662.1109070003512898
 20
315.357384944344517
 30
0.0
 40
0.3825526107994523
 50
264.7353866283909269
 51
271.0382228185509916
  0
ARC
  5
22E7E
  8
0
 10
4662.1119659520545611
 20
315.2989516086094
 30
0.0
 40
0.3241096804840773
 50
271.0382228185509916
 51
276.6162054687216028
  0
ARC
  5
22E7F
  8
0
 10
4662.1465086044481723
 20
315.0011459445639161
 30
0.0
 40
0.0243073983515748
 50
276.6162054687216028
 51
342.3604980395994062
  0
ARC
  5
22E80
  8
0
 10
4662.1104579781122084
 20
314.3611493435578268
 30
0.0
 40
0.6617526535414437
 50
91.7026551313050931
 51
94.9482742517949845
  0
ARC
  5
22E81
  8
0
 10
4662.0727149446420299
 20
314.7970866479586789
 30
0.0
 40
0.2241845217678092
 50
94.9482742517949845
 51
100.3926115970176056
  0
ARC
  5
22E82
  8
0
 10
4662.0337378600552256
 20
315.0096104265841745
 30
0.0
 40
0.0081160844518711
 50
100.3926115970176056
 51
121.2321760037732048
  0
ARC
  5
22E83
  8
0
 10
4662.0299911922329557
 20
315.015789077130421
 30
0.0
 40
0.0008902113321712
 50
121.2321760037732048
 51
253.2293707764505086
  0
ARC
  5
22E84
  8
0
 10
4662.0468932846697498
 20
315.0718753996767987
 30
0.0
 40
0.0594679912963865
 50
253.2293707764495139
 51
264.6474906971844803
  0
ARC
  5
22E85
  8
0
 10
4662.0876253468532013
 20
315.5066214495449799
 30
0.0
 40
0.496117998471065
 50
264.6474906971844803
 51
266.1563491363186813
  0
ARC
  5
22E86
  8
0
 10
4662.1151792284226758
 20
314.8672253294718075
 30
0.0
 40
0.1118567169545076
 50
81.4666071197166417
 51
99.9849399848196327
  0
ARC
  5
22E87
  8
0
 10
4662.112261414704335
 20
315.0975581505911123
 30
0.0
 40
0.1212947012328005
 50
262.1926735770543928
 51
279.2588735275148224
  0
ARC
  5
22E88
  8
0
 10
4662.3235677296243011
 20
314.9956245079100086
 30
0.0
 40
0.0204222686751383
 50
191.7027315096520113
 51
273.4278153570036807
  0
ARC
  5
22E89
  8
0
 10
4662.3353641899466311
 20
315.4538804914279808
 30
0.0
 40
0.4787585303310484
 50
268.7342791333663854
 51
277.2608126120438214
  0
ARC
  5
22E8A
  8
0
 10
4662.3949273845219068
 20
315.0003312956945933
 30
0.0
 40
0.0213911212294432
 50
272.5327000171503187
 51
354.0508191609670803
  0
ARC
  5
22E8B
  8
0
 10
4662.371537324925157
 20
314.7948977888822242
 30
0.0
 40
0.1839133379560328
 50
87.7179050781196423
 51
98.9509777513984545
  0
ARC
  5
22E8C
  8
0
 10
4662.3502581554857898
 20
315.1597194137440852
 30
0.0
 40
0.1832948702522529
 50
267.7063086839023072
 51
278.9774048381937064
  0
LINE
  5
22E8D
  8
0
 10
4662.3035694674954357
 20
314.9915327182517899
 30
0.0
 11
4662.3021973135137159
 21
314.9982962517265719
 31
0.0
  0
ARC
  5
22E8E
  8
0
 10
4662.4204558683513824
 20
314.994781782210282
 30
0.0
 40
0.0200000000043542
 50
221.0075798983345123
 51
269.9999999966648829
  0
ARC
  5
22E8F
  8
0
 10
4660.6394016826752704
 20
339.1032051258213187
 30
0.0
 40
24.1940688405450501
 50
274.2216661905222281
 51
274.3986803773573229
  0
ARC
  5
22E90
  8
0
 10
4662.4916008955533471
 20
315.0027653298819814
 30
0.0
 40
0.0226214223026054
 50
278.6203465711939771
 51
336.7486391000128947
  0
LINE
  5
22E91
  8
0
 10
4662.1991561573322542
 20
315.0028207875014914
 30
0.0
 11
4662.295780723228745
 21
315.0064776906780253
 31
0.0
  0
LINE
  5
22E92
  8
0
 10
4662.4162032978138086
 20
314.9981141847101753
 30
0.0
 11
4662.4179502144397702
 21
315.0192429590272241
 31
0.0
  0
ENDSEC
  0
EOF
