  0
SECTION
  2
HEADER
  9
$ACADVER
  1
AC1009
  9
$INSBASE
 10
4656.4630342319278498
 20
316.0633506193734092
 30
0.0
  9
$EXTMIN
 10
4654.5120092780598497
 20
314.9373506192234231
 30
0.0
  9
$EXTMAX
 10
4656.4747737256320761
 20
317.189350619623383
 30
0.0
  9
$LIMMIN
 10
0.0
 20
0.0
  9
$LIMMAX
 10
11.6929133858000007
 20
8.2677165353999982
  9
$ORTHOMODE
 70
     0
  9
$REGENMODE
 70
     1
  9
$FILLMODE
 70
     1
  9
$QTEXTMODE
 70
     0
  9
$MIRRTEXT
 70
     0
  9
$DRAGMODE
 70
     2
  9
$LTSCALE
 40
0.6431102362
  9
$OSMODE
 70
  4095
  9
$ATTMODE
 70
     1
  9
$TEXTSIZE
 40
0.2
  9
$TRACEWID
 40
0.05
  9
$TEXTSTYLE
  7
STANDARD
  9
$CLAYER
  8
0
  9
$CELTYPE
  6
BYLAYER
  9
$CECOLOR
 62
   256
  9
$DIMSCALE
 40
1.0
  9
$DIMASZ
 40
0.1875
  9
$DIMEXO
 40
0.0625
  9
$DIMDLI
 40
0.4443307087
  9
$DIMRND
 40
0.0
  9
$DIMDLE
 40
0.0
  9
$DIMEXE
 40
0.125
  9
$DIMTP
 40
0.01
  9
$DIMTM
 40
0.01
  9
$DIMTXT
 40
2.0
  9
$DIMCEN
 40
0.1052362205
  9
$DIMTSZ
 40
0.0
  9
$DIMTOL
 70
     1
  9
$DIMLIM
 70
     0
  9
$DIMTIH
 70
     1
  9
$DIMTOH
 70
     1
  9
$DIMSE1
 70
     0
  9
$DIMSE2
 70
     0
  9
$DIMTAD
 70
     0
  9
$DIMZIN
 70
     0
  9
$DIMBLK
  1

  9
$DIMASO
 70
     1
  9
$DIMSHO
 70
     1
  9
$DIMPOST
  1
\X
  9
$DIMAPOST
  1

  9
$DIMALT
 70
     1
  9
$DIMALTD
 70
     2
  9
$DIMALTF
 40
25.3999999999999986
  9
$DIMLFAC
 40
1.0
  9
$DIMTOFL
 70
     0
  9
$DIMTVP
 40
0.0
  9
$DIMTIX
 70
     0
  9
$DIMSOXD
 70
     0
  9
$DIMSAH
 70
     0
  9
$DIMBLK1
  1

  9
$DIMBLK2
  1

  9
$DIMSTYLE
  2
STANDARD
  9
$DIMCLRD
 70
     0
  9
$DIMCLRE
 70
     0
  9
$DIMCLRT
 70
     0
  9
$DIMTFAC
 40
1.0
  9
$DIMGAP
 40
0.09
  9
$LUNITS
 70
     2
  9
$LUPREC
 70
     4
  9
$SKETCHINC
 40
0.1
  9
$FILLETRAD
 40
0.0
  9
$AUNITS
 70
     0
  9
$AUPREC
 70
     0
  9
$MENU
  1
.
  9
$ELEVATION
 40
0.0
  9
$PELEVATION
 40
0.0
  9
$THICKNESS
 40
0.0
  9
$LIMCHECK
 70
     0
  9
$BLIPMODE
 70
     0
  9
$CHAMFERA
 40
0.0
  9
$CHAMFERB
 40
0.0
  9
$SKPOLY
 70
     0
  9
$TDCREATE
 40
2458060.468368056230247
  9
$TDUPDATE
 40
2460143.7339814808219671
  9
$TDINDWG
 40
0.6481552083
  9
$TDUSRTIMER
 40
0.6481552083
  9
$USRTIMER
 70
     1
  9
$ANGBASE
 50
0.0
  9
$ANGDIR
 70
     0
  9
$PDMODE
 70
     0
  9
$PDSIZE
 40
0.3125
  9
$PLINEWID
 40
0.0
  9
$COORDS
 70
     1
  9
$SPLFRAME
 70
     0
  9
$SPLINETYPE
 70
     6
  9
$SPLINESEGS
 70
     8
  9
$ATTDIA
 70
     1
  9
$ATTREQ
 70
     1
  9
$HANDLING
 70
     1
  9
$HANDSEED
  5
227A9
  9
$SURFTAB1
 70
     6
  9
$SURFTAB2
 70
     6
  9
$SURFTYPE
 70
     6
  9
$SURFU
 70
     6
  9
$SURFV
 70
     6
  9
$UCSNAME
  2

  9
$UCSORG
 10
0.0
 20
0.0
 30
0.0
  9
$UCSXDIR
 10
1.0
 20
0.0
 30
0.0
  9
$UCSYDIR
 10
0.0
 20
1.0
 30
0.0
  9
$PUCSNAME
  2

  9
$PUCSORG
 10
0.0
 20
0.0
 30
0.0
  9
$PUCSXDIR
 10
1.0
 20
0.0
 30
0.0
  9
$PUCSYDIR
 10
0.0
 20
1.0
 30
0.0
  9
$USERI1
 70
     0
  9
$USERI2
 70
     0
  9
$USERI3
 70
     0
  9
$USERI4
 70
     0
  9
$USERI5
 70
     0
  9
$USERR1
 40
0.0
  9
$USERR2
 40
0.0
  9
$USERR3
 40
0.0
  9
$USERR4
 40
0.0
  9
$USERR5
 40
0.0
  9
$WORLDVIEW
 70
     1
  9
$SHADEDGE
 70
     3
  9
$SHADEDIF
 70
    70
  9
$TILEMODE
 70
     1
  9
$MAXACTVP
 70
    64
  9
$PLIMCHECK
 70
     0
  9
$PEXTMIN
 10
1.0000000000000000E+20
 20
1.0000000000000000E+20
 30
1.0000000000000000E+20
  9
$PEXTMAX
 10
-1.0000000000000000E+20
 20
-1.0000000000000000E+20
 30
-1.0000000000000000E+20
  9
$PLIMMIN
 10
0.0
 20
0.0
  9
$PLIMMAX
 10
12.0
 20
9.0
  9
$UNITMODE
 70
     0
  9
$VISRETAIN
 70
     1
  9
$PLINEGEN
 70
     0
  9
$PSLTSCALE
 70
     1
  0
ENDSEC
  0
SECTION
  2
TABLES
  0
TABLE
  2
VPORT
 70
     1
  0
VPORT
  2
*ACTIVE
 70
     0
 10
0.0
 20
0.0
 11
1.0
 21
1.0
 12
744.1280350565333492
 22
183.4837455168843121
 13
0.0
 23
0.0
 14
1.0
 24
1.0
 15
0.0
 25
0.0
 16
0.0
 26
0.0
 36
60.4960186965801583
 17
3911.3653564453120453
 27
132.5796051025390057
 37
0.0
 40
2.2693516132512279
 41
2.4474358974358972
 42
50.0
 43
0.0
 44
0.0
 50
0.0
 51
0.0
 71
     0
 72
   100
 73
     1
 74
     1
 75
     0
 76
     0
 77
     0
 78
     0
  0
ENDTAB
  0
TABLE
  2
LTYPE
 70
     2
  0
LTYPE
  2
CONTINUOUS
 70
     0
  3
Solid line
 72
    65
 73
     0
 40
0.0
  0
LTYPE
  2
PHANTOM2
 70
     0
  3
___ _ _ ___ _ _ ___ _ _ ___ _ _
 72
    65
 73
     6
 40
1.25
 49
0.625
 49
-0.125
 49
0.125
 49
-0.125
 49
0.125
 49
-0.125
  0
ENDTAB
  0
TABLE
  2
LAYER
 70
     2
  0
LAYER
  2
0
 70
     0
 62
   255
  6
CONTINUOUS
  0
LAYER
  2
DEFPOINTS
 70
     0
 62
     7
  6
CONTINUOUS
  0
ENDTAB
  0
TABLE
  2
STYLE
 70
     1
  0
STYLE
  2
STANDARD
 70
     0
 40
0.0
 41
0.8
 50
0.0
 71
     0
 42
0.2
  3
txt
  4

  0
ENDTAB
  0
TABLE
  2
VIEW
 70
     0
  0
ENDTAB
  0
TABLE
  2
UCS
 70
     0
  0
ENDTAB
  0
TABLE
  2
APPID
 70
    11
  0
APPID
  2
ACAD
 70
     0
  0
APPID
  2
ACAD_MLEADERVER
 70
     0
  0
APPID
  2
ACAD_EXEMPT_FROM_CAD_STANDARDS
 70
     0
  0
APPID
  2
ACAD_NAV_VCDISPLAY
 70
     0
  0
APPID
  2
ACAECLAYERSTANDARD
 70
     0
  0
APPID
  2
ACCMTRANSPARENCY
 70
     0
  0
APPID
  2
ACAD_DSTYLE_DIMJAG
 70
     0
  0
APPID
  2
ACAD_DSTYLE_DIMTALN
 70
     0
  0
APPID
  2
ACDBATTR
 70
     0
  0
APPID
  2
ACADANNOTATIVE
 70
     0
  0
APPID
  2
DCO15
 70
     0
  0
ENDTAB
  0
TABLE
  2
DIMSTYLE
 70
     1
  0
DIMSTYLE
  2
STANDARD
 70
     0
  3

  4

  5

  6

  7

 40
1.0
 41
0.1875
 42
0.0625
 43
0.38
 44
0.125
 45
0.0
 46
0.0
 47
0.01
 48
0.01
140
0.15625
141
0.09
142
0.0
143
25.3999999999999986
144
1.0
145
0.0
146
1.0
147
0.09
 71
     1
 72
     0
 73
     1
 74
     1
 75
     0
 76
     0
 77
     0
 78
     4
170
     0
171
     2
172
     0
173
     0
174
     0
175
     0
176
     0
177
     0
178
     0
  0
ENDTAB
  0
ENDSEC
  0
SECTION
  2
BLOCKS
  0
BLOCK
  8
0
  2
$MODEL_SPACE
 70
     0
 10
0.0
 20
0.0
 30
0.0
  3
$MODEL_SPACE
  1

  0
ENDBLK
  5
21
  8
0
  0
BLOCK
 67
     1
  8
0
  2
$PAPER_SPACE
 70
     0
 10
0.0
 20
0.0
 30
0.0
  3
$PAPER_SPACE
  1

  0
ENDBLK
  5
1D
 67
     1
  8
0
  0
ENDSEC
  0
SECTION
  2
ENTITIES
  0
ATTDEF
  5
211C4
  8
DEFPOINTS
 10
4656.4641070589632363
 20
316.0634830987975192
 30
0.0
 40
0.001
  1
P22078-00
  3

  2
MODELNUMBER
 70
     0
1001
ACDBATTR
1070
     0
1070
     1
  0
ATTDEF
  5
211C5
  8
DEFPOINTS
 10
4656.4641070589632363
 20
316.0618162584183892
 30
0.0
 40
0.001
  1
MODERN/TURNSPRAY
  3

  2
TRADENAME
 70
     0
1001
ACDBATTR
1070
     0
1070
     1
  0
ATTDEF
  5
211C6
  8
DEFPOINTS
 10
4656.4641070589632363
 20
316.0601497654641889
 30
0.0
 40
0.001
  1
BODY SPRAY
  3

  2
PRODUCT
 70
     0
1001
ACDBATTR
1070
     0
1070
     1
  0
LINE
  5
225FE
  8
0
 10
4656.4630342319278498
 20
317.1108506194233883
 30
0.0
 11
4656.4630342319278498
 21
315.0158506194234178
 31
0.0
  0
LINE
  5
225FF
  8
0
 10
4656.3530342319290867
 20
317.1258506194233746
 30
0.0
 11
4656.4480342319284318
 21
317.1258506194233746
 31
0.0
  0
LINE
  5
22600
  8
0
 10
4655.7360342319288975
 20
317.106921158009186
 30
0.0
 11
4655.7360342319288975
 21
315.0197800808376201
 31
0.0
  0
LINE
  5
22601
  8
0
 10
4655.9795083244289344
 20
316.6983506194234224
 30
0.0
 11
4655.9795083244289344
 21
315.4209521626863761
 31
0.0
  0
LINE
  5
22602
  8
0
 10
4656.2780342319292686
 20
316.6703506194234023
 30
0.0
 11
4655.9795083244289344
 21
316.6703506194234023
 31
0.0
  0
LINE
  5
22603
  8
0
 10
4654.5960342319276606
 20
317.1555866186233743
 30
0.0
 11
4654.5960342319276606
 21
314.9711146202233749
 31
0.0
  0
ARC
  5
22604
  8
0
 10
4654.6160342319290066
 20
317.1555866186233743
 30
0.0
 40
0.0200000000000012
 50
94.2608415188876734
 51
180.0
  0
ARC
  5
22605
  8
0
 10
4654.9860342287911408
 20
312.1893507852227003
 30
0.0
 40
4.9999998344006711
 50
89.9999999640439654
 51
94.2608416246508654
  0
ARC
  5
22606
  8
0
 10
4654.9860342287911408
 20
312.1893505765302166
 30
0.0
 40
5.000000043093153
 50
81.670294224596077
 51
89.9999999640439654
  0
ARC
  5
22607
  8
0
 10
4655.7060342319282427
 20
317.106921158009186
 30
0.0
 40
0.03
 50
0.0000000000032569
 51
81.670294224596077
  0
LINE
  5
22608
  8
0
 10
4656.3380342319287593
 20
317.1108506194233883
 30
0.0
 11
4656.3380342319287593
 21
315.0158506194234178
 31
0.0
  0
ARC
  5
22609
  8
0
 10
4656.3530342319290867
 20
317.1108506194233883
 30
0.0
 40
0.015
 50
90.0
 51
179.9999999999870113
  0
ARC
  5
2260A
  8
0
 10
4656.4480342319284318
 20
317.1108506194233883
 30
0.0
 40
0.015
 50
0.0000000000130276
 51
90.0
  0
LINE
  5
2260B
  8
0
 10
4656.3530342319290867
 20
315.0008506194233746
 30
0.0
 11
4656.4480342319284318
 21
315.0008506194233746
 31
0.0
  0
ARC
  5
2260C
  8
0
 10
4656.3530342319290867
 20
315.0158506194234178
 30
0.0
 40
0.015
 50
180.0
 51
270.0
  0
ARC
  5
2260D
  8
0
 10
4656.4480342319284318
 20
315.0158506194234178
 30
0.0
 40
0.015
 50
270.0000000000521254
 51
359.9999999999935199
  0
ARC
  5
2260E
  8
0
 10
4655.4820342325219826
 20
316.063350620823087
 30
0.0
 40
0.812499998484964
 50
52.7723665319768287
 51
71.7783440973684179
  0
ARC
  5
2260F
  8
0
 10
4655.9645083244276975
 20
316.6983506194234224
 30
0.0
 40
0.015
 50
0.0000000000325689
 51
52.7723678584151799
  0
ARC
  5
22610
  8
0
 10
4656.2780342319292686
 20
316.7303506194234046
 30
0.0
 40
0.06
 50
270.0
 51
0.0000000000032569
  0
LINE
  5
22611
  8
0
 10
4656.2780342319292686
 20
315.4563506194234037
 30
0.0
 11
4655.9795083244289344
 21
315.4563506194234037
 31
0.0
  0
ARC
  5
22612
  8
0
 10
4654.6160342319290066
 20
314.9711146202233749
 30
0.0
 40
0.0200000000000012
 50
180.0
 51
265.7391584811123266
  0
ARC
  5
22613
  8
0
 10
4654.9860342287911408
 20
319.9373504536239921
 30
0.0
 40
4.9999998344006711
 50
265.7391583753491773
 51
270.0000000359560204
  0
ARC
  5
22614
  8
0
 10
4654.9860342287911408
 20
319.9373506623173853
 30
0.0
 40
5.0000000430940608
 50
270.0000000359560204
 51
278.3297115910237949
  0
ARC
  5
22615
  8
0
 10
4655.7060342319200572
 20
315.019780080840917
 30
0.0
 40
0.0300000000087742
 50
278.3306750624888082
 51
359.9999999937597863
  0
ARC
  5
22616
  8
0
 10
4655.4820342325219826
 20
316.0633506180237191
 30
0.0
 40
0.812499998484964
 50
288.2216559026315963
 51
307.7542411325546823
  0
ARC
  5
22617
  8
0
 10
4656.2780342319292686
 20
315.3963506194234014
 30
0.0
 40
0.06
 50
359.9999999999968168
 51
90.0
  0
LINE
  5
22618
  8
0
 10
4654.5668988759225613
 20
316.9111088812189223
 30
0.0
 11
4654.5559420857953228
 21
316.8392451118007784
 31
0.0
  0
ARC
  5
22619
  8
0
 10
4654.5879023456645882
 20
316.9067350762869069
 30
0.0
 40
0.0214540418285186
 50
90.5086754982468875
 51
168.2367254850431095
  0
ARC
  5
2261A
  8
0
 10
4654.5764104343870713
 20
316.8362455692609956
 30
0.0
 40
0.0206869656912428
 50
171.6629097189139941
 51
242.907856577800203
  0
LINE
  5
2261B
  8
0
 10
4654.5783792857291701
 20
316.1197574191234025
 30
0.0
 11
4654.5960342319276606
 21
316.1222676247234062
 31
0.0
  0
LINE
  5
2261C
  8
0
 10
4654.5802061266704186
 20
316.1238169483988258
 30
0.0
 11
4654.551549355827774
 21
316.1197620943233915
 31
0.0
  0
LINE
  5
2261D
  8
0
 10
4654.5324044287308425
 20
316.1197692418738256
 30
0.0
 11
4654.5589025204817517
 21
316.1235085526844273
 31
0.0
  0
ARC
  5
2261E
  8
0
 10
4654.7787536360756349
 20
316.0638528638737057
 30
0.0
 40
0.2667443580167649
 50
171.5914951942502
 51
180.1078804716605077
  0
ARC
  5
2261F
  8
0
 10
4654.5350573816713222
 20
316.0994803330586933
 30
0.0
 40
0.020461622130253
 50
97.4496602797375857
 51
170.4960756422157999
  0
ARC
  5
22620
  8
0
 10
4654.5985563954991449
 20
316.0653767952036901
 30
0.0
 40
0.084850839688582
 50
169.1499826489661018
 51
181.3683112601129892
  0
ARC
  5
22621
  8
0
 10
4654.4162188157561104
 20
316.0646961664007222
 30
0.0
 40
0.1003943658534913
 50
359.232063737823978
 51
9.5480277785346761
  0
ARC
  5
22622
  8
0
 10
4654.6010955760712022
 20
316.0641545681110074
 30
0.0
 40
0.0687680631250425
 50
165.5215591352437059
 51
180.6698447298828967
  0
ARC
  5
22623
  8
0
 10
4654.4620191159601745
 20
316.0632119279954964
 30
0.0
 40
0.074726470626077
 50
0.1063402982183817
 51
14.0456517426189293
  0
ARC
  5
22624
  8
0
 10
4654.6120509921420307
 20
316.064126317475484
 30
0.0
 40
0.0534232032323199
 50
161.196620412714708
 51
180.8319566509869105
  0
ARC
  5
22625
  8
0
 10
4654.5140748361927763
 20
316.0637733255421153
 30
0.0
 40
0.0505563325051472
 50
359.5209391101897154
 51
20.339453717937019
  0
ARC
  5
22626
  8
0
 10
4654.7848164850111061
 20
316.061619321315618
 30
0.0
 40
0.2545415947763979
 50
170.7059461713886037
 51
179.6102922212141095
  0
ARC
  5
22627
  8
0
 10
4654.555026514812198
 20
316.0981447271971092
 30
0.0
 40
0.0218952322681451
 50
99.1377705532324853
 51
167.9166674462109938
  0
ARC
  5
22628
  8
0
 10
4654.7174504137583426
 20
316.0640564902187748
 30
0.0
 40
0.1620254602194675
 50
165.8775036839593042
 51
180.2496123029291084
  0
ARC
  5
22629
  8
0
 10
4654.5820068584798719
 20
316.0975380082062998
 30
0.0
 40
0.0225135849114675
 50
99.2723853339373079
 51
164.4061713727676022
  0
ARC
  5
2262A
  8
0
 10
4654.6052422117227252
 20
316.125060128980806
 30
0.0
 40
0.0553322106267802
 50
156.0149174681569946
 51
182.9114761691321007
  0
ARC
  5
2262B
  8
0
 10
4654.4436156496522017
 20
316.1156914576964141
 30
0.0
 40
0.1155515883057893
 50
2.5457218082621091
 51
16.0055777867524505
  0
ARC
  5
2262C
  8
0
 10
4654.6436309532118685
 20
316.1188035798045917
 30
0.0
 40
0.0768443292760741
 50
159.7369028399037916
 51
177.6704262847659948
  0
ARC
  5
2262D
  8
0
 10
4654.5737103967094299
 20
316.1446167948377024
 30
0.0
 40
0.0023110729932663
 50
42.3400798562534817
 51
159.7369028399160129
  0
ARC
  5
2262E
  8
0
 10
4654.5021447487060868
 20
316.1187914458595856
 30
0.0
 40
0.078222978755133
 50
0.9136297522381358
 51
20.4903512045178111
  0
ARC
  5
2262F
  8
0
 10
4654.6925907638351418
 20
316.1093999287693919
 30
0.0
 40
0.1020007196238528
 50
161.2016054729141104
 51
173.1318771762437905
  0
LINE
  5
22630
  8
0
 10
4654.5877118778480508
 20
316.928188272617092
 30
0.0
 11
4654.5960342319276606
 21
316.9281882730039115
 31
0.0
  0
LINE
  5
22631
  8
0
 10
4654.5384545440856527
 20
316.1206230113438096
 30
0.0
 11
4654.5404792062518027
 21
316.2225436409166264
 31
0.0
  0
LINE
  5
22632
  8
0
 10
4654.5351470256500761
 20
316.3869931750522255
 30
0.0
 11
4654.5643480424996596
 21
316.389730636538502
 31
0.0
  0
LINE
  5
22633
  8
0
 10
4654.5479283193690208
 20
316.4048985777898224
 30
0.0
 11
4654.574596437191758
 21
316.3988976105512734
 31
0.0
  0
LINE
  5
22634
  8
0
 10
4654.5813239238277674
 20
316.4006669468233781
 30
0.0
 11
4654.5960342319276606
 21
316.4019825999233717
 31
0.0
  0
LINE
  5
22635
  8
0
 10
4654.5557035622287003
 20
316.5172961230234137
 30
0.0
 11
4654.5827751803353749
 21
316.5191182493383053
 31
0.0
  0
LINE
  5
22636
  8
0
 10
4654.5366219573288618
 20
316.5291247507233834
 30
0.0
 11
4654.5598132854029245
 21
316.5309220933203278
 31
0.0
  0
LINE
  5
22637
  8
0
 10
4654.571032668938642
 20
316.5358060206859818
 30
0.0
 11
4654.5960342319276606
 21
316.5296886921233863
 31
0.0
  0
LINE
  5
22638
  8
0
 10
4654.5461025020940724
 20
316.5429927522257003
 30
0.0
 11
4654.5667462281880944
 21
316.5379847630517247
 31
0.0
  0
LINE
  5
22639
  8
0
 10
4654.5571540979281053
 20
316.6552866788234155
 30
0.0
 11
4654.5832486980407339
 21
316.6563755802652054
 31
0.0
  0
LINE
  5
2263A
  8
0
 10
4654.5960342319276606
 20
316.6480929770233956
 30
0.0
 11
4654.5824717591713124
 21
316.6477720052395739
 31
0.0
  0
LINE
  5
2263B
  8
0
 10
4654.5960342319276606
 20
316.8308426121233765
 30
0.0
 11
4654.5858722099528677
 21
316.8307472765100101
 31
0.0
  0
LINE
  5
2263C
  8
0
 10
4654.5712074251532613
 20
316.7188673347887971
 30
0.0
 11
4654.5960342319276606
 21
316.7119754597234191
 31
0.0
  0
ARC
  5
2263D
  8
0
 10
4654.6995101251395681
 20
316.6420189003995915
 30
0.0
 40
0.1241310378367191
 50
162.4480564846550976
 51
173.4955524019871973
  0
ARC
  5
2263E
  8
0
 10
4654.4949624163982662
 20
316.6600113334411049
 30
0.0
 40
0.0883611126427427
 50
352.0380826039501017
 51
12.7105995292305707
  0
ARC
  5
2263F
  8
0
 10
4654.6720252433196947
 20
316.7036240810265895
 30
0.0
 40
0.084335581303121
 50
172.8574564713906057
 51
190.8166063536287993
  0
ARC
  5
22640
  8
0
 10
4654.5350955407147922
 20
316.7178300024291957
 30
0.0
 40
0.0618706101585699
 50
330.9604179293382913
 51
350.0429396693082253
  0
ARC
  5
22641
  8
0
 10
4654.5864286204596283
 20
316.8096681523865072
 30
0.0
 40
0.0210864664291504
 50
91.5120444443008978
 51
157.1537415074162141
  0
ARC
  5
22642
  8
0
 10
4654.8758869043622326
 20
316.7337461712436948
 30
0.0
 40
0.3201369650622325
 50
164.7679946143892096
 51
178.6371094757759863
  0
ARC
  5
22643
  8
0
 10
4654.5774574518445661
 20
316.7396330238719884
 30
0.0
 40
0.0216858635085096
 50
175.4309560075558068
 51
253.2493347976935922
  0
ARC
  5
22644
  8
0
 10
4654.5509726266818689
 20
316.6362722967227228
 30
0.0
 40
0.0207082080751357
 50
173.2303565202477103
 51
221.048526217390787
  0
ARC
  5
22645
  8
0
 10
4643.3971522093279418
 20
317.9602916790664153
 30
0.0
 40
11.2114214754449897
 50
353.2303565202478239
 51
353.5989779801440136
  0
ARC
  5
22646
  8
0
 10
4654.5592107997699713
 20
316.7080645928518265
 30
0.0
 40
0.0206586814939952
 50
91.1749380650578871
 51
173.5989779801440136
  0
ARC
  5
22647
  8
0
 10
4654.5509129288502663
 20
316.562687143830999
 30
0.0
 40
0.0202733634673087
 50
174.38766343333441
 51
256.2740482550199204
  0
ARC
  5
22648
  8
0
 10
4654.8669839409267297
 20
316.5670806826748844
 30
0.0
 40
0.3362558351718598
 50
167.9533744774601018
 51
180.4107983535606934
  0
ARC
  5
22649
  8
0
 10
4654.5581898011387239
 20
316.635145450847574
 30
0.0
 40
0.0201678393863387
 50
92.9436736214630059
 51
173.9820900066762874
  0
ARC
  5
2264A
  8
0
 10
4654.5394584932600992
 20
316.4517524850031123
 30
0.0
 40
0.0368011017367238
 50
252.2490324561520083
 51
260.8708404463238253
  0
ARC
  5
2264B
  8
0
 10
4654.5352165709082328
 20
316.4385014940176006
 30
0.0
 40
0.0228877028943151
 50
184.5118429265345128
 51
252.2490324561520083
  0
ARC
  5
2264C
  8
0
 10
4656.245399744390852
 20
316.3355971691942159
 30
0.0
 40
1.7359466626939859
 50
174.0724596480843047
 51
176.6611275910057941
  0
ARC
  5
2264D
  8
0
 10
4654.5369108053373566
 20
316.5104123357509138
 30
0.0
 40
0.0187146441931872
 50
90.8843571274630762
 51
166.2217443125551029
  0
ARC
  5
2264E
  8
0
 10
4654.5404564774526079
 20
316.3900888751877005
 30
0.0
 40
0.0281011687960505
 50
176.775627098298088
 51
216.2964648034406139
  0
ARC
  5
2264F
  8
0
 10
4653.0025449425529587
 20
316.4767277474891216
 30
0.0
 40
1.512248850964141
 50
356.7756270982981164
 51
358.2201839095782248
  0
ARC
  5
22650
  8
0
 10
4654.5371050321091388
 20
316.3666132782124123
 30
0.0
 40
0.0204737388986938
 50
95.487870279265465
 51
160.4808275338220938
  0
ARC
  5
22651
  8
0
 10
4654.5335758904166141
 20
316.2943805199532221
 30
0.0
 40
0.0204886855327613
 50
177.0059619182248127
 51
260.9687711487686101
  0
ARC
  5
22652
  8
0
 10
4654.8604155387383798
 20
316.3136995981608948
 30
0.0
 40
0.3477794807407593
 50
170.1065223831926971
 51
183.0078429701985954
  0
ARC
  5
22653
  8
0
 10
4654.5354533647223434
 20
316.1712122617100817
 30
0.0
 40
0.0225020061845389
 50
175.1428659933372955
 51
258.3126715984341786
  0
ARC
  5
22654
  8
0
 10
4654.8924480693958685
 20
316.1949782304084806
 30
0.0
 40
0.3800451529817294
 50
172.6337925762113912
 51
183.2975477498673058
  0
ARC
  5
22655
  8
0
 10
4654.5369143164762136
 20
316.2407106292650951
 30
0.0
 40
0.0215834614504557
 50
107.8002806686280053
 51
172.0278328142750013
  0
LINE
  5
22656
  8
0
 10
4654.5308951018278094
 20
316.1491762068234266
 30
0.0
 11
4654.5389947943513107
 21
316.1478189792312037
 31
0.0
  0
LINE
  5
22657
  8
0
 10
4654.5493877323333436
 20
316.2185797993860774
 30
0.0
 11
4654.5773860601284468
 21
316.213504681523375
 31
0.0
  0
LINE
  5
22658
  8
0
 10
4654.5757184088788563
 20
316.2879818388914828
 30
0.0
 11
4654.5960342319276606
 21
316.2839868544234037
 31
0.0
  0
ARC
  5
22659
  8
0
 10
4654.5846644258053857
 20
316.3768380984171813
 30
0.0
 40
0.024061857156405
 50
97.980135461075804
 51
170.8942484381844906
  0
ARC
  5
2265A
  8
0
 10
4654.7658592983316339
 20
316.3351960911978722
 30
0.0
 40
0.2099324581763784
 50
167.4965702072771023
 51
187.6772042785293024
  0
ARC
  5
2265B
  8
0
 10
4654.5786946286616512
 20
316.3087137390195949
 30
0.0
 40
0.0209444400048712
 50
184.2795260476192141
 51
261.8305764792550008
  0
ARC
  5
2265C
  8
0
 10
4654.5575530836758844
 20
316.4957663839484781
 30
0.0
 40
0.0216090350135747
 50
94.9099640418935309
 51
169.8902964374181863
  0
ARC
  5
2265D
  8
0
 10
4654.8634634148957048
 20
316.4412277272764982
 30
0.0
 40
0.3323429981010892
 50
169.8912684204470906
 51
182.6006253124498073
  0
ARC
  5
2265E
  8
0
 10
4654.5513583006531917
 20
316.4245604768963744
 30
0.0
 40
0.0199588338360088
 50
175.4377885264497081
 51
260.1044383040019738
  0
ARC
  5
2265F
  8
0
 10
4654.5865665212950262
 20
316.6245457394396112
 30
0.0
 40
0.0235844546231005
 50
99.9984324535528657
 51
164.827486617580405
  0
ARC
  5
22660
  8
0
 10
4654.7639030497648491
 20
316.5735189667030909
 30
0.0
 40
0.2081137621710644
 50
164.0471036527385991
 51
185.2034871896904917
  0
ARC
  5
22661
  8
0
 10
4654.5787593048708004
 20
316.5566582041947186
 30
0.0
 40
0.0222038603738093
 50
185.2034871896904917
 51
249.4494300805955902
  0
ARC
  5
22662
  8
0
 10
4653.8073779315509455
 20
316.5114808586849904
 30
0.0
 40
0.7754348606805137
 50
351.6354343323699254
 51
1.5927036115894411
  0
ARC
  5
22663
  8
0
 10
4654.6286409235135579
 20
316.5242944568681764
 30
0.0
 40
0.0414610941478819
 50
169.7216563326365986
 51
207.7978346188151875
  0
ARC
  5
22664
  8
0
 10
4654.5904390139712632
 20
316.5103603610556888
 30
0.0
 40
0.0056127018599094
 50
285.7708889486207227
 51
4.5235941597195213
  0
ARC
  5
22665
  8
0
 10
4654.6379305440132157
 20
316.5855003487997124
 30
0.0
 40
0.0788514802559222
 50
161.1459175104596113
 51
187.5331069073492074
  0
ARC
  5
22666
  8
0
 10
4654.4847816403898833
 20
316.6006799824469908
 30
0.0
 40
0.0792010889064098
 50
341.2052010517923009
 51
7.4738233660113851
  0
ARC
  5
22667
  8
0
 10
4654.6853493260086907
 20
316.585552326582274
 30
0.0
 40
0.1525981967628574
 50
167.4676863609973054
 51
180.9922407923095022
  0
ARC
  5
22668
  8
0
 10
4654.3741666153364349
 20
316.6169967062288038
 30
0.0
 40
0.1622289259718816
 50
347.8708389026332952
 51
0.5890882506770254
  0
ARC
  5
22669
  8
0
 10
4654.6312463624435622
 20
316.4548436872248089
 30
0.0
 40
0.0985669848436149
 50
165.1209107703508039
 51
186.1258712001252036
  0
ARC
  5
2266A
  8
0
 10
4654.4317198413882579
 20
316.4697295881505283
 30
0.0
 40
0.1046526097118708
 50
345.951172891566614
 51
5.7572535472206843
  0
ARC
  5
2266B
  8
0
 10
4654.4414534379557153
 20
316.335088563134093
 30
0.0
 40
0.0760266808437398
 50
343.5066798426245782
 51
10.89493951171616
  0
ARC
  5
2266C
  8
0
 10
4654.6702219498229169
 20
316.3238954353327017
 30
0.0
 40
0.1562178711789486
 50
170.582004789880898
 51
183.8138529586848051
  0
ARC
  5
2266D
  8
0
 10
4654.6201055838901084
 20
316.3415202410291158
 30
0.0
 40
0.0612378860589321
 50
159.4309642783167931
 51
193.4850791351433088
  0
ARC
  5
2266E
  8
0
 10
4654.4963624241736397
 20
316.34917970174331
 30
0.0
 40
0.0678392336674458
 50
341.1309344620178763
 51
11.7851089514470502
  0
ARC
  5
2266F
  8
0
 10
4654.6191144950189482
 20
316.2724407582792878
 30
0.0
 40
0.0865275363245804
 50
165.8459761666433963
 51
189.8561800389215932
  0
ARC
  5
22670
  8
0
 10
4654.4510460478441018
 20
316.2787472508928772
 30
0.0
 40
0.0854680563878688
 50
345.6948991309673147
 51
10.0072570745955094
  0
ARC
  5
22671
  8
0
 10
4654.5534984125069968
 20
316.2398581266849078
 30
0.0
 40
0.0216717536005962
 50
186.7817366552272063
 51
259.0659386419333146
  0
ARC
  5
22672
  8
0
 10
4654.7844029520683762
 20
316.2668461714999921
 30
0.0
 40
0.2541480799202449
 50
170.4654021698125916
 51
186.6762941593576954
  0
ARC
  5
22673
  8
0
 10
4654.5675355952107566
 20
316.3032719561297768
 30
0.0
 40
0.0342428997723656
 50
138.4454359243619024
 51
170.4654021698125916
  0
ARC
  5
22674
  8
0
 10
4654.5558619216380976
 20
316.3108349153623067
 30
0.0
 40
0.0205961486963175
 50
95.8761546958033932
 51
132.6381217378111046
  0
LINE
  5
22675
  8
0
 10
4654.5537533478291152
 20
316.3313236499233767
 30
0.0
 11
4654.5559585331766357
 21
316.3315483818291796
 31
0.0
  0
ARC
  5
22676
  8
0
 10
4654.6144766952393184
 20
316.2118529399351132
 30
0.0
 40
0.0496440206617332
 50
175.5420028377224071
 51
206.3190150536354963
  0
ARC
  5
22677
  8
0
 10
4653.9226033452696356
 20
316.2998332223223201
 30
0.0
 40
0.6604491052571793
 50
352.4892692338905817
 51
358.8489415713331141
  0
ARC
  5
22678
  8
0
 10
4654.5207319604360237
 20
316.218249108243981
 30
0.0
 40
0.0568524106520647
 50
330.0226113702040038
 51
355.213006175050225
  0
LINE
  5
22679
  8
0
 10
4654.5603203645023314
 20
316.5395436219336034
 30
0.0
 11
4654.5589571323680502
 21
316.5175151131016946
 31
0.0
  0
ARC
  5
2267A
  8
0
 10
4654.6806324572044105
 20
316.7613890208348835
 30
0.0
 40
0.1214719234943767
 50
163.9909998202878967
 51
181.033491224530394
  0
ARC
  5
2267B
  8
0
 10
4654.4446084385690483
 20
316.792410855345679
 30
0.0
 40
0.1192887277370032
 50
343.8338532896178776
 51
1.1906377551846421
  0
LINE
  5
2267C
  8
0
 10
4654.5668988759225613
 20
315.2155923576278838
 30
0.0
 11
4654.5559420857953228
 21
315.2874561270460276
 31
0.0
  0
ARC
  5
2267D
  8
0
 10
4654.5879023456645882
 20
315.2199661625597855
 30
0.0
 40
0.0214540418283103
 50
191.7632745147548974
 51
270.5086754798513198
  0
ARC
  5
2267E
  8
0
 10
4654.5764104343870713
 20
315.2904556695858105
 30
0.0
 40
0.0206869656912428
 50
117.092143422199797
 51
188.3370902810860059
  0
LINE
  5
2267F
  8
0
 10
4654.5783792857291701
 20
316.0069438197234035
 30
0.0
 11
4654.5960342319276606
 21
316.0044336141233998
 31
0.0
  0
LINE
  5
22680
  8
0
 10
4654.5802061266704186
 20
316.0028842904479802
 30
0.0
 11
4654.551549355827774
 21
316.0069391445234146
 31
0.0
  0
LINE
  5
22681
  8
0
 10
4654.5324044287308425
 20
316.0069319969729236
 30
0.0
 11
4654.5589025204817517
 21
316.0031926861623788
 31
0.0
  0
ARC
  5
22682
  8
0
 10
4654.7787536360756349
 20
316.0628483749731004
 30
0.0
 40
0.2667443580167491
 50
179.8921195283394923
 51
188.4085048057498
  0
ARC
  5
22683
  8
0
 10
4654.5350573816713222
 20
316.0272209057879991
 30
0.0
 40
0.020461622130253
 50
189.5039243577809884
 51
262.5503397202625138
  0
ARC
  5
22684
  8
0
 10
4654.5985563954991449
 20
316.0613244436431728
 30
0.0
 40
0.0848508396885818
 50
178.6316887398870108
 51
190.8500173510306013
  0
ARC
  5
22685
  8
0
 10
4654.4162188157561104
 20
316.0620050724460839
 30
0.0
 40
0.1003943658534913
 50
350.4519722214653257
 51
0.7679362621760003
  0
ARC
  5
22686
  8
0
 10
4654.601095575940235
 20
316.0625466707107876
 30
0.0
 40
0.068768062991097
 50
179.3301554147097079
 51
194.4784408721340867
  0
ARC
  5
22687
  8
0
 10
4654.4620191159483511
 20
316.0634893108535834
 30
0.0
 40
0.0747264706386441
 50
345.9543482579720148
 51
359.8936596233555747
  0
ARC
  5
22688
  8
0
 10
4654.6120509920938275
 20
316.0625749213593849
 30
0.0
 40
0.0534232031827794
 50
179.1680434426941986
 51
198.8033795918574924
  0
ARC
  5
22689
  8
0
 10
4654.5140748362173326
 20
316.0629279132979832
 30
0.0
 40
0.0505563324797853
 50
339.6605462794615846
 51
0.4790607842606029
  0
ARC
  5
2268A
  8
0
 10
4654.7848164850111061
 20
316.0650819175311881
 30
0.0
 40
0.2545415947763979
 50
180.3897077787858052
 51
189.294053828611311
  0
ARC
  5
2268B
  8
0
 10
4654.555026514812198
 20
316.0285565116498105
 30
0.0
 40
0.0218952322681489
 50
192.083332553798499
 51
260.8622294467675147
  0
ARC
  5
2268C
  8
0
 10
4654.7174504137301483
 20
316.0626447486229154
 30
0.0
 40
0.1620254601917377
 50
179.7503877305910862
 51
194.1224963166567932
  0
ARC
  5
2268D
  8
0
 10
4654.5820068584798719
 20
316.0291632306405063
 30
0.0
 40
0.0225135849114675
 50
195.5938286272323978
 51
260.7276146660627205
  0
ARC
  5
2268E
  8
0
 10
4654.6052422117227252
 20
316.0016411098658864
 30
0.0
 40
0.0553322106267802
 50
177.0885238308678993
 51
203.9850825318430054
  0
ARC
  5
2268F
  8
0
 10
4654.4436156496522017
 20
316.011009781150392
 30
0.0
 40
0.1155515883057893
 50
343.994422213247617
 51
357.4542781917378989
  0
ARC
  5
22690
  8
0
 10
4654.6436309532118685
 20
316.0078976590422144
 30
0.0
 40
0.0768443292760741
 50
182.3295737152340052
 51
200.2630971600962084
  0
ARC
  5
22691
  8
0
 10
4654.5737103967094299
 20
315.9820844440091037
 30
0.0
 40
0.0023110729932663
 50
200.2630971600839871
 51
317.6599201437464899
  0
ARC
  5
22692
  8
0
 10
4654.5021447487060868
 20
316.0079097929872205
 30
0.0
 40
0.078222978755133
 50
339.5096487954821782
 51
359.0863702477619199
  0
ARC
  5
22693
  8
0
 10
4654.6925907638351418
 20
316.0173013100774142
 30
0.0
 40
0.1020007196238528
 50
186.8681228237560958
 51
198.7983945270858896
  0
LINE
  5
22694
  8
0
 10
4654.5384545440856527
 20
316.0060782275029965
 30
0.0
 11
4654.5404789950644044
 21
315.9041682290034032
 31
0.0
  0
LINE
  5
22695
  8
0
 10
4654.5351470256500761
 20
315.7397080637945805
 30
0.0
 11
4654.5643480424996596
 21
315.736970602308304
 31
0.0
  0
LINE
  5
22696
  8
0
 10
4654.5479283193690208
 20
315.7218026610569837
 30
0.0
 11
4654.574596437191758
 21
315.7278036282954758
 31
0.0
  0
LINE
  5
22697
  8
0
 10
4654.5813239238277674
 20
315.726034292023428
 30
0.0
 11
4654.5960342319276606
 21
315.7247186389233775
 31
0.0
  0
LINE
  5
22698
  8
0
 10
4654.5557035622287003
 20
315.6094051158233924
 30
0.0
 11
4654.5827751803353749
 21
315.6075829895085008
 31
0.0
  0
LINE
  5
22699
  8
0
 10
4654.5366219573288618
 20
315.5975764881234227
 30
0.0
 11
4654.5598132854029245
 21
315.5957791455264783
 31
0.0
  0
LINE
  5
2269A
  8
0
 10
4654.571032668938642
 20
315.5908952181608242
 30
0.0
 11
4654.5960342319276606
 21
315.5970125467234197
 31
0.0
  0
LINE
  5
2269B
  8
0
 10
4654.5461025020940724
 20
315.5837084866211057
 30
0.0
 11
4654.5666955866608987
 21
315.5887041905992874
 31
0.0
  0
LINE
  5
2269C
  8
0
 10
4654.5571540979281053
 20
315.4714145600233905
 30
0.0
 11
4654.5832486980407339
 21
315.470325658581487
 31
0.0
  0
LINE
  5
2269D
  8
0
 10
4654.5960342319276606
 20
315.4786082618234104
 30
0.0
 11
4654.5824717591713124
 21
315.4789292336071753
 31
0.0
  0
LINE
  5
2269E
  8
0
 10
4654.5960342319276606
 20
315.2958586267233727
 30
0.0
 11
4654.5858722099528677
 21
315.2959539623367959
 31
0.0
  0
LINE
  5
2269F
  8
0
 10
4654.5712074251532613
 20
315.407833904058009
 30
0.0
 11
4654.5960342319276606
 21
315.4147257791233869
 31
0.0
  0
ARC
  5
226A0
  8
0
 10
4654.6995101251395681
 20
315.4846823384472145
 30
0.0
 40
0.1241310378367191
 50
186.504447598012689
 51
197.5519435153447887
  0
ARC
  5
226A1
  8
0
 10
4654.4949624163982662
 20
315.4666899054058149
 30
0.0
 40
0.0883611126427427
 50
347.289400470769408
 51
7.9619173960498344
  0
ARC
  5
226A2
  8
0
 10
4654.6720252433196947
 20
315.4230771578202166
 30
0.0
 40
0.084335581303121
 50
169.1833936463712007
 51
187.1425435286093943
  0
ARC
  5
226A3
  8
0
 10
4654.5350955407147922
 20
315.4088712364176104
 30
0.0
 40
0.0618706101585699
 50
9.9570603306917498
 51
29.0395820706617585
  0
ARC
  5
226A4
  8
0
 10
4654.5864286204596283
 20
315.3170330864602988
 30
0.0
 40
0.0210864664291504
 50
202.8462584925837007
 51
268.4879555556991022
  0
ARC
  5
226A5
  8
0
 10
4654.8758869043622326
 20
315.392955067603225
 30
0.0
 40
0.3201369650622325
 50
181.3628905242239
 51
195.2320053856107904
  0
ARC
  5
226A6
  8
0
 10
4654.5774574518445661
 20
315.3870682149748177
 30
0.0
 40
0.0216858635085096
 50
106.7506652023063936
 51
184.569043992444108
  0
ARC
  5
226A7
  8
0
 10
4654.5509726266818689
 20
315.4904289421240833
 30
0.0
 40
0.0207082080751357
 50
138.951473782609213
 51
186.7696434797522045
  0
ARC
  5
226A8
  8
0
 10
4643.3971522093279418
 20
314.1664095597803907
 30
0.0
 40
11.2114214754449897
 50
6.4010220198560104
 51
6.7696434797522329
  0
ARC
  5
226A9
  8
0
 10
4654.5592107997699713
 20
315.4186366459949795
 30
0.0
 40
0.0206586814939952
 50
186.4010220198559864
 51
268.6361322383507968
  0
ARC
  5
226AA
  8
0
 10
4654.5509129288502663
 20
315.564014095015807
 30
0.0
 40
0.0202733634673045
 50
103.7259517449800938
 51
185.6123365666753102
  0
ARC
  5
226AB
  8
0
 10
4654.8669839409267297
 20
315.5596205561719216
 30
0.0
 40
0.3362558351718598
 50
179.5892016464391929
 51
192.0466255225398129
  0
ARC
  5
226AC
  8
0
 10
4654.5581898011387239
 20
315.4915557879991752
 30
0.0
 40
0.0201678393863387
 50
186.0179099933237126
 51
267.0563263785369941
  0
ARC
  5
226AD
  8
0
 10
4654.5394584932600992
 20
315.6749487538435801
 30
0.0
 40
0.0368011017367238
 50
99.1340301788755482
 51
107.7509675438480059
  0
ARC
  5
226AE
  8
0
 10
4654.5352165709082328
 20
315.6881997448292054
 30
0.0
 40
0.0228877028943151
 50
107.7509675438480059
 51
175.4881570734621903
  0
ARC
  5
226AF
  8
0
 10
4656.245399744390852
 20
315.7911040696525902
 30
0.0
 40
1.7359466626939859
 50
183.3388724089940922
 51
185.9275403519156953
  0
ARC
  5
226B0
  8
0
 10
4654.5369108053373566
 20
315.6162889030960059
 30
0.0
 40
0.0187146441931872
 50
193.7782556874448119
 51
269.1156428725369096
  0
ARC
  5
226B1
  8
0
 10
4654.5404564774526079
 20
315.7366123636591055
 30
0.0
 40
0.0281011687960505
 50
143.7035351965593861
 51
183.224372901701912
  0
ARC
  5
226B2
  8
0
 10
4653.0025449425529587
 20
315.6499734913576845
 30
0.0
 40
1.512248850964141
 50
1.7798160904217499
 51
3.2243729017019191
  0
ARC
  5
226B3
  8
0
 10
4654.5371050321091388
 20
315.7600879606342801
 30
0.0
 40
0.0204737388986983
 50
199.5191724661870865
 51
264.5121297207344924
  0
ARC
  5
226B4
  8
0
 10
4654.5335758904166141
 20
315.8323207188935839
 30
0.0
 40
0.0204886855327613
 50
99.0312288512313756
 51
182.9940380817751873
  0
ARC
  5
226B5
  8
0
 10
4654.8604155387383798
 20
315.8130016406857976
 30
0.0
 40
0.3477794807407593
 50
176.9921570298014046
 51
189.8934776168071892
  0
ARC
  5
226B6
  8
0
 10
4654.5354545070540553
 20
315.955488650973507
 30
0.0
 40
0.0225031168015155
 50
101.6897530802478968
 51
184.856060267259295
  0
ARC
  5
226B7
  8
0
 10
4654.8924480693958685
 20
315.9317230084383255
 30
0.0
 40
0.3800451529817294
 50
176.7024522501326942
 51
187.3662074237886088
  0
ARC
  5
226B8
  8
0
 10
4654.5369143164762136
 20
315.8859906095817109
 30
0.0
 40
0.0215834614504557
 50
187.9721671857249135
 51
252.1997193313719947
  0
LINE
  5
226B9
  8
0
 10
4654.5308951018278094
 20
315.9775250320233795
 30
0.0
 11
4654.5388220122276834
 21
315.9788533073233907
 31
0.0
  0
LINE
  5
226BA
  8
0
 10
4654.5493877323333436
 20
315.9081214394606718
 30
0.0
 11
4654.5773860601284468
 21
315.9131965573233742
 31
0.0
  0
LINE
  5
226BB
  8
0
 10
4654.5757184088788563
 20
315.8387193999552096
 30
0.0
 11
4654.5960342319276606
 21
315.8427143844234024
 31
0.0
  0
ARC
  5
226BC
  8
0
 10
4654.5846644258053857
 20
315.7498631404295111
 30
0.0
 40
0.024061857156405
 50
189.1057515618153957
 51
262.019864538924196
  0
ARC
  5
226BD
  8
0
 10
4654.7658592983316339
 20
315.791505147648877
 30
0.0
 40
0.2099324581763784
 50
172.3227957214706123
 51
192.5034297927228124
  0
ARC
  5
226BE
  8
0
 10
4654.5786946286616512
 20
315.8179874998272112
 30
0.0
 40
0.0209444400048712
 50
98.1694235207450703
 51
175.7204739523807007
  0
ARC
  5
226BF
  8
0
 10
4654.5575530836758844
 20
315.630934854898328
 30
0.0
 40
0.0216090350135715
 50
190.1097035625784883
 51
265.0900359581585803
  0
ARC
  5
226C0
  8
0
 10
4654.8634634148957048
 20
315.6854735115703079
 30
0.0
 40
0.3323429981010892
 50
177.3993746875501927
 51
190.1087315795527957
  0
ARC
  5
226C1
  8
0
 10
4654.5513583006531917
 20
315.7021407619503179
 30
0.0
 40
0.0199588338360088
 50
99.8955616959979409
 51
184.5622114735502919
  0
ARC
  5
226C2
  8
0
 10
4654.5865665212950262
 20
315.5021554994071948
 30
0.0
 40
0.0235844546231005
 50
195.1725133824195098
 51
260.0015675464471769
  0
ARC
  5
226C3
  8
0
 10
4654.7639030497648491
 20
315.5531822721437152
 30
0.0
 40
0.2081137621710644
 50
174.7965128103093946
 51
195.9528963472612872
  0
ARC
  5
226C4
  8
0
 10
4654.5788658405790557
 20
315.5700015731264898
 30
0.0
 40
0.0223137397306666
 50
110.5513683666929978
 51
174.7152989222294082
  0
ARC
  5
226C5
  8
0
 10
4653.8073779315509455
 20
315.6152203801618157
 30
0.0
 40
0.7754348606805137
 50
358.4072963884104865
 51
8.3645656676301012
  0
ARC
  5
226C6
  8
0
 10
4654.6286409235135579
 20
315.6024067819785728
 30
0.0
 40
0.0414610941478819
 50
152.2021653811848125
 51
190.2783436673634014
  0
ARC
  5
226C7
  8
0
 10
4654.5904390139712632
 20
315.6163408777911172
 30
0.0
 40
0.0056127018599094
 50
355.4764058402805063
 51
74.2291110513792916
  0
ARC
  5
226C8
  8
0
 10
4654.6379305440132157
 20
315.5412008900472074
 30
0.0
 40
0.0788514802559222
 50
172.4668930926474957
 51
198.8540824895403034
  0
ARC
  5
226C9
  8
0
 10
4654.4847816403898833
 20
315.5260212563998152
 30
0.0
 40
0.0792010889064098
 50
352.526176633988598
 51
18.7947989482077311
  0
ARC
  5
226CA
  8
0
 10
4654.6853493260086907
 20
315.5411489122644753
 30
0.0
 40
0.1525981967628574
 50
179.0077592076904125
 51
192.5323136390026946
  0
ARC
  5
226CB
  8
0
 10
4654.3741666153364349
 20
315.509704532618116
 30
0.0
 40
0.1622289259718816
 50
359.4109117493230201
 51
12.1291610973666799
  0
ARC
  5
226CC
  8
0
 10
4654.6312463624435622
 20
315.6718575516221108
 30
0.0
 40
0.0985669848436149
 50
173.8741287998747111
 51
194.8790892296491961
  0
ARC
  5
226CD
  8
0
 10
4654.4317198413882579
 20
315.6569716506962777
 30
0.0
 40
0.1046526097118708
 50
354.242746452776089
 51
14.0488271084334801
  0
ARC
  5
226CE
  8
0
 10
4654.4414534379557153
 20
315.7916126757127131
 30
0.0
 40
0.0760266808437398
 50
349.1050604882838115
 51
16.4933201573754289
  0
ARC
  5
226CF
  8
0
 10
4654.6702219498229169
 20
315.8028058035141044
 30
0.0
 40
0.1562178711789486
 50
176.1861470413151949
 51
189.417995210119102
  0
ARC
  5
226D0
  8
0
 10
4654.6201055838901084
 20
315.7851809978176902
 30
0.0
 40
0.0612378860589321
 50
166.5149208648566059
 51
200.5690357216832069
  0
ARC
  5
226D1
  8
0
 10
4654.4963624241736397
 20
315.777521537103496
 30
0.0
 40
0.0678392336674458
 50
348.2148910485529996
 51
18.8690655379820917
  0
ARC
  5
226D2
  8
0
 10
4654.6191144950189482
 20
315.8542604805675182
 30
0.0
 40
0.0865275363245804
 50
170.1438199610782931
 51
194.1540238333566037
  0
ARC
  5
226D3
  8
0
 10
4654.4510460478441018
 20
315.847953987953872
 30
0.0
 40
0.0854680563878688
 50
349.9927429254045137
 51
14.3051008690327297
  0
ARC
  5
226D4
  8
0
 10
4654.5534984125069968
 20
315.8868431121618983
 30
0.0
 40
0.021671753600598
 50
100.9340613580666997
 51
173.2182633447663136
  0
ARC
  5
226D5
  8
0
 10
4654.7844029520683762
 20
315.8598550673468139
 30
0.0
 40
0.2541480799202449
 50
173.3237058406421909
 51
189.5345978301874084
  0
ARC
  5
226D6
  8
0
 10
4654.5675355952107566
 20
315.8234292827169725
 30
0.0
 40
0.0342428997723656
 50
189.5345978301874084
 51
221.5545640756380976
  0
ARC
  5
226D7
  8
0
 10
4654.5558619216380976
 20
315.8158663234844994
 30
0.0
 40
0.0205961486963175
 50
227.3618782621888954
 51
264.1238453041966068
  0
LINE
  5
226D8
  8
0
 10
4654.5537533478291152
 20
315.7953775889233725
 30
0.0
 11
4654.5559585331766357
 21
315.7951528570176265
 31
0.0
  0
ARC
  5
226D9
  8
0
 10
4654.6144766952393184
 20
315.9148482989115791
 30
0.0
 40
0.0496440206617332
 50
153.6809849463645037
 51
184.4579971622775076
  0
ARC
  5
226DA
  8
0
 10
4653.9226033452696356
 20
315.8268680165244859
 30
0.0
 40
0.6604491052571793
 50
1.151058428666905
 51
7.5107307661093836
  0
ARC
  5
226DB
  8
0
 10
4654.5207319604360237
 20
315.908452130602825
 30
0.0
 40
0.0568524106520647
 50
4.7869938249498514
 51
29.9773886297959713
  0
LINE
  5
226DC
  8
0
 10
4654.5603203645023314
 20
315.5871576169132027
 30
0.0
 11
4654.5589582124293884
 21
315.6091686730234187
 31
0.0
  0
ARC
  5
226DD
  8
0
 10
4654.6806324572044105
 20
315.3653122180119226
 30
0.0
 40
0.1214719234943767
 50
178.966508775469606
 51
196.0090001797121033
  0
ARC
  5
226DE
  8
0
 10
4654.4446084385690483
 20
315.3342903835011271
 30
0.0
 40
0.1192887277370032
 50
358.8093622448154179
 51
16.1661467103821117
  0
LINE
  5
226DF
  8
0
 10
4654.5880928134747592
 20
315.198512966229714
 30
0.0
 11
4654.5960342319276606
 21
315.198512966229714
 31
0.0
  0
ENDSEC
  0
EOF
