  0
SECTION
  2
HEADER
  9
$ACADVER
  1
AC1009
  9
$INSBASE
 10
4663.4641954481348876
 20
316.8182032109987176
 30
0.0
  9
$EXTMIN
 10
4662.9118614341741704
 20
314.3737707346360253
 30
0.0
  9
$EXTMAX
 10
4663.4764288535343439
 20
319.26263568736141
 30
0.0
  9
$LIMMIN
 10
0.0
 20
0.0
  9
$LIMMAX
 10
11.6929133858000007
 20
8.2677165353999982
  9
$ORTHOMODE
 70
     0
  9
$REGENMODE
 70
     1
  9
$FILLMODE
 70
     1
  9
$QTEXTMODE
 70
     0
  9
$MIRRTEXT
 70
     0
  9
$DRAGMODE
 70
     2
  9
$LTSCALE
 40
0.6431102362
  9
$OSMODE
 70
  4095
  9
$ATTMODE
 70
     1
  9
$TEXTSIZE
 40
0.2
  9
$TRACEWID
 40
0.05
  9
$TEXTSTYLE
  7
STANDARD
  9
$CLAYER
  8
0
  9
$CELTYPE
  6
BYLAYER
  9
$CECOLOR
 62
   256
  9
$DIMSCALE
 40
1.0
  9
$DIMASZ
 40
0.1875
  9
$DIMEXO
 40
0.0625
  9
$DIMDLI
 40
0.4443307087
  9
$DIMRND
 40
0.0
  9
$DIMDLE
 40
0.0
  9
$DIMEXE
 40
0.125
  9
$DIMTP
 40
0.01
  9
$DIMTM
 40
0.01
  9
$DIMTXT
 40
2.0
  9
$DIMCEN
 40
0.1052362205
  9
$DIMTSZ
 40
0.0
  9
$DIMTOL
 70
     1
  9
$DIMLIM
 70
     0
  9
$DIMTIH
 70
     1
  9
$DIMTOH
 70
     1
  9
$DIMSE1
 70
     0
  9
$DIMSE2
 70
     0
  9
$DIMTAD
 70
     0
  9
$DIMZIN
 70
     0
  9
$DIMBLK
  1

  9
$DIMASO
 70
     1
  9
$DIMSHO
 70
     1
  9
$DIMPOST
  1
\X
  9
$DIMAPOST
  1

  9
$DIMALT
 70
     1
  9
$DIMALTD
 70
     2
  9
$DIMALTF
 40
25.3999999999999986
  9
$DIMLFAC
 40
1.0
  9
$DIMTOFL
 70
     0
  9
$DIMTVP
 40
0.0
  9
$DIMTIX
 70
     0
  9
$DIMSOXD
 70
     0
  9
$DIMSAH
 70
     0
  9
$DIMBLK1
  1

  9
$DIMBLK2
  1

  9
$DIMSTYLE
  2
STANDARD
  9
$DIMCLRD
 70
     0
  9
$DIMCLRE
 70
     0
  9
$DIMCLRT
 70
     0
  9
$DIMTFAC
 40
1.0
  9
$DIMGAP
 40
0.09
  9
$LUNITS
 70
     2
  9
$LUPREC
 70
     4
  9
$SKETCHINC
 40
0.1
  9
$FILLETRAD
 40
0.0
  9
$AUNITS
 70
     0
  9
$AUPREC
 70
     0
  9
$MENU
  1
.
  9
$ELEVATION
 40
0.0
  9
$PELEVATION
 40
0.0
  9
$THICKNESS
 40
0.0
  9
$LIMCHECK
 70
     0
  9
$BLIPMODE
 70
     0
  9
$CHAMFERA
 40
0.0
  9
$CHAMFERB
 40
0.0
  9
$SKPOLY
 70
     0
  9
$TDCREATE
 40
2458060.468368056230247
  9
$TDUPDATE
 40
2459578.8197453701868653
  9
$TDINDWG
 40
0.6553311343
  9
$TDUSRTIMER
 40
0.6553311343
  9
$USRTIMER
 70
     1
  9
$ANGBASE
 50
0.0
  9
$ANGDIR
 70
     0
  9
$PDMODE
 70
     0
  9
$PDSIZE
 40
0.3125
  9
$PLINEWID
 40
0.0
  9
$COORDS
 70
     1
  9
$SPLFRAME
 70
     0
  9
$SPLINETYPE
 70
     6
  9
$SPLINESEGS
 70
     8
  9
$ATTDIA
 70
     1
  9
$ATTREQ
 70
     1
  9
$HANDLING
 70
     1
  9
$HANDSEED
  5
22B8B
  9
$SURFTAB1
 70
     6
  9
$SURFTAB2
 70
     6
  9
$SURFTYPE
 70
     6
  9
$SURFU
 70
     6
  9
$SURFV
 70
     6
  9
$UCSNAME
  2

  9
$UCSORG
 10
0.0
 20
0.0
 30
0.0
  9
$UCSXDIR
 10
1.0
 20
0.0
 30
0.0
  9
$UCSYDIR
 10
0.0
 20
1.0
 30
0.0
  9
$PUCSNAME
  2

  9
$PUCSORG
 10
0.0
 20
0.0
 30
0.0
  9
$PUCSXDIR
 10
1.0
 20
0.0
 30
0.0
  9
$PUCSYDIR
 10
0.0
 20
1.0
 30
0.0
  9
$USERI1
 70
     0
  9
$USERI2
 70
     0
  9
$USERI3
 70
     0
  9
$USERI4
 70
     0
  9
$USERI5
 70
     0
  9
$USERR1
 40
0.0
  9
$USERR2
 40
0.0
  9
$USERR3
 40
0.0
  9
$USERR4
 40
0.0
  9
$USERR5
 40
0.0
  9
$WORLDVIEW
 70
     1
  9
$SHADEDGE
 70
     3
  9
$SHADEDIF
 70
    70
  9
$TILEMODE
 70
     1
  9
$MAXACTVP
 70
    64
  9
$PLIMCHECK
 70
     0
  9
$PEXTMIN
 10
1.0000000000000000E+20
 20
1.0000000000000000E+20
 30
1.0000000000000000E+20
  9
$PEXTMAX
 10
-1.0000000000000000E+20
 20
-1.0000000000000000E+20
 30
-1.0000000000000000E+20
  9
$PLIMMIN
 10
0.0
 20
0.0
  9
$PLIMMAX
 10
12.0
 20
9.0
  9
$UNITMODE
 70
     0
  9
$VISRETAIN
 70
     1
  9
$PLINEGEN
 70
     0
  9
$PSLTSCALE
 70
     1
  0
ENDSEC
  0
SECTION
  2
TABLES
  0
TABLE
  2
VPORT
 70
     1
  0
VPORT
  2
*ACTIVE
 70
     0
 10
0.0
 20
0.0
 11
1.0
 21
1.0
 12
751.8287886985420982
 22
184.2385981084595983
 13
0.0
 23
0.0
 14
1.0
 24
1.0
 15
0.0
 25
0.0
 16
0.0
 26
0.0
 36
60.4960186965801583
 17
3911.3653564453120453
 27
132.5796051025390057
 37
0.0
 40
4.9276142125884803
 41
1.67063492063492
 42
50.0
 43
0.0
 44
0.0
 50
0.0
 51
0.0
 71
     0
 72
   100
 73
     1
 74
     1
 75
     0
 76
     0
 77
     0
 78
     0
  0
ENDTAB
  0
TABLE
  2
LTYPE
 70
     2
  0
LTYPE
  2
CONTINUOUS
 70
     0
  3
Solid line
 72
    65
 73
     0
 40
0.0
  0
LTYPE
  2
PHANTOM2
 70
     0
  3
___ _ _ ___ _ _ ___ _ _ ___ _ _
 72
    65
 73
     6
 40
1.25
 49
0.625
 49
-0.125
 49
0.125
 49
-0.125
 49
0.125
 49
-0.125
  0
ENDTAB
  0
TABLE
  2
LAYER
 70
     2
  0
LAYER
  2
0
 70
     0
 62
   255
  6
CONTINUOUS
  0
LAYER
  2
DEFPOINTS
 70
     0
 62
     7
  6
CONTINUOUS
  0
ENDTAB
  0
TABLE
  2
STYLE
 70
     1
  0
STYLE
  2
STANDARD
 70
     0
 40
0.0
 41
0.8
 50
0.0
 71
     0
 42
0.2
  3
txt
  4

  0
ENDTAB
  0
TABLE
  2
VIEW
 70
     0
  0
ENDTAB
  0
TABLE
  2
UCS
 70
     0
  0
ENDTAB
  0
TABLE
  2
APPID
 70
    11
  0
APPID
  2
ACAD
 70
     0
  0
APPID
  2
ACAD_MLEADERVER
 70
     0
  0
APPID
  2
ACAD_EXEMPT_FROM_CAD_STANDARDS
 70
     0
  0
APPID
  2
ACAD_NAV_VCDISPLAY
 70
     0
  0
APPID
  2
ACAECLAYERSTANDARD
 70
     0
  0
APPID
  2
ACCMTRANSPARENCY
 70
     0
  0
APPID
  2
ACAD_DSTYLE_DIMJAG
 70
     0
  0
APPID
  2
ACAD_DSTYLE_DIMTALN
 70
     0
  0
APPID
  2
ACDBATTR
 70
     0
  0
APPID
  2
ACADANNOTATIVE
 70
     0
  0
APPID
  2
DCO15
 70
     0
  0
ENDTAB
  0
TABLE
  2
DIMSTYLE
 70
     1
  0
DIMSTYLE
  2
STANDARD
 70
     0
  3

  4

  5

  6

  7

 40
1.0
 41
0.1875
 42
0.0625
 43
0.38
 44
0.125
 45
0.0
 46
0.0
 47
0.01
 48
0.01
140
0.15625
141
0.09
142
0.0
143
25.3999999999999986
144
1.0
145
0.0
146
1.0
147
0.09
 71
     1
 72
     0
 73
     1
 74
     1
 75
     0
 76
     0
 77
     0
 78
     4
170
     0
171
     2
172
     0
173
     0
174
     0
175
     0
176
     0
177
     0
178
     0
  0
ENDTAB
  0
ENDSEC
  0
SECTION
  2
BLOCKS
  0
BLOCK
  8
0
  2
$MODEL_SPACE
 70
     0
 10
0.0
 20
0.0
 30
0.0
  3
$MODEL_SPACE
  1

  0
ENDBLK
  5
21
  8
0
  0
BLOCK
 67
     1
  8
0
  2
$PAPER_SPACE
 70
     0
 10
0.0
 20
0.0
 30
0.0
  3
$PAPER_SPACE
  1

  0
ENDBLK
  5
1D
 67
     1
  8
0
  0
ENDSEC
  0
SECTION
  2
ENTITIES
  0
ATTDEF
  5
211C4
  8
DEFPOINTS
 10
4663.4657621868664137
 20
316.8186063298081763
 30
0.0
 40
0.001
  1
P22077-00
  3

  2
MODELNUMBER
 70
     0
1001
ACDBATTR
1070
     0
1070
     1
  0
ATTDEF
  5
211C5
  8
DEFPOINTS
 10
4663.4657621868664137
 20
316.8169394894291031
 30
0.0
 40
0.001
  1
TURNSPRAY
  3

  2
TRADENAME
 70
     0
1001
ACDBATTR
1070
     0
1070
     1
  0
ATTDEF
  5
211C6
  8
DEFPOINTS
 10
4663.4657621868664137
 20
316.8152729964749028
 30
0.0
 40
0.001
  1
BODY SPRAY
  3

  2
PRODUCT
 70
     0
1001
ACDBATTR
1070
     0
1070
     1
  0
LINE
  5
22AB5
  8
0
 10
4663.4641954481348876
 20
319.26263568736141
 30
0.0
 11
4663.4641954481348876
 21
314.3737707346360253
 31
0.0
  0
LINE
  5
22AB6
  8
0
 10
4663.323988316525174
 20
319.2567050319646
 30
0.0
 11
4663.4641954478347543
 21
319.262635687348677
 31
0.0
  0
LINE
  5
22AB7
  8
0
 10
4663.2761043397349567
 20
319.2059612095276862
 30
0.0
 11
4663.2761043397349567
 21
314.4304452124703744
 31
0.0
  0
LINE
  5
22AB8
  8
0
 10
4663.1837042946353904
 20
319.1225808513576112
 30
0.0
 11
4663.1837042946353904
 21
314.5138255706328891
 31
0.0
  0
LINE
  5
22AB9
  8
0
 10
4663.0682146851349898
 20
318.8286907912299739
 30
0.0
 11
4663.0682146851349898
 21
314.8077156309461202
 31
0.0
  0
LINE
  5
22ABA
  8
0
 10
4662.9690212469540711
 20
318.7206747994715101
 30
0.0
 11
4662.9690212469540711
 21
314.9157316225112027
 31
0.0
  0
LINE
  5
22ABB
  8
0
 10
4662.9530252050353738
 20
318.4122032123505051
 30
0.0
 11
4662.9530252050353738
 21
315.2242032096486923
 31
0.0
  0
ARC
  5
22ABC
  8
0
 10
4663.3261033877870432
 20
319.2067445978501041
 30
0.0
 40
0.0500051847643541
 50
92.4241562217805637
 51
180.8976405348388141
  0
ARC
  5
22ABD
  8
0
 10
4663.2461314841948479
 20
319.1942330076008147
 30
0.0
 40
0.0299444835985556
 50
272.9520888147314963
 51
357.685118424902214
  0
ARC
  5
22ABE
  8
0
 10
4659.451993425164801
 20
391.4805581253677929
 30
0.0
 40
72.4157737654764446
 50
272.9838916634689099
 51
273.0045409962951908
  0
ARC
  5
22ABF
  8
0
 10
4663.2236924407961851
 20
319.1230285661105199
 30
0.0
 40
0.0399906524310032
 50
92.9838916634688388
 51
180.6414674456499085
  0
ARC
  5
22AC0
  8
0
 10
4663.1081217216560617
 20
318.8287222396767788
 30
0.0
 40
0.0399070489123354
 50
115.0313374140781946
 51
180.0451517688454999
  0
ARC
  5
22AC1
  8
0
 10
4663.035341134635928
 20
318.9756320527270077
 30
0.0
 40
0.1240306063504618
 50
296.7669935931273244
 51
333.6403652995409175
  0
ARC
  5
22AC2
  8
0
 10
4662.8503041861922611
 20
319.0658939645019245
 30
0.0
 40
0.3299074355625385
 50
333.8627082743811911
 51
352.5800636548805755
  0
ARC
  5
22AC3
  8
0
 10
4662.3620528971423482
 20
319.1255415288256927
 30
0.0
 40
0.8217499769081626
 50
352.9844346829754045
 51
358.7604824034385729
  0
ARC
  5
22AC4
  8
0
 10
4663.0190252050351774
 20
318.721037682548797
 30
0.0
 40
0.0500052748000027
 50
93.0000101800853969
 51
180.4157931610257037
  0
ARC
  5
22AC5
  8
0
 10
4662.4958914670669401
 20
328.9280499462126954
 30
0.0
 40
10.1704041563594707
 50
272.9336535754339934
 51
273.01211413851712
  0
ARC
  5
22AC6
  8
0
 10
4663.0282147130792509
 20
318.8116430574785909
 30
0.0
 40
0.0400015791332566
 50
273.01211413851712
 51
359.5641870264598765
  0
LINE
  5
22AC7
  8
0
 10
4662.9530252050353738
 20
318.1517017246487171
 30
0.0
 11
4662.9306645511105671
 21
318.1492422307717902
 31
0.0
  0
LINE
  5
22AC8
  8
0
 10
4662.9245160082482471
 20
318.0547821347685726
 30
0.0
 11
4662.9530252050353738
 21
318.0478010731487188
 31
0.0
  0
ARC
  5
22AC9
  8
0
 10
4662.9329051984495891
 20
318.1323054135751818
 30
0.0
 40
0.0170843869439074
 50
97.5361529168294368
 51
173.9274893061424052
  0
ARC
  5
22ACA
  8
0
 10
4662.9287045902410682
 20
318.0710348283811868
 30
0.0
 40
0.016776846261427
 50
181.8501349708533894
 51
255.6326497304119982
  0
ARC
  5
22ACB
  8
0
 10
4663.3003233004383219
 20
318.0781290790030766
 30
0.0
 40
0.3884618662629116
 50
171.7138974654239973
 51
181.1263211986353099
  0
ARC
  5
22ACC
  8
0
 10
4662.7940604479799731
 20
318.1107403759061185
 30
0.0
 40
0.121371914858809
 50
349.8751867615545166
 51
2.6460969184848122
  0
ARC
  5
22ACD
  8
0
 10
4663.0352475610816327
 20
318.0949771261488763
 30
0.0
 40
0.1218328397799787
 50
169.8994445206882915
 51
182.621839159346905
  0
LINE
  5
22ACE
  8
0
 10
4662.9530252050353738
 20
317.7216257055487176
 30
0.0
 11
4662.9306645511105671
 21
317.7191662116717907
 31
0.0
  0
LINE
  5
22ACF
  8
0
 10
4662.9245160082482471
 20
317.6247061156685731
 30
0.0
 11
4662.9530252050353738
 21
317.6177250540487194
 31
0.0
  0
ARC
  5
22AD0
  8
0
 10
4662.9329051984495891
 20
317.7022293944751823
 30
0.0
 40
0.0170843869439074
 50
97.5361529168294368
 51
173.9274893061424052
  0
ARC
  5
22AD1
  8
0
 10
4662.9287045902410682
 20
317.6409588092811873
 30
0.0
 40
0.016776846261427
 50
181.8501349708533894
 51
255.6326497304119982
  0
ARC
  5
22AD2
  8
0
 10
4663.3003233004383219
 20
317.6480530599030772
 30
0.0
 40
0.3884618662629116
 50
171.7138974654239973
 51
181.1263211986353099
  0
ARC
  5
22AD3
  8
0
 10
4662.8536189012802424
 20
317.6700546130099951
 30
0.0
 40
0.0633139566052243
 50
347.6278701563232971
 51
12.2463848584036104
  0
ARC
  5
22AD4
  8
0
 10
4662.9790430839711917
 20
317.6699169809849082
 30
0.0
 40
0.0649831015070076
 50
167.9488050375202022
 51
191.9254499772046074
  0
LINE
  5
22AD5
  8
0
 10
4662.9530252050353738
 20
317.2961263571486938
 30
0.0
 11
4662.9306645511105671
 21
317.2936668632718238
 31
0.0
  0
LINE
  5
22AD6
  8
0
 10
4662.9245160082482471
 20
317.1992067672686062
 30
0.0
 11
4662.9530252050353738
 21
317.1922257056486956
 31
0.0
  0
ARC
  5
22AD7
  8
0
 10
4662.9329051984495891
 20
317.2767300460752153
 30
0.0
 40
0.0170843869439074
 50
97.5361529168294368
 51
173.9274893061424052
  0
ARC
  5
22AD8
  8
0
 10
4662.9287045902410682
 20
317.2154594608812204
 30
0.0
 40
0.016776846261427
 50
181.8501349708533894
 51
255.6326497304119982
  0
ARC
  5
22AD9
  8
0
 10
4663.3003233004383219
 20
317.2225537115031102
 30
0.0
 40
0.3884618662629116
 50
171.7138974654239973
 51
181.1263211986353099
  0
ARC
  5
22ADA
  8
0
 10
4662.8521348812910219
 20
317.2439075886899218
 30
0.0
 40
0.0648282757182015
 50
348.2199092440246204
 51
12.2274740747594901
  0
ARC
  5
22ADB
  8
0
 10
4662.962572635048673
 20
317.244338757095818
 30
0.0
 40
0.0489224309099249
 50
164.2262586528661075
 51
196.2211246659032895
  0
ARC
  5
22ADC
  8
0
 10
4662.8519802887140031
 20
316.8180270074980172
 30
0.0
 40
0.0649858851956705
 50
348.2975919860863883
 51
12.2377374979836802
  0
ARC
  5
22ADD
  8
0
 10
4662.9625721426518794
 20
316.8185436555941124
 30
0.0
 40
0.048913814508675
 50
164.2729694796985029
 51
196.2623600043777969
  0
ARC
  5
22ADE
  8
0
 10
4662.9831795492482343
 20
318.4140466289251208
 30
0.0
 40
0.0302106381853647
 50
117.939089885766407
 51
183.4982922730036137
  0
LINE
  5
22ADF
  8
0
 10
4663.323988316525174
 20
314.379701390032892
 30
0.0
 11
4663.4641954481348876
 21
314.3737707346360253
 31
0.0
  0
ARC
  5
22AE0
  8
0
 10
4663.3261033877870432
 20
314.4296618241475016
 30
0.0
 40
0.050005184764835
 50
179.1023594653858027
 51
267.5758349776319847
  0
ARC
  5
22AE1
  8
0
 10
4663.2461277630809491
 20
314.4421717965255993
 30
0.0
 40
0.0299482670596684
 50
2.317686743744642
 51
87.0409639501887682
  0
ARC
  5
22AE2
  8
0
 10
4639.5872318143856319
 20
-138.2769826049990058
 30
0.0
 40
453.3668826935149809
 50
87.008472282915676
 51
87.0117705768909246
  0
ARC
  5
22AE3
  8
0
 10
4663.2236924407961851
 20
314.5133778558869153
 30
0.0
 40
0.0399906524310032
 50
179.3585325543500915
 51
267.0161083365310901
  0
ARC
  5
22AE4
  8
0
 10
4663.1081217216560617
 20
314.8076841823205996
 30
0.0
 40
0.0399070489123354
 50
179.9548482311543864
 51
244.9686625859218054
  0
ARC
  5
22AE5
  8
0
 10
4663.035341134635928
 20
314.6607743692704844
 30
0.0
 40
0.1240306063504618
 50
26.3596347004590612
 51
63.2330064068727182
  0
ARC
  5
22AE6
  8
0
 10
4662.8503041861922611
 20
314.5705124574955107
 30
0.0
 40
0.3299074355625385
 50
7.4199363451194582
 51
26.1372917256187485
  0
ARC
  5
22AE7
  8
0
 10
4662.3620528971423482
 20
314.5108648931717994
 30
0.0
 40
0.8217499769081626
 50
1.2395175965613721
 51
7.0155653170246399
  0
ARC
  5
22AE8
  8
0
 10
4663.0190252050351774
 20
314.9153687394486951
 30
0.0
 40
0.0500052748000027
 50
179.584206838974211
 51
266.9999898199146173
  0
ARC
  5
22AE9
  8
0
 10
4662.4958914670669401
 20
304.708356475784683
 30
0.0
 40
10.1704041563594707
 50
86.9878858614829653
 51
87.0663464245659924
  0
ARC
  5
22AEA
  8
0
 10
4663.0282147130792509
 20
314.8247633645187875
 30
0.0
 40
0.0400015791332566
 50
0.4358129735400912
 51
86.9878858614829653
  0
LINE
  5
22AEB
  8
0
 10
4662.9530252050353738
 20
315.4847046973487181
 30
0.0
 11
4662.9306645511105671
 21
315.4871641912257019
 31
0.0
  0
LINE
  5
22AEC
  8
0
 10
4662.9245160082482471
 20
315.5816242872288058
 30
0.0
 11
4662.9530252050353738
 21
315.5886053488487164
 31
0.0
  0
ARC
  5
22AED
  8
0
 10
4662.9329051984495891
 20
315.5041010084221966
 30
0.0
 40
0.0170843869439074
 50
186.0725106938575095
 51
262.4638470831706059
  0
ARC
  5
22AEE
  8
0
 10
4662.9287045902410682
 20
315.5653715936161916
 30
0.0
 40
0.016776846261427
 50
104.3673502695879023
 51
178.1498650291464969
  0
ARC
  5
22AEF
  8
0
 10
4663.3003233004383219
 20
315.5582773429943018
 30
0.0
 40
0.3884618662629116
 50
178.8736788013646901
 51
188.2861025345760027
  0
ARC
  5
22AF0
  8
0
 10
4662.7940604479799731
 20
315.5256660460913167
 30
0.0
 40
0.121371914858809
 50
357.3539030815152273
 51
10.1248132384455403
  0
ARC
  5
22AF1
  8
0
 10
4663.0352475610816327
 20
315.5414292958486158
 30
0.0
 40
0.1218328397799787
 50
177.378160840653095
 51
190.1005554793115948
  0
LINE
  5
22AF2
  8
0
 10
4662.9530252050353738
 20
315.9147807164487176
 30
0.0
 11
4662.9306645511105671
 21
315.9172402103255877
 31
0.0
  0
LINE
  5
22AF3
  8
0
 10
4662.9245160082482471
 20
316.0117003063288053
 30
0.0
 11
4662.9530252050353738
 21
316.0186813679487159
 31
0.0
  0
ARC
  5
22AF4
  8
0
 10
4662.9329051984495891
 20
315.9341770275223098
 30
0.0
 40
0.0170843869439074
 50
186.0725106938575095
 51
262.4638470831706059
  0
ARC
  5
22AF5
  8
0
 10
4662.9287045902410682
 20
315.9954476127161911
 30
0.0
 40
0.016776846261427
 50
104.3673502695879023
 51
178.1498650291464969
  0
ARC
  5
22AF6
  8
0
 10
4663.3003233004383219
 20
315.9883533620944149
 30
0.0
 40
0.3884618662629116
 50
178.8736788013646901
 51
188.2861025345760027
  0
ARC
  5
22AF7
  8
0
 10
4662.8536189012802424
 20
315.966351808987497
 30
0.0
 40
0.0633139566052243
 50
347.7536151415962991
 51
12.3721298436767899
  0
ARC
  5
22AF8
  8
0
 10
4662.9790430839711917
 20
315.9664894410125839
 30
0.0
 40
0.0649831015070076
 50
168.0745500227953073
 51
192.0511949624797978
  0
LINE
  5
22AF9
  8
0
 10
4662.9530252050353738
 20
316.3402800648487982
 30
0.0
 11
4662.9306645511105671
 21
316.3427395587257251
 31
0.0
  0
LINE
  5
22AFA
  8
0
 10
4662.9245160082482471
 20
316.4371996547287722
 30
0.0
 11
4662.9530252050353738
 21
316.4441807163487965
 31
0.0
  0
ARC
  5
22AFB
  8
0
 10
4662.9329051984495891
 20
316.3596763759222767
 30
0.0
 40
0.0170843869439074
 50
186.0725106938575095
 51
262.4638470831706059
  0
ARC
  5
22AFC
  8
0
 10
4662.9287045902410682
 20
316.4209469611162717
 30
0.0
 40
0.016776846261427
 50
104.3673502695879023
 51
178.1498650291464969
  0
ARC
  5
22AFD
  8
0
 10
4663.3003233004383219
 20
316.4138527104943819
 30
0.0
 40
0.3884618662629116
 50
178.8736788013646901
 51
188.2861025345760027
  0
ARC
  5
22AFE
  8
0
 10
4662.8521348812910219
 20
316.3924988333075135
 30
0.0
 40
0.0648282757182015
 50
347.7725259252404726
 51
11.7800907559753991
  0
ARC
  5
22AFF
  8
0
 10
4662.962572635048673
 20
316.3920676649016741
 30
0.0
 40
0.0489224309099249
 50
163.7788753340967105
 51
195.7737413471338925
  0
LINE
  5
22B00
  8
0
 10
4662.9530252050353738
 20
316.7664386747487129
 30
0.0
 11
4662.9306645511105671
 21
316.7688981686255829
 31
0.0
  0
LINE
  5
22B01
  8
0
 10
4662.9245160082482471
 20
316.8633582646288005
 30
0.0
 11
4662.9530252050353738
 21
316.8703393262487111
 31
0.0
  0
ARC
  5
22B02
  8
0
 10
4662.9329051984495891
 20
316.785834985822305
 30
0.0
 40
0.0170843869439074
 50
186.0725106938575095
 51
262.4638470831706059
  0
ARC
  5
22B03
  8
0
 10
4662.9287045902410682
 20
316.8471055710161863
 30
0.0
 40
0.016776846261427
 50
104.3673502695879023
 51
178.1498650291464969
  0
ARC
  5
22B04
  8
0
 10
4663.3003233004383219
 20
316.8400113203944102
 30
0.0
 40
0.3884618662629116
 50
178.8736788013646901
 51
188.2861025345760027
  0
ARC
  5
22B05
  8
0
 10
4662.9831795492482343
 20
315.2223597930723145
 30
0.0
 40
0.0302106381853647
 50
176.5017077269963863
 51
242.0609101142335078
  0
ENDSEC
  0
EOF
