  0
SECTION
  2
HEADER
  9
$ACADVER
  1
AC1009
  9
$INSBASE
 10
4667.6877933218092949
 20
317.4191802086112943
 30
0.0
  9
$EXTMIN
 10
4665.2433608454466594
 20
316.8668461946519983
 30
0.0
  9
$EXTMAX
 10
4670.1322257981719304
 20
317.4240278079179802
 30
0.0
  9
$LIMMIN
 10
0.0
 20
0.0
  9
$LIMMAX
 10
11.6929133858000007
 20
8.2677165353999982
  9
$ORTHOMODE
 70
     0
  9
$REGENMODE
 70
     1
  9
$FILLMODE
 70
     1
  9
$QTEXTMODE
 70
     0
  9
$MIRRTEXT
 70
     0
  9
$DRAGMODE
 70
     2
  9
$LTSCALE
 40
0.6431102362
  9
$OSMODE
 70
  4095
  9
$ATTMODE
 70
     1
  9
$TEXTSIZE
 40
0.2
  9
$TRACEWID
 40
0.05
  9
$TEXTSTYLE
  7
STANDARD
  9
$CLAYER
  8
0
  9
$CELTYPE
  6
BYLAYER
  9
$CECOLOR
 62
   256
  9
$DIMSCALE
 40
1.0
  9
$DIMASZ
 40
0.1875
  9
$DIMEXO
 40
0.0625
  9
$DIMDLI
 40
0.4443307087
  9
$DIMRND
 40
0.0
  9
$DIMDLE
 40
0.0
  9
$DIMEXE
 40
0.125
  9
$DIMTP
 40
0.01
  9
$DIMTM
 40
0.01
  9
$DIMTXT
 40
2.0
  9
$DIMCEN
 40
0.1052362205
  9
$DIMTSZ
 40
0.0
  9
$DIMTOL
 70
     1
  9
$DIMLIM
 70
     0
  9
$DIMTIH
 70
     1
  9
$DIMTOH
 70
     1
  9
$DIMSE1
 70
     0
  9
$DIMSE2
 70
     0
  9
$DIMTAD
 70
     0
  9
$DIMZIN
 70
     0
  9
$DIMBLK
  1

  9
$DIMASO
 70
     1
  9
$DIMSHO
 70
     1
  9
$DIMPOST
  1
\X
  9
$DIMAPOST
  1

  9
$DIMALT
 70
     1
  9
$DIMALTD
 70
     2
  9
$DIMALTF
 40
25.3999999999999986
  9
$DIMLFAC
 40
1.0
  9
$DIMTOFL
 70
     0
  9
$DIMTVP
 40
0.0
  9
$DIMTIX
 70
     0
  9
$DIMSOXD
 70
     0
  9
$DIMSAH
 70
     0
  9
$DIMBLK1
  1

  9
$DIMBLK2
  1

  9
$DIMSTYLE
  2
STANDARD
  9
$DIMCLRD
 70
     0
  9
$DIMCLRE
 70
     0
  9
$DIMCLRT
 70
     0
  9
$DIMTFAC
 40
1.0
  9
$DIMGAP
 40
0.09
  9
$LUNITS
 70
     2
  9
$LUPREC
 70
     4
  9
$SKETCHINC
 40
0.1
  9
$FILLETRAD
 40
0.0
  9
$AUNITS
 70
     0
  9
$AUPREC
 70
     0
  9
$MENU
  1
.
  9
$ELEVATION
 40
0.0
  9
$PELEVATION
 40
0.0
  9
$THICKNESS
 40
0.0
  9
$LIMCHECK
 70
     0
  9
$BLIPMODE
 70
     0
  9
$CHAMFERA
 40
0.0
  9
$CHAMFERB
 40
0.0
  9
$SKPOLY
 70
     0
  9
$TDCREATE
 40
2458060.468368056230247
  9
$TDUPDATE
 40
2459578.8207291672006249
  9
$TDINDWG
 40
0.6557246528
  9
$TDUSRTIMER
 40
0.6557246528
  9
$USRTIMER
 70
     1
  9
$ANGBASE
 50
0.0
  9
$ANGDIR
 70
     0
  9
$PDMODE
 70
     0
  9
$PDSIZE
 40
0.3125
  9
$PLINEWID
 40
0.0
  9
$COORDS
 70
     1
  9
$SPLFRAME
 70
     0
  9
$SPLINETYPE
 70
     6
  9
$SPLINESEGS
 70
     8
  9
$ATTDIA
 70
     1
  9
$ATTREQ
 70
     1
  9
$HANDLING
 70
     1
  9
$HANDSEED
  5
22E29
  9
$SURFTAB1
 70
     6
  9
$SURFTAB2
 70
     6
  9
$SURFTYPE
 70
     6
  9
$SURFU
 70
     6
  9
$SURFV
 70
     6
  9
$UCSNAME
  2

  9
$UCSORG
 10
0.0
 20
0.0
 30
0.0
  9
$UCSXDIR
 10
1.0
 20
0.0
 30
0.0
  9
$UCSYDIR
 10
0.0
 20
1.0
 30
0.0
  9
$PUCSNAME
  2

  9
$PUCSORG
 10
0.0
 20
0.0
 30
0.0
  9
$PUCSXDIR
 10
1.0
 20
0.0
 30
0.0
  9
$PUCSYDIR
 10
0.0
 20
1.0
 30
0.0
  9
$USERI1
 70
     0
  9
$USERI2
 70
     0
  9
$USERI3
 70
     0
  9
$USERI4
 70
     0
  9
$USERI5
 70
     0
  9
$USERR1
 40
0.0
  9
$USERR2
 40
0.0
  9
$USERR3
 40
0.0
  9
$USERR4
 40
0.0
  9
$USERR5
 40
0.0
  9
$WORLDVIEW
 70
     1
  9
$SHADEDGE
 70
     3
  9
$SHADEDIF
 70
    70
  9
$TILEMODE
 70
     1
  9
$MAXACTVP
 70
    64
  9
$PLIMCHECK
 70
     0
  9
$PEXTMIN
 10
1.0000000000000000E+20
 20
1.0000000000000000E+20
 30
1.0000000000000000E+20
  9
$PEXTMAX
 10
-1.0000000000000000E+20
 20
-1.0000000000000000E+20
 30
-1.0000000000000000E+20
  9
$PLIMMIN
 10
0.0
 20
0.0
  9
$PLIMMAX
 10
12.0
 20
9.0
  9
$UNITMODE
 70
     0
  9
$VISRETAIN
 70
     1
  9
$PLINEGEN
 70
     0
  9
$PSLTSCALE
 70
     1
  0
ENDSEC
  0
SECTION
  2
TABLES
  0
TABLE
  2
VPORT
 70
     1
  0
VPORT
  2
*ACTIVE
 70
     0
 10
0.0
 20
0.0
 11
1.0
 21
1.0
 12
756.3224368764977044
 22
184.5658318987458983
 13
0.0
 23
0.0
 14
1.0
 24
1.0
 15
0.0
 25
0.0
 16
0.0
 26
0.0
 36
60.4960186965801583
 17
3911.3653564453120453
 27
132.5796051025390057
 37
0.0
 40
2.9402350108771391
 41
1.67063492063492
 42
50.0
 43
0.0
 44
0.0
 50
0.0
 51
0.0
 71
     0
 72
   100
 73
     1
 74
     1
 75
     0
 76
     0
 77
     0
 78
     0
  0
ENDTAB
  0
TABLE
  2
LTYPE
 70
     2
  0
LTYPE
  2
CONTINUOUS
 70
     0
  3
Solid line
 72
    65
 73
     0
 40
0.0
  0
LTYPE
  2
PHANTOM2
 70
     0
  3
___ _ _ ___ _ _ ___ _ _ ___ _ _
 72
    65
 73
     6
 40
1.25
 49
0.625
 49
-0.125
 49
0.125
 49
-0.125
 49
0.125
 49
-0.125
  0
ENDTAB
  0
TABLE
  2
LAYER
 70
     2
  0
LAYER
  2
0
 70
     0
 62
   255
  6
CONTINUOUS
  0
LAYER
  2
DEFPOINTS
 70
     0
 62
     7
  6
CONTINUOUS
  0
ENDTAB
  0
TABLE
  2
STYLE
 70
     1
  0
STYLE
  2
STANDARD
 70
     0
 40
0.0
 41
0.8
 50
0.0
 71
     0
 42
0.2
  3
txt
  4

  0
ENDTAB
  0
TABLE
  2
VIEW
 70
     0
  0
ENDTAB
  0
TABLE
  2
UCS
 70
     0
  0
ENDTAB
  0
TABLE
  2
APPID
 70
    11
  0
APPID
  2
ACAD
 70
     0
  0
APPID
  2
ACAD_MLEADERVER
 70
     0
  0
APPID
  2
ACAD_EXEMPT_FROM_CAD_STANDARDS
 70
     0
  0
APPID
  2
ACAD_NAV_VCDISPLAY
 70
     0
  0
APPID
  2
ACAECLAYERSTANDARD
 70
     0
  0
APPID
  2
ACCMTRANSPARENCY
 70
     0
  0
APPID
  2
ACAD_DSTYLE_DIMJAG
 70
     0
  0
APPID
  2
ACAD_DSTYLE_DIMTALN
 70
     0
  0
APPID
  2
ACDBATTR
 70
     0
  0
APPID
  2
ACADANNOTATIVE
 70
     0
  0
APPID
  2
DCO15
 70
     0
  0
ENDTAB
  0
TABLE
  2
DIMSTYLE
 70
     1
  0
DIMSTYLE
  2
STANDARD
 70
     0
  3

  4

  5

  6

  7

 40
1.0
 41
0.1875
 42
0.0625
 43
0.38
 44
0.125
 45
0.0
 46
0.0
 47
0.01
 48
0.01
140
0.15625
141
0.09
142
0.0
143
25.3999999999999986
144
1.0
145
0.0
146
1.0
147
0.09
 71
     1
 72
     0
 73
     1
 74
     1
 75
     0
 76
     0
 77
     0
 78
     4
170
     0
171
     2
172
     0
173
     0
174
     0
175
     0
176
     0
177
     0
178
     0
  0
ENDTAB
  0
ENDSEC
  0
SECTION
  2
BLOCKS
  0
BLOCK
  8
0
  2
$MODEL_SPACE
 70
     0
 10
0.0
 20
0.0
 30
0.0
  3
$MODEL_SPACE
  1

  0
ENDBLK
  5
21
  8
0
  0
BLOCK
 67
     1
  8
0
  2
$PAPER_SPACE
 70
     0
 10
0.0
 20
0.0
 30
0.0
  3
$PAPER_SPACE
  1

  0
ENDBLK
  5
1D
 67
     1
  8
0
  0
ENDSEC
  0
SECTION
  2
ENTITIES
  0
ATTDEF
  5
211C4
  8
DEFPOINTS
 10
4667.6840498218616631
 20
317.4230278079180039
 30
0.0
 40
0.001
  1
P22077-00
  3

  2
MODELNUMBER
 70
     0
1001
ACDBATTR
1070
     0
1070
     1
  0
ATTDEF
  5
211C5
  8
DEFPOINTS
 10
4667.6840498218616631
 20
317.4213609675388739
 30
0.0
 40
0.001
  1
TURNSPRAY
  3

  2
TRADENAME
 70
     0
1001
ACDBATTR
1070
     0
1070
     1
  0
ATTDEF
  5
211C6
  8
DEFPOINTS
 10
4667.6840498218616631
 20
317.4196944745846736
 30
0.0
 40
0.001
  1
BODY SPRAY
  3

  2
PRODUCT
 70
     0
1001
ACDBATTR
1070
     0
1070
     1
  0
LINE
  5
22D4C
  8
0
 10
4665.2433608454466594
 20
317.4191802086112943
 30
0.0
 11
4670.1322257981719304
 21
317.4191802086112943
 31
0.0
  0
LINE
  5
22D4D
  8
0
 10
4665.2492915008442651
 20
317.2789730770010124
 30
0.0
 11
4665.2433608454603018
 21
317.4191802083112748
 31
0.0
  0
LINE
  5
22D4E
  8
0
 10
4665.300035323281918
 20
317.2310891002113067
 30
0.0
 11
4670.0755513203375813
 21
317.2310891002113067
 31
0.0
  0
LINE
  5
22D4F
  8
0
 10
4665.3834156814518792
 20
317.1386890551112856
 30
0.0
 11
4669.992170962176715
 21
317.1386890551112856
 31
0.0
  0
LINE
  5
22D50
  8
0
 10
4665.6773057415803123
 20
317.023199445611283
 30
0.0
 11
4669.6982809018627449
 21
317.023199445611283
 31
0.0
  0
LINE
  5
22D51
  8
0
 10
4665.7853217333367866
 20
316.9240060074308758
 30
0.0
 11
4669.5902649102981741
 21
316.9240060074308758
 31
0.0
  0
LINE
  5
22D52
  8
0
 10
4666.0937933204586443
 20
316.9080099655113258
 30
0.0
 11
4669.2817933231599454
 21
316.9080099655113258
 31
0.0
  0
ARC
  5
22D53
  8
0
 10
4665.2992519349591021
 20
317.2810881482632226
 30
0.0
 40
0.0500051847648373
 50
182.4241650223588067
 51
270.8976405346339789
  0
ARC
  5
22D54
  8
0
 10
4665.3117635252092441
 20
317.201116244671482
 30
0.0
 40
0.0299444835985607
 50
2.9520888147348781
 51
87.6851184249158848
  0
ARC
  5
22D55
  8
0
 10
4593.0254384074405607
 20
313.4069781856417762
 30
0.0
 40
72.4157737654764446
 50
2.983891663449151
 51
3.0045409963120049
  0
ARC
  5
22D56
  8
0
 10
4665.3829679666978336
 20
317.1786772012719098
 30
0.0
 40
0.0399906524310032
 50
182.9838916634491
 51
270.6414674456594867
  0
ARC
  5
22D57
  8
0
 10
4665.6772978202689046
 20
317.0631874192918076
 30
0.0
 40
0.0399879744651308
 50
205.1630187371561931
 51
270.0113501135140268
  0
ARC
  5
22D58
  8
0
 10
4665.5303644800824259
 20
316.990325895112619
 30
0.0
 40
0.1240306063504618
 50
26.7669935931535505
 51
63.6403652995293001
  0
ARC
  5
22D59
  8
0
 10
4665.440102568306429
 20
316.8052889466683268
 30
0.0
 40
0.3299074355625385
 50
63.8627082743885808
 51
82.5800636548721201
  0
ARC
  5
22D5A
  8
0
 10
4665.3804550039840251
 20
316.3170376576186982
 30
0.0
 40
0.8217499769081626
 50
82.9844346829785451
 51
88.7604824034415429
  0
ARC
  5
22D5B
  8
0
 10
4665.7849588502604092
 20
316.9740099655112999
 30
0.0
 40
0.0500052748000027
 50
183.0000101801016967
 51
270.4157931610291143
  0
ARC
  5
22D5C
  8
0
 10
4655.5779465865953171
 20
316.4508762275434037
 30
0.0
 40
10.1704041563594707
 50
2.9336535754415181
 51
3.0121141385086552
  0
ARC
  5
22D5D
  8
0
 10
4665.6943534753308995
 20
316.9831994735558283
 30
0.0
 40
0.0400015791332566
 50
3.0121141385086552
 51
89.5641870264793312
  0
LINE
  5
22D5E
  8
0
 10
4666.3542948081612849
 20
316.9080099655113258
 30
0.0
 11
4666.3567543020371886
 21
316.8856493115862918
 31
0.0
  0
LINE
  5
22D5F
  8
0
 10
4666.4512143980409746
 20
316.8795007687256202
 30
0.0
 11
4666.4581954596596916
 21
316.9080099655113258
 31
0.0
  0
ARC
  5
22D60
  8
0
 10
4666.373691119232717
 20
316.8878899589254843
 30
0.0
 40
0.0170843869439074
 50
187.5361529168492041
 51
263.9274893061302123
  0
ARC
  5
22D61
  8
0
 10
4666.4349553750971609
 20
316.8837064650098796
 30
0.0
 40
0.0167941569689687
 50
271.8698320972418969
 51
345.4972682805004069
  0
ARC
  5
22D62
  8
0
 10
4666.4278674538072664
 20
317.2553080609148992
 30
0.0
 40
0.3884618662629116
 50
261.7138974654022832
 51
271.1263211986317856
  0
ARC
  5
22D63
  8
0
 10
4666.3952561569030877
 20
316.7490452084556978
 30
0.0
 40
0.121371914858809
 50
79.875186761542551
 51
92.6460969184908549
  0
ARC
  5
22D64
  8
0
 10
4666.4110194066606709
 20
316.9902323215576985
 30
0.0
 40
0.1218328397799787
 50
259.8994445206918158
 51
272.6218391593304773
  0
LINE
  5
22D65
  8
0
 10
4666.7237490399484159
 20
316.9080099655113258
 30
0.0
 11
4666.7262085338252291
 21
316.8856493115862918
 31
0.0
  0
LINE
  5
22D66
  8
0
 10
4666.8206686298281056
 20
316.8795007687256202
 30
0.0
 11
4666.8276496914468225
 21
316.9080099655113258
 31
0.0
  0
ARC
  5
22D67
  8
0
 10
4666.743145351021667
 20
316.8878899589254843
 30
0.0
 40
0.0170843869439074
 50
187.5361529168492041
 51
263.9274893061302123
  0
ARC
  5
22D68
  8
0
 10
4666.8044096068852014
 20
316.8837064650098796
 30
0.0
 40
0.0167941569689687
 50
271.8698320972418969
 51
345.4972682805004069
  0
ARC
  5
22D69
  8
0
 10
4666.7973216855925784
 20
317.2553080609148992
 30
0.0
 40
0.3884618662629116
 50
261.7138974654022832
 51
271.1263211986317856
  0
ARC
  5
22D6A
  8
0
 10
4666.7753201324867405
 20
316.8086036617564218
 30
0.0
 40
0.0633139566052243
 50
77.6278701563331452
 51
102.2463848584260973
  0
ARC
  5
22D6B
  8
0
 10
4666.7754577645109748
 20
316.9340278444464047
 30
0.0
 40
0.0649831015070076
 50
257.9488050375094872
 51
281.9254499772238205
  0
LINE
  5
22D6C
  8
0
 10
4667.0888456523143759
 20
316.9080099655113258
 30
0.0
 11
4667.0913051461902796
 21
316.8856493115862918
 31
0.0
  0
LINE
  5
22D6D
  8
0
 10
4667.1857652421931562
 20
316.8795007687256202
 30
0.0
 11
4667.1927463038136921
 21
316.9080099655113258
 31
0.0
  0
ARC
  5
22D6E
  8
0
 10
4667.108241963385808
 20
316.8878899589254843
 30
0.0
 40
0.0170843869439074
 50
187.5361529168492041
 51
263.9274893061302123
  0
ARC
  5
22D6F
  8
0
 10
4667.1695062192502519
 20
316.8837064650098796
 30
0.0
 40
0.0167941569689749
 50
271.8698320972418969
 51
345.4972682804847182
  0
ARC
  5
22D70
  8
0
 10
4667.162418297959448
 20
317.2553080609148992
 30
0.0
 40
0.3884618662629116
 50
261.7138974654022832
 51
271.1263211986317856
  0
ARC
  5
22D71
  8
0
 10
4667.1410644207717269
 20
316.8071196417669739
 30
0.0
 40
0.0648282757182015
 50
78.2199092440220625
 51
102.2274740747538999
  0
ARC
  5
22D72
  8
0
 10
4667.1406332523656602
 20
316.9175573955254208
 30
0.0
 40
0.0489224309099249
 50
254.2262586528848942
 51
286.2211246659293238
  0
ARC
  5
22D73
  8
0
 10
4667.5051450453393045
 20
316.8069650491905236
 30
0.0
 40
0.0649858851956705
 50
78.2975919860633667
 51
102.2377374980086984
  0
ARC
  5
22D74
  8
0
 10
4667.504628397243323
 20
316.9175569031286841
 30
0.0
 40
0.048913814508675
 50
254.2729694797156128
 51
286.2623600043968963
  0
ARC
  5
22D75
  8
0
 10
4666.0919499038836875
 20
316.9381643097239021
 30
0.0
 40
0.0302106381853647
 50
207.9390898857548109
 51
273.4982922729864185
  0
LINE
  5
22D76
  8
0
 10
4670.1262951427761436
 20
317.2789730770010124
 30
0.0
 11
4670.1322257981719304
 21
317.4191802086112943
 31
0.0
  0
ARC
  5
22D77
  8
0
 10
4670.0763347086613066
 20
317.2810881482632226
 30
0.0
 40
0.0500051847648367
 50
269.1023594653660211
 51
357.5758349776443765
  0
ARC
  5
22D78
  8
0
 10
4670.0638247362840048
 20
317.2011125235575264
 30
0.0
 40
0.0299482670596684
 50
92.3176867437639004
 51
177.0409639501949073
  0
ARC
  5
22D79
  8
0
 10
5122.782983366042572
 20
293.5422163540821998
 30
0.0
 40
453.3668869275094835
 50
177.0084722829643056
 51
177.0117705768720953
  0
ARC
  5
22D7A
  8
0
 10
4669.9926186769216656
 20
317.1786772012719098
 30
0.0
 40
0.0399906524310032
 50
269.3585325543405133
 51
357.0161083365508148
  0
ARC
  5
22D7B
  8
0
 10
4669.6983123504878677
 20
317.0631064821321274
 30
0.0
 40
0.0399070489123354
 50
269.9548482311773228
 51
334.9686625859463902
  0
ARC
  5
22D7C
  8
0
 10
4669.845372545052669
 20
316.9901156737739143
 30
0.0
 40
0.1242857467765993
 50
116.378723087032995
 51
153.1649104730242072
  0
ARC
  5
22D7D
  8
0
 10
4669.9354840753130702
 20
316.8052889466683268
 30
0.0
 40
0.3299074355625385
 50
97.4199363451278941
 51
116.137291725611405
  0
ARC
  5
22D7E
  8
0
 10
4669.9951316396372931
 20
316.3170376576186982
 30
0.0
 40
0.8217499769081626
 50
91.2395175965584713
 51
97.0155653170214691
  0
ARC
  5
22D7F
  8
0
 10
4669.5906277933599995
 20
316.9740099655112999
 30
0.0
 40
0.0500052748000027
 50
269.5842068389708857
 51
356.9999898198983033
  0
ARC
  5
22D80
  8
0
 10
4679.7976400570241822
 20
316.4508762275434037
 30
0.0
 40
10.1704041563594707
 50
176.9878858614912929
 51
177.0663464245583896
  0
ARC
  5
22D81
  8
0
 10
4669.6812331682904187
 20
316.9831994735558283
 30
0.0
 40
0.0400015791332566
 50
90.4358129735206688
 51
176.9878858614912929
  0
LINE
  5
22D82
  8
0
 10
4668.6546542820442482
 20
316.9080099655113258
 30
0.0
 11
4668.652194788167435
 21
316.8856493115862918
 31
0.0
  0
LINE
  5
22D83
  8
0
 10
4668.557734692163649
 20
316.8795007687256202
 30
0.0
 11
4668.5507536305440226
 21
316.9080099655113258
 31
0.0
  0
ARC
  5
22D84
  8
0
 10
4668.6352579709709971
 20
316.8878899589254843
 30
0.0
 40
0.0170843869439074
 50
276.0725106938697877
 51
352.4638470831508243
  0
ARC
  5
22D85
  8
0
 10
4668.5739937151065533
 20
316.8837064650098796
 30
0.0
 40
0.0167941569689734
 50
194.5027317195090006
 51
268.1301679027581031
  0
ARC
  5
22D86
  8
0
 10
4668.5810816363982667
 20
317.2553080609148992
 30
0.0
 40
0.3884618662629116
 50
268.8736788013681007
 51
278.2861025345977168
  0
ARC
  5
22D87
  8
0
 10
4668.6136929333006265
 20
316.7490452084556978
 30
0.0
 40
0.121371914858809
 50
87.3539030815091309
 51
100.1248132384574063
  0
ARC
  5
22D88
  8
0
 10
4668.5979296835439527
 20
316.9902323215576985
 30
0.0
 40
0.1218328397799787
 50
267.3781608406695227
 51
280.1005554793081842
  0
LINE
  5
22D89
  8
0
 10
4668.2869501985751413
 20
316.9080099655113258
 30
0.0
 11
4668.284490704698328
 21
316.8856493115862918
 31
0.0
  0
LINE
  5
22D8A
  8
0
 10
4668.1900306086954515
 20
316.8795007687256202
 30
0.0
 11
4668.1830495470740061
 21
316.9080099655113258
 31
0.0
  0
ARC
  5
22D8B
  8
0
 10
4668.2675538875018901
 20
316.8878899589254843
 30
0.0
 40
0.0170843869439074
 50
276.0725106938697877
 51
352.4638470831508243
  0
ARC
  5
22D8C
  8
0
 10
4668.2062896316383558
 20
316.8837064650098796
 30
0.0
 40
0.0167941569689742
 50
194.5027317195090006
 51
268.1301679027581031
  0
ARC
  5
22D8D
  8
0
 10
4668.2133775529291597
 20
317.2553080609148992
 30
0.0
 40
0.3884618662629116
 50
268.8736788013681007
 51
278.2861025345977168
  0
ARC
  5
22D8E
  8
0
 10
4668.2353791060368167
 20
316.8086036617564218
 30
0.0
 40
0.0633139566052243
 50
77.7536151415738317
 51
102.3721298436667979
  0
ARC
  5
22D8F
  8
0
 10
4668.2352414740107633
 20
316.9340278444464047
 30
0.0
 40
0.0649831015070076
 50
258.0745500227761795
 51
282.0511949624905128
  0
LINE
  5
22D90
  8
0
 10
4667.9216722804558231
 20
316.9080099655113258
 30
0.0
 11
4667.9192127865790098
 21
316.8856493115862918
 31
0.0
  0
LINE
  5
22D91
  8
0
 10
4667.8247526905761333
 20
316.8795007687256202
 30
0.0
 11
4667.8177716289574164
 21
316.9080099655113258
 31
0.0
  0
ARC
  5
22D92
  8
0
 10
4667.9022759693843909
 20
316.8878899589254843
 30
0.0
 40
0.0170843869439074
 50
276.0725106938697877
 51
352.4638470831508243
  0
ARC
  5
22D93
  8
0
 10
4667.8410117135199471
 20
316.8837064650098796
 30
0.0
 40
0.0167941569689688
 50
194.5027317194995931
 51
268.1301679027581031
  0
ARC
  5
22D94
  8
0
 10
4667.8480996348116605
 20
317.2553080609148992
 30
0.0
 40
0.3884618662629116
 50
268.8736788013681007
 51
278.2861025345977168
  0
ARC
  5
22D95
  8
0
 10
4667.8694535119993816
 20
316.8071196417669739
 30
0.0
 40
0.0648282757182015
 50
77.772525925246029
 51
101.7800907559778949
  0
ARC
  5
22D96
  8
0
 10
4667.8698846804036293
 20
316.9175573955254208
 30
0.0
 40
0.0489224309099249
 50
253.7788753340707046
 51
285.7737413471152195
  0
LINE
  5
22D97
  8
0
 10
4667.5567333780891204
 20
316.9080099655113258
 30
0.0
 11
4667.5542738842123072
 21
316.8856493115862918
 31
0.0
  0
LINE
  5
22D98
  8
0
 10
4667.4598137882076117
 20
316.8795007687256202
 30
0.0
 11
4667.4528327265879852
 21
316.9080099655113258
 31
0.0
  0
ARC
  5
22D99
  8
0
 10
4667.5373370670149598
 20
316.8878899589254843
 30
0.0
 40
0.0170843869439074
 50
276.0725106938697877
 51
352.4638470831508243
  0
ARC
  5
22D9A
  8
0
 10
4667.4760728111514254
 20
316.8837064650098796
 30
0.0
 40
0.0167941569689725
 50
194.5027317195122123
 51
268.1301679027581031
  0
ARC
  5
22D9B
  8
0
 10
4667.4831607324440483
 20
317.2553080609148992
 30
0.0
 40
0.3884618662629116
 50
268.8736788013681007
 51
278.2861025345977168
  0
ARC
  5
22D9C
  8
0
 10
4669.2836367397367212
 20
316.9381643097239021
 30
0.0
 40
0.0302106381853647
 50
266.5017077270135815
 51
332.0609101142451891
  0
LINE
  5
22D9D
  8
0
 10
4669.02070190259019
 20
316.9080099655113258
 30
0.0
 11
4669.0182424087133768
 21
316.8856493115862918
 31
0.0
  0
LINE
  5
22D9E
  8
0
 10
4668.9237823127095908
 20
316.8795007687256202
 30
0.0
 11
4668.9168012510890549
 21
316.9080099655113258
 31
0.0
  0
ARC
  5
22D9F
  8
0
 10
4669.0013055915169389
 20
316.8878899589254843
 30
0.0
 40
0.0170843869439074
 50
276.0725106938697877
 51
352.4638470831508243
  0
ARC
  5
22DA0
  8
0
 10
4668.940041335654314
 20
316.8837064650098796
 30
0.0
 40
0.0167941569689742
 50
194.5027317195090006
 51
268.1301679027581031
  0
ARC
  5
22DA1
  8
0
 10
4668.9471292569442085
 20
317.2553080609148992
 30
0.0
 40
0.3884618662629116
 50
268.8736788013681007
 51
278.2861025345977168
  0
ARC
  5
22DA2
  8
0
 10
4668.9797405538465682
 20
316.7490452084556978
 30
0.0
 40
0.121371914858809
 50
87.3539030815091309
 51
100.1248132384574063
  0
ARC
  5
22DA3
  8
0
 10
4668.9639773040898945
 20
316.9902323215576985
 30
0.0
 40
0.1218328397799787
 50
267.3781608406695227
 51
280.1005554793081842
  0
ENDSEC
  0
EOF
