  0
SECTION
  2
HEADER
  9
$ACADVER
  1
AC1009
  9
$INSBASE
 10
4665.6217196229463298
 20
317.1758902568947747
 30
0.0
  9
$EXTMIN
 10
4663.6706946690774203
 20
315.988823852531084
 30
0.0
  9
$EXTMAX
 10
4665.6330807597596504
 20
318.3629566613084876
 30
0.0
  9
$LIMMIN
 10
0.0
 20
0.0
  9
$LIMMAX
 10
11.6929133858000007
 20
8.2677165353999982
  9
$ORTHOMODE
 70
     0
  9
$REGENMODE
 70
     1
  9
$FILLMODE
 70
     1
  9
$QTEXTMODE
 70
     0
  9
$MIRRTEXT
 70
     0
  9
$DRAGMODE
 70
     2
  9
$LTSCALE
 40
0.6431102362
  9
$OSMODE
 70
  4095
  9
$ATTMODE
 70
     1
  9
$TEXTSIZE
 40
0.2
  9
$TRACEWID
 40
0.05
  9
$TEXTSTYLE
  7
STANDARD
  9
$CLAYER
  8
0
  9
$CELTYPE
  6
BYLAYER
  9
$CECOLOR
 62
   256
  9
$DIMSCALE
 40
1.0
  9
$DIMASZ
 40
0.1875
  9
$DIMEXO
 40
0.0625
  9
$DIMDLI
 40
0.4443307087
  9
$DIMRND
 40
0.0
  9
$DIMDLE
 40
0.0
  9
$DIMEXE
 40
0.125
  9
$DIMTP
 40
0.01
  9
$DIMTM
 40
0.01
  9
$DIMTXT
 40
2.0
  9
$DIMCEN
 40
0.1052362205
  9
$DIMTSZ
 40
0.0
  9
$DIMTOL
 70
     1
  9
$DIMLIM
 70
     0
  9
$DIMTIH
 70
     1
  9
$DIMTOH
 70
     1
  9
$DIMSE1
 70
     0
  9
$DIMSE2
 70
     0
  9
$DIMTAD
 70
     0
  9
$DIMZIN
 70
     0
  9
$DIMBLK
  1

  9
$DIMASO
 70
     1
  9
$DIMSHO
 70
     1
  9
$DIMPOST
  1
\X
  9
$DIMAPOST
  1

  9
$DIMALT
 70
     1
  9
$DIMALTD
 70
     2
  9
$DIMALTF
 40
25.3999999999999986
  9
$DIMLFAC
 40
1.0
  9
$DIMTOFL
 70
     0
  9
$DIMTVP
 40
0.0
  9
$DIMTIX
 70
     0
  9
$DIMSOXD
 70
     0
  9
$DIMSAH
 70
     0
  9
$DIMBLK1
  1

  9
$DIMBLK2
  1

  9
$DIMSTYLE
  2
STANDARD
  9
$DIMCLRD
 70
     0
  9
$DIMCLRE
 70
     0
  9
$DIMCLRT
 70
     0
  9
$DIMTFAC
 40
1.0
  9
$DIMGAP
 40
0.09
  9
$LUNITS
 70
     2
  9
$LUPREC
 70
     4
  9
$SKETCHINC
 40
0.1
  9
$FILLETRAD
 40
0.0
  9
$AUNITS
 70
     0
  9
$AUPREC
 70
     0
  9
$MENU
  1
.
  9
$ELEVATION
 40
0.0
  9
$PELEVATION
 40
0.0
  9
$THICKNESS
 40
0.0
  9
$LIMCHECK
 70
     0
  9
$BLIPMODE
 70
     0
  9
$CHAMFERA
 40
0.0
  9
$CHAMFERB
 40
0.0
  9
$SKPOLY
 70
     0
  9
$TDCREATE
 40
2458060.468368056230247
  9
$TDUPDATE
 40
2459698.7711689821444452
  9
$TDINDWG
 40
0.6535603008999999
  9
$TDUSRTIMER
 40
0.6535603008999999
  9
$USRTIMER
 70
     1
  9
$ANGBASE
 50
0.0
  9
$ANGDIR
 70
     0
  9
$PDMODE
 70
     0
  9
$PDSIZE
 40
0.3125
  9
$PLINEWID
 40
0.0
  9
$COORDS
 70
     1
  9
$SPLFRAME
 70
     0
  9
$SPLINETYPE
 70
     6
  9
$SPLINESEGS
 70
     8
  9
$ATTDIA
 70
     1
  9
$ATTREQ
 70
     1
  9
$HANDLING
 70
     1
  9
$HANDSEED
  5
22DB5
  9
$SURFTAB1
 70
     6
  9
$SURFTAB2
 70
     6
  9
$SURFTYPE
 70
     6
  9
$SURFU
 70
     6
  9
$SURFV
 70
     6
  9
$UCSNAME
  2

  9
$UCSORG
 10
0.0
 20
0.0
 30
0.0
  9
$UCSXDIR
 10
1.0
 20
0.0
 30
0.0
  9
$UCSYDIR
 10
0.0
 20
1.0
 30
0.0
  9
$PUCSNAME
  2

  9
$PUCSORG
 10
0.0
 20
0.0
 30
0.0
  9
$PUCSXDIR
 10
1.0
 20
0.0
 30
0.0
  9
$PUCSYDIR
 10
0.0
 20
1.0
 30
0.0
  9
$USERI1
 70
     0
  9
$USERI2
 70
     0
  9
$USERI3
 70
     0
  9
$USERI4
 70
     0
  9
$USERI5
 70
     0
  9
$USERR1
 40
0.0
  9
$USERR2
 40
0.0
  9
$USERR3
 40
0.0
  9
$USERR4
 40
0.0
  9
$USERR5
 40
0.0
  9
$WORLDVIEW
 70
     1
  9
$SHADEDGE
 70
     3
  9
$SHADEDIF
 70
    70
  9
$TILEMODE
 70
     1
  9
$MAXACTVP
 70
    64
  9
$PLIMCHECK
 70
     0
  9
$PEXTMIN
 10
1.0000000000000000E+20
 20
1.0000000000000000E+20
 30
1.0000000000000000E+20
  9
$PEXTMAX
 10
-1.0000000000000000E+20
 20
-1.0000000000000000E+20
 30
-1.0000000000000000E+20
  9
$PLIMMIN
 10
0.0
 20
0.0
  9
$PLIMMAX
 10
12.0
 20
9.0
  9
$UNITMODE
 70
     0
  9
$VISRETAIN
 70
     1
  9
$PLINEGEN
 70
     0
  9
$PSLTSCALE
 70
     1
  0
ENDSEC
  0
SECTION
  2
TABLES
  0
TABLE
  2
VPORT
 70
     1
  0
VPORT
  2
*ACTIVE
 70
     0
 10
0.0
 20
0.0
 11
1.0
 21
1.0
 12
753.2865312691060353
 22
184.5962851543806948
 13
0.0
 23
0.0
 14
1.0
 24
1.0
 15
0.0
 25
0.0
 16
0.0
 26
0.0
 36
60.4960186965801583
 17
3911.3653564453120453
 27
132.5796051025390057
 37
0.0
 40
2.3926566018237732
 41
2.4830729166666661
 42
50.0
 43
0.0
 44
0.0
 50
0.0
 51
0.0
 71
     0
 72
   100
 73
     1
 74
     1
 75
     0
 76
     0
 77
     0
 78
     0
  0
ENDTAB
  0
TABLE
  2
LTYPE
 70
     2
  0
LTYPE
  2
CONTINUOUS
 70
     0
  3
Solid line
 72
    65
 73
     0
 40
0.0
  0
LTYPE
  2
PHANTOM2
 70
     0
  3
___ _ _ ___ _ _ ___ _ _ ___ _ _
 72
    65
 73
     6
 40
1.25
 49
0.625
 49
-0.125
 49
0.125
 49
-0.125
 49
0.125
 49
-0.125
  0
ENDTAB
  0
TABLE
  2
LAYER
 70
     2
  0
LAYER
  2
0
 70
     0
 62
   255
  6
CONTINUOUS
  0
LAYER
  2
DEFPOINTS
 70
     0
 62
     7
  6
CONTINUOUS
  0
ENDTAB
  0
TABLE
  2
STYLE
 70
     1
  0
STYLE
  2
STANDARD
 70
     0
 40
0.0
 41
0.8
 50
0.0
 71
     0
 42
0.2
  3
txt
  4

  0
ENDTAB
  0
TABLE
  2
VIEW
 70
     0
  0
ENDTAB
  0
TABLE
  2
UCS
 70
     0
  0
ENDTAB
  0
TABLE
  2
APPID
 70
    11
  0
APPID
  2
ACAD
 70
     0
  0
APPID
  2
ACAD_MLEADERVER
 70
     0
  0
APPID
  2
ACAD_EXEMPT_FROM_CAD_STANDARDS
 70
     0
  0
APPID
  2
ACAD_NAV_VCDISPLAY
 70
     0
  0
APPID
  2
ACAECLAYERSTANDARD
 70
     0
  0
APPID
  2
ACCMTRANSPARENCY
 70
     0
  0
APPID
  2
ACAD_DSTYLE_DIMJAG
 70
     0
  0
APPID
  2
ACAD_DSTYLE_DIMTALN
 70
     0
  0
APPID
  2
ACDBATTR
 70
     0
  0
APPID
  2
ACADANNOTATIVE
 70
     0
  0
APPID
  2
DCO15
 70
     0
  0
ENDTAB
  0
TABLE
  2
DIMSTYLE
 70
     1
  0
DIMSTYLE
  2
STANDARD
 70
     0
  3

  4

  5

  6

  7

 40
1.0
 41
0.1875
 42
0.0625
 43
0.38
 44
0.125
 45
0.0
 46
0.0
 47
0.01
 48
0.01
140
0.15625
141
0.09
142
0.0
143
25.3999999999999986
144
1.0
145
0.0
146
1.0
147
0.09
 71
     1
 72
     0
 73
     1
 74
     1
 75
     0
 76
     0
 77
     0
 78
     4
170
     0
171
     2
172
     0
173
     0
174
     0
175
     0
176
     0
177
     0
178
     0
  0
ENDTAB
  0
ENDSEC
  0
SECTION
  2
BLOCKS
  0
BLOCK
  8
0
  2
$MODEL_SPACE
 70
     0
 10
0.0
 20
0.0
 30
0.0
  3
$MODEL_SPACE
  1

  0
ENDBLK
  5
21
  8
0
  0
BLOCK
 67
     1
  8
0
  2
$PAPER_SPACE
 70
     0
 10
0.0
 20
0.0
 30
0.0
  3
$PAPER_SPACE
  1

  0
ENDBLK
  5
1D
 67
     1
  8
0
  0
ENDSEC
  0
SECTION
  2
ENTITIES
  0
ATTDEF
  5
211C4
  8
DEFPOINTS
 10
4665.6224140930908106
 20
317.1760939635980776
 30
0.0
 40
0.001
  1
P22076-H
  3

  2
MODELNUMBER
 70
     0
1001
ACDBATTR
1070
     0
1070
     1
  0
ATTDEF
  5
211C5
  8
DEFPOINTS
 10
4665.6224140930908106
 20
317.1744271232188908
 30
0.0
 40
0.001
  1
TURNSPRAY
  3

  2
TRADENAME
 70
     0
1001
ACDBATTR
1070
     0
1070
     1
  0
ATTDEF
  5
211C6
  8
DEFPOINTS
 10
4665.6224140930908106
 20
317.1727606302646905
 30
0.0
 40
0.001
  1
BODY SPRAY
  3

  2
PRODUCT
 70
     0
1001
ACDBATTR
1070
     0
1070
     1
  0
LINE
  5
22C11
  8
0
 10
4665.6217196229463298
 20
318.2383902569447969
 30
0.0
 11
4665.6217196229463298
 21
316.1133902568448093
 31
0.0
  0
LINE
  5
22C12
  8
0
 10
4664.8947196229455585
 20
318.1092367829652972
 30
0.0
 11
4664.8947196229455585
 21
316.2425437308241953
 31
0.0
  0
LINE
  5
22C13
  8
0
 10
4665.1381937154474144
 20
317.8108902569447878
 30
0.0
 11
4665.1381937154474144
 21
316.5405697606947228
 31
0.0
  0
LINE
  5
22C14
  8
0
 10
4665.3072036956036754
 20
317.7828902569448246
 30
0.0
 11
4665.1381937154474144
 21
317.7828902569448246
 31
0.0
  0
ARC
  5
22C15
  8
0
 10
4664.1207196228451721
 20
318.3365086514025961
 30
0.0
 40
0.0599999997402789
 50
239.1425935768820921
 51
272.0000001066861159
  0
ARC
  5
22C16
  8
0
 10
4665.2479431086549084
 20
294.0130656979586092
 30
0.0
 40
24.2895523646026987
 50
91.305229646365035
 51
92.6549788834397958
  0
ARC
  5
22C17
  8
0
 10
4664.7072196229455585
 20
318.1092367829652972
 30
0.0
 40
0.1875
 50
0.0
 51
93.8403586068194215
  0
LINE
  5
22C18
  8
0
 10
4665.4889184998455676
 20
318.1298871883448101
 30
0.0
 11
4665.4889184998455676
 21
316.2218933255480238
 31
0.0
  0
ARC
  5
22C19
  8
0
 10
4664.6407196235386436
 20
317.1758902583443955
 30
0.0
 40
0.812499998484964
 50
52.7723665319768287
 51
71.7783440973684179
  0
ARC
  5
22C1A
  8
0
 10
4665.1231937154461775
 20
317.8108902569447878
 30
0.0
 40
0.015
 50
0.0000000000325689
 51
52.7723678584151799
  0
LINE
  5
22C1B
  8
0
 10
4663.7255842669401318
 20
318.0236485187402877
 30
0.0
 11
4663.7146274768128933
 21
317.9517847493222007
 31
0.0
  0
ARC
  5
22C1C
  8
0
 10
4663.7465877366821587
 20
318.0192747138082154
 30
0.0
 40
0.0214540418285186
 50
123.5859839529469042
 51
168.2367254850431095
  0
ARC
  5
22C1D
  8
0
 10
4663.7350958254037323
 20
317.9487852067824178
 30
0.0
 40
0.0206869656912428
 50
171.6629097189139941
 51
242.907856577800203
  0
LINE
  5
22C1E
  8
0
 10
4663.734719622945704
 20
317.2357662743149831
 30
0.0
 11
4663.710234746846254
 21
317.2323017318448137
 31
0.0
  0
LINE
  5
22C1F
  8
0
 10
4663.6910898197493225
 20
317.2323088793953048
 30
0.0
 11
4663.7175879115002317
 21
317.2360481902057927
 31
0.0
  0
ARC
  5
22C20
  8
0
 10
4663.9374390270941149
 20
317.176392501395128
 30
0.0
 40
0.2667443580167649
 50
171.5914951942502
 51
180.1078804716605077
  0
ARC
  5
22C21
  8
0
 10
4663.6937427726879832
 20
317.2120199705801724
 30
0.0
 40
0.020461622130253
 50
97.4496602797375857
 51
170.4960756422157999
  0
ARC
  5
22C22
  8
0
 10
4663.7572417865158059
 20
317.1779164327249987
 30
0.0
 40
0.084850839688582
 50
169.1499826489661018
 51
181.3683112601129892
  0
ARC
  5
22C23
  8
0
 10
4663.5749042067736809
 20
317.1772358039219739
 30
0.0
 40
0.1003943658534913
 50
359.232063737823978
 51
9.5480277785346761
  0
ARC
  5
22C24
  8
0
 10
4663.7597809670887727
 20
317.1766942056324865
 30
0.0
 40
0.0687680631250425
 50
165.5215591352437059
 51
180.6698447298828967
  0
ARC
  5
22C25
  8
0
 10
4663.6207045069768355
 20
317.1757515655169186
 30
0.0
 40
0.074726470626077
 50
0.1063402982183817
 51
14.0456517426189293
  0
ARC
  5
22C26
  8
0
 10
4663.7707363831586918
 20
317.1766659549969063
 30
0.0
 40
0.0534232032323199
 50
161.196620412714708
 51
180.8319566509869105
  0
ARC
  5
22C27
  8
0
 10
4663.6727602272103468
 20
317.1763129630634808
 30
0.0
 40
0.0505563325051472
 50
359.5209391101897154
 51
20.339453717937019
  0
ARC
  5
22C28
  8
0
 10
4663.9435018760286766
 20
317.1741589588369834
 30
0.0
 40
0.2545415947763979
 50
170.7059461713886037
 51
179.6102922212141095
  0
ARC
  5
22C29
  8
0
 10
4663.7137119058297685
 20
317.2106843647184178
 30
0.0
 40
0.0218952322681451
 50
99.1377705532324853
 51
167.9166674462109938
  0
ARC
  5
22C2A
  8
0
 10
4663.8761358047759131
 20
317.1765961277403107
 30
0.0
 40
0.1620254602194675
 50
165.8775036839593042
 51
180.2496123029291084
  0
ARC
  5
22C2B
  8
0
 10
4663.7406922494974424
 20
317.210077645727722
 30
0.0
 40
0.0225135849114675
 50
105.3841790426017013
 51
164.4061713727676022
  0
ARC
  5
22C2C
  8
0
 10
4663.7639276027412052
 20
317.2375997665022851
 30
0.0
 40
0.0553322106267802
 50
156.0149174681569946
 51
182.9114761691321007
  0
ARC
  5
22C2D
  8
0
 10
4663.6023010406688627
 20
317.2282310952177795
 30
0.0
 40
0.1155515883057893
 50
2.5457218082621091
 51
16.0055777867524505
  0
ARC
  5
22C2E
  8
0
 10
4663.8023163442303485
 20
317.2313432173260139
 30
0.0
 40
0.0768443292760741
 50
159.7369028399037916
 51
177.6704262847659948
  0
ARC
  5
22C2F
  8
0
 10
4663.7323957877270004
 20
317.257156432359011
 30
0.0
 40
0.0023110729932663
 50
42.3400798562534817
 51
159.7369028399160129
  0
ARC
  5
22C30
  8
0
 10
4663.6608301397236573
 20
317.2313310833810078
 30
0.0
 40
0.078222978755133
 50
19.1608723793719093
 51
20.4903512045178111
  0
LINE
  5
22C31
  8
0
 10
4663.6971399351032233
 20
317.233162648865175
 30
0.0
 11
4663.6991645972693732
 21
317.3350832784381055
 31
0.0
  0
LINE
  5
22C32
  8
0
 10
4663.6938324166676466
 20
317.4995328125735909
 30
0.0
 11
4663.7230334335172302
 21
317.5022702740599811
 31
0.0
  0
LINE
  5
22C33
  8
0
 10
4663.7066137103856818
 20
317.5174382153110741
 30
0.0
 11
4663.733281828210238
 21
317.5114372480728093
 31
0.0
  0
LINE
  5
22C34
  8
0
 10
4663.7143889532462708
 20
317.6298357605447791
 30
0.0
 11
4663.734719622945704
 21
317.6312041696334063
 31
0.0
  0
LINE
  5
22C35
  8
0
 10
4663.6953073483473418
 20
317.6416643882448057
 30
0.0
 11
4663.7184986764195855
 21
317.6434617308415795
 31
0.0
  0
LINE
  5
22C36
  8
0
 10
4663.729718059957122
 20
317.6483456582074041
 30
0.0
 11
4663.734719622945704
 21
317.6471218865517017
 31
0.0
  0
LINE
  5
22C37
  8
0
 10
4663.7047878931116429
 20
317.6555323897471226
 30
0.0
 11
4663.7254316192047554
 21
317.6505244005732038
 31
0.0
  0
LINE
  5
22C38
  8
0
 10
4663.7158394889456758
 20
317.7678263163447809
 30
0.0
 11
4663.734719622945704
 21
317.768614165365193
 31
0.0
  0
LINE
  5
22C39
  8
0
 10
4663.7298928161708318
 20
317.8314069723102193
 30
0.0
 11
4663.734719622945704
 21
317.8300670597888029
 31
0.0
  0
ARC
  5
22C3A
  8
0
 10
4663.7451140114771988
 20
317.9222077899078727
 30
0.0
 40
0.0210864664291504
 50
119.5340835809718953
 51
157.1537415074162141
  0
ARC
  5
22C3B
  8
0
 10
4664.0345722953788936
 20
317.8462858087650034
 30
0.0
 40
0.3201369650622325
 50
164.7679946143892096
 51
178.6371094757759863
  0
ARC
  5
22C3C
  8
0
 10
4663.7361428428630461
 20
317.8521726613934106
 30
0.0
 40
0.0216858635085096
 50
175.4309560075558068
 51
253.2493347976935922
  0
ARC
  5
22C3D
  8
0
 10
4663.7096580177003489
 20
317.7488119342440882
 30
0.0
 40
0.0207082080751357
 50
173.2303565202477103
 51
221.048526217390787
  0
ARC
  5
22C3E
  8
0
 10
4652.5558376003446028
 20
319.0728313165877239
 30
0.0
 40
11.2114214754449897
 50
353.2303565202478239
 51
353.5989779801440136
  0
ARC
  5
22C3F
  8
0
 10
4663.7178961907884513
 20
317.820604230373192
 30
0.0
 40
0.0206586814939952
 50
91.1749380650578871
 51
173.5989779801440136
  0
ARC
  5
22C40
  8
0
 10
4663.7095983198678368
 20
317.6752267813524213
 30
0.0
 40
0.0202733634673087
 50
174.38766343333441
 51
256.2740482550199204
  0
ARC
  5
22C41
  8
0
 10
4664.0256693319443002
 20
317.6796203201963067
 30
0.0
 40
0.3362558351718598
 50
167.9533744774601018
 51
180.4107983535606934
  0
ARC
  5
22C42
  8
0
 10
4663.7168751921562944
 20
317.7476850883688826
 30
0.0
 40
0.0201678393863387
 50
92.9436736214630059
 51
173.9820900066762874
  0
ARC
  5
22C43
  8
0
 10
4663.6981438842776697
 20
317.5642921225244777
 30
0.0
 40
0.0368011017367238
 50
252.2490324561520083
 51
260.8708404463238253
  0
ARC
  5
22C44
  8
0
 10
4663.6939019619248938
 20
317.5510411315390229
 30
0.0
 40
0.0228877028943151
 50
184.5118429265345128
 51
252.2490324561520083
  0
ARC
  5
22C45
  8
0
 10
4665.404085135409332
 20
317.4481368067155813
 30
0.0
 40
1.7359466626939859
 50
174.0724596480843047
 51
176.6611275910057941
  0
ARC
  5
22C46
  8
0
 10
4663.6955961963549271
 20
317.6229519732722224
 30
0.0
 40
0.0187146441931872
 50
90.8843571274630762
 51
166.2217443125551029
  0
ARC
  5
22C47
  8
0
 10
4663.6991418684710879
 20
317.5026285127091228
 30
0.0
 40
0.0281011687960505
 50
176.775627098298088
 51
216.2964648034406139
  0
ARC
  5
22C48
  8
0
 10
4662.1612303335714387
 20
317.5892673850106007
 30
0.0
 40
1.512248850964141
 50
356.7756270982981164
 51
358.2201839095782248
  0
ARC
  5
22C49
  8
0
 10
4663.6957904231257999
 20
317.4791529157337777
 30
0.0
 40
0.0204737388986938
 50
95.487870279265465
 51
160.4808275338220938
  0
ARC
  5
22C4A
  8
0
 10
4663.6922612814350941
 20
317.4069201574745875
 30
0.0
 40
0.0204886855327613
 50
177.0059619182248127
 51
260.9687711487686101
  0
ARC
  5
22C4B
  8
0
 10
4664.0191009297550409
 20
317.426239235682317
 30
0.0
 40
0.3477794807407593
 50
170.1065223831926971
 51
183.0078429701985954
  0
ARC
  5
22C4C
  8
0
 10
4663.6941387557390044
 20
317.283751899231504
 30
0.0
 40
0.0225020061845389
 50
175.1428659933372955
 51
258.3126715984341786
  0
ARC
  5
22C4D
  8
0
 10
4664.0511334604143485
 20
317.3075178679300166
 30
0.0
 40
0.3800451529817294
 50
172.6337925762113912
 51
183.2975477498673058
  0
ARC
  5
22C4E
  8
0
 10
4663.6955997074928746
 20
317.3532502667865174
 30
0.0
 40
0.0215834614504557
 50
107.8002806686280053
 51
172.0278328142750013
  0
LINE
  5
22C4F
  8
0
 10
4663.6895804928462894
 20
317.261715844344792
 30
0.0
 11
4663.6976801853688812
 21
317.2603586167526259
 31
0.0
  0
LINE
  5
22C50
  8
0
 10
4663.7080731233509141
 20
317.3311194369074997
 30
0.0
 11
4663.734719622945704
 21
317.3262893582306106
 31
0.0
  0
LINE
  5
22C51
  8
0
 10
4663.7344037998964268
 20
317.4005214764130187
 30
0.0
 11
4663.734719622945704
 21
317.4004593717087914
 31
0.0
  0
ARC
  5
22C52
  8
0
 10
4663.7433498168220467
 20
317.4893777359387173
 30
0.0
 40
0.024061857156405
 50
111.018353855655306
 51
170.8942484381844906
  0
ARC
  5
22C53
  8
0
 10
4663.9245446893492044
 20
317.4477357287192945
 30
0.0
 40
0.2099324581763784
 50
167.4965702072771023
 51
187.6772042785293024
  0
ARC
  5
22C54
  8
0
 10
4663.7373800196792217
 20
317.4212533765409034
 30
0.0
 40
0.0209444400048712
 50
184.2795260476192141
 51
261.8305764792550008
  0
ARC
  5
22C55
  8
0
 10
4663.7162384746943644
 20
317.6083060214699003
 30
0.0
 40
0.0216090350135747
 50
94.9099640418935309
 51
169.8902964374181863
  0
ARC
  5
22C56
  8
0
 10
4664.0221488059132753
 20
317.5537673647979204
 30
0.0
 40
0.3323429981010892
 50
169.8912684204470906
 51
182.6006253124498073
  0
ARC
  5
22C57
  8
0
 10
4663.7100436916707622
 20
317.5371001144179104
 30
0.0
 40
0.0199588338360088
 50
175.4377885264497081
 51
260.1044383040019738
  0
ARC
  5
22C58
  8
0
 10
4663.7452519123125967
 20
317.7370853769609198
 30
0.0
 40
0.0235844546231005
 50
116.5243180223185959
 51
164.827486617580405
  0
ARC
  5
22C59
  8
0
 10
4663.9225884407833291
 20
317.6860586042245131
 30
0.0
 40
0.2081137621710644
 50
164.0471036527385991
 51
185.2034871896873085
  0
ARC
  5
22C5A
  8
0
 10
4663.7374446958892804
 20
317.669197841716084
 30
0.0
 40
0.0222038603738093
 50
185.2034871896904917
 51
249.4494300805955902
  0
ARC
  5
22C5B
  8
0
 10
4662.9660633225676065
 20
317.6240204962064126
 30
0.0
 40
0.7754348606805137
 50
351.6354343323699254
 51
352.4185795969411856
  0
ARC
  5
22C5C
  8
0
 10
4663.7966159350298767
 20
317.6980399863210209
 30
0.0
 40
0.0788514802559222
 50
161.1459175104596113
 51
187.5331069073492074
  0
ARC
  5
22C5D
  8
0
 10
4663.6434670314074538
 20
317.7132196199682994
 30
0.0
 40
0.0792010889064098
 50
341.2052010517923009
 51
7.4738233660113851
  0
ARC
  5
22C5E
  8
0
 10
4663.8440347170271707
 20
317.6980919641036962
 30
0.0
 40
0.1525981967628574
 50
167.4676863609973054
 51
180.9922407923095022
  0
ARC
  5
22C5F
  8
0
 10
4663.5328520063540054
 20
317.7295363437501123
 30
0.0
 40
0.1622289259718816
 50
347.8708389026332952
 51
0.5890882506770254
  0
ARC
  5
22C60
  8
0
 10
4663.7899317534611328
 20
317.5673833247461175
 30
0.0
 40
0.0985669848436149
 50
165.1209107703508039
 51
186.1258712001252036
  0
ARC
  5
22C61
  8
0
 10
4663.5904052324049189
 20
317.5822692256717801
 30
0.0
 40
0.1046526097118708
 50
345.951172891566614
 51
5.7572535472206843
  0
ARC
  5
22C62
  8
0
 10
4663.6001388289741953
 20
317.4476282006555721
 30
0.0
 40
0.0760266808437398
 50
343.5066798426245782
 51
10.89493951171616
  0
ARC
  5
22C63
  8
0
 10
4663.8289073408413969
 20
317.436435072854124
 30
0.0
 40
0.1562178711789486
 50
170.582004789880898
 51
183.8138529586848051
  0
ARC
  5
22C64
  8
0
 10
4663.7787909749076789
 20
317.4540598785504244
 30
0.0
 40
0.0612378860589321
 50
159.4309642783167931
 51
193.4850791351433088
  0
ARC
  5
22C65
  8
0
 10
4663.6550478151912102
 20
317.4617193392646755
 30
0.0
 40
0.0678392336674458
 50
341.1309344620178763
 51
11.7851089514470502
  0
ARC
  5
22C66
  8
0
 10
4663.7777998860374282
 20
317.3849803958007101
 30
0.0
 40
0.0865275363245804
 50
165.8459761666433963
 51
189.8561800389215932
  0
ARC
  5
22C67
  8
0
 10
4663.6097314388607629
 20
317.3912868884141858
 30
0.0
 40
0.0854680563878688
 50
345.6948991309673147
 51
10.0072570745955094
  0
ARC
  5
22C68
  8
0
 10
4663.7121838035245673
 20
317.3523977642062732
 30
0.0
 40
0.0216717536005962
 50
186.7817366552272063
 51
259.0659386419333146
  0
ARC
  5
22C69
  8
0
 10
4663.9430883430859467
 20
317.3793858090214144
 30
0.0
 40
0.2541480799202449
 50
170.4654021698125916
 51
186.6762941593545122
  0
ARC
  5
22C6A
  8
0
 10
4663.7262209862292366
 20
317.4158115936510853
 30
0.0
 40
0.0342428997723656
 50
138.4454359243619024
 51
170.4654021698125916
  0
ARC
  5
22C6B
  8
0
 10
4663.7145473126556681
 20
317.4233745528836721
 30
0.0
 40
0.0205961486963175
 50
95.8761546958033932
 51
132.6381217378111046
  0
LINE
  5
22C6C
  8
0
 10
4663.7124387388466857
 20
317.443863287444799
 30
0.0
 11
4663.7146439241951157
 21
317.4440880193506018
 31
0.0
  0
ARC
  5
22C6D
  8
0
 10
4663.7731620862568889
 20
317.3243925774564786
 30
0.0
 40
0.0496440206617332
 50
175.5420028377224071
 51
206.3190150536354963
  0
ARC
  5
22C6E
  8
0
 10
4663.6794173514526847
 20
317.3307887457654033
 30
0.0
 40
0.0568524106520647
 50
330.0226113702040038
 51
346.5896444596937727
  0
LINE
  5
22C6F
  8
0
 10
4663.7190057555189924
 20
317.6520832594550257
 30
0.0
 11
4663.7176425233856207
 21
317.6300547506231169
 31
0.0
  0
ARC
  5
22C70
  8
0
 10
4663.8393178482210715
 20
317.8739286583563057
 30
0.0
 40
0.1214719234943767
 50
163.9909998202878967
 51
181.0334912245270971
  0
ARC
  5
22C71
  8
0
 10
4663.6032938295866188
 20
317.904950492867215
 30
0.0
 40
0.1192887277370032
 50
343.8338532896178776
 51
1.1906377551846421
  0
LINE
  5
22C72
  8
0
 10
4663.7255842669401318
 20
316.328131995149306
 30
0.0
 11
4663.7146274768128933
 21
316.3999957645673931
 31
0.0
  0
ARC
  5
22C73
  8
0
 10
4663.7465877366821587
 20
316.3325058000812078
 30
0.0
 40
0.0214540418283103
 50
191.7632745147548974
 51
236.4140160472952061
  0
ARC
  5
22C74
  8
0
 10
4663.7350958254037323
 20
316.4029953071071759
 30
0.0
 40
0.0206869656912428
 50
117.092143422199797
 51
188.3370902810860059
  0
LINE
  5
22C75
  8
0
 10
4663.734719622945704
 20
317.116014239574497
 30
0.0
 11
4663.710234746846254
 21
317.11947878204478
 31
0.0
  0
LINE
  5
22C76
  8
0
 10
4663.6910898197493225
 20
317.1194716344944027
 30
0.0
 11
4663.7175879115002317
 21
317.1157323236836874
 31
0.0
  0
ARC
  5
22C77
  8
0
 10
4663.9374390270941149
 20
317.1753880124945226
 30
0.0
 40
0.2667443580167491
 50
179.8921195283394923
 51
188.4085048057498
  0
ARC
  5
22C78
  8
0
 10
4663.6937427726879832
 20
317.1397605433094213
 30
0.0
 40
0.020461622130253
 50
189.5039243577809884
 51
262.5503397202625138
  0
ARC
  5
22C79
  8
0
 10
4663.7572417865158059
 20
317.1738640811644814
 30
0.0
 40
0.0848508396885818
 50
178.6316887398870108
 51
190.8500173510306013
  0
ARC
  5
22C7A
  8
0
 10
4663.5749042067736809
 20
317.1745447099675062
 30
0.0
 40
0.1003943658534913
 50
350.4519722214653257
 51
0.7679362621760003
  0
ARC
  5
22C7B
  8
0
 10
4663.7597809669578055
 20
317.1750863082322098
 30
0.0
 40
0.068768062991097
 50
179.3301554147097079
 51
194.4784408721340867
  0
ARC
  5
22C7C
  8
0
 10
4663.6207045069659216
 20
317.1760289483750057
 30
0.0
 40
0.0747264706386441
 50
345.9543482579720148
 51
359.8936596233555747
  0
ARC
  5
22C7D
  8
0
 10
4663.770736383111398
 20
317.1751145588808072
 30
0.0
 40
0.0534232031827794
 50
179.1680434426941986
 51
198.8033795918574924
  0
ARC
  5
22C7E
  8
0
 10
4663.6727602272339936
 20
317.1754675508195191
 30
0.0
 40
0.0505563324797853
 50
339.6605462794615846
 51
0.4790607842606029
  0
ARC
  5
22C7F
  8
0
 10
4663.9435018760286766
 20
317.1776215550526103
 30
0.0
 40
0.2545415947763979
 50
180.3897077787858052
 51
189.294053828611311
  0
ARC
  5
22C80
  8
0
 10
4663.7137119058297685
 20
317.141096149171176
 30
0.0
 40
0.0218952322681489
 50
192.083332553798499
 51
260.8622294467675147
  0
ARC
  5
22C81
  8
0
 10
4663.8761358047477188
 20
317.1751843861442808
 30
0.0
 40
0.1620254601917377
 50
179.7503877305910862
 51
194.1224963166567932
  0
ARC
  5
22C82
  8
0
 10
4663.7406922494974424
 20
317.1417028681618717
 30
0.0
 40
0.0225135849114675
 50
195.5938286272323978
 51
254.6158209573983129
  0
ARC
  5
22C83
  8
0
 10
4663.7639276027412052
 20
317.1141807473873087
 30
0.0
 40
0.0553322106267802
 50
177.0885238308678993
 51
203.9850825318430054
  0
ARC
  5
22C84
  8
0
 10
4663.6023010406688627
 20
317.1235494186718142
 30
0.0
 40
0.1155515883057893
 50
343.994422213247617
 51
357.4542781917378989
  0
ARC
  5
22C85
  8
0
 10
4663.8023163442303485
 20
317.1204372965635798
 30
0.0
 40
0.0768443292760741
 50
182.3295737152340052
 51
200.2630971600962084
  0
ARC
  5
22C86
  8
0
 10
4663.7327402355140293
 20
317.0950289824307902
 30
0.0
 40
0.0027866409481614
 50
205.6280564106982922
 51
315.2603916890358846
  0
LINE
  5
22C87
  8
0
 10
4663.6971399351032233
 20
317.1186178650244187
 30
0.0
 11
4663.6991643860810655
 21
317.0167078665248255
 31
0.0
  0
LINE
  5
22C88
  8
0
 10
4663.6938324166676466
 20
316.8522477013160028
 30
0.0
 11
4663.7230334335172302
 21
316.8495102398296126
 31
0.0
  0
LINE
  5
22C89
  8
0
 10
4663.7066137103856818
 20
316.8343422985785196
 30
0.0
 11
4663.733281828210238
 21
316.8403432658167844
 31
0.0
  0
LINE
  5
22C8A
  8
0
 10
4663.7143889532462708
 20
316.7219447533448147
 30
0.0
 11
4663.734719622945704
 21
316.7205763442561874
 31
0.0
  0
LINE
  5
22C8B
  8
0
 10
4663.6953073483473418
 20
316.7101161256447881
 30
0.0
 11
4663.7184986764195855
 21
316.7083187830479005
 31
0.0
  0
LINE
  5
22C8C
  8
0
 10
4663.729718059957122
 20
316.7034348556823034
 30
0.0
 11
4663.734719622945704
 21
316.7046586273378921
 31
0.0
  0
LINE
  5
22C8D
  8
0
 10
4663.7047878931116429
 20
316.696248124142528
 30
0.0
 11
4663.7253809776793787
 21
316.7012438281207096
 31
0.0
  0
LINE
  5
22C8E
  8
0
 10
4663.7158394889456758
 20
316.5839541975448128
 30
0.0
 11
4663.734719622945704
 21
316.5831663485244007
 31
0.0
  0
LINE
  5
22C8F
  8
0
 10
4663.7298928161708318
 20
316.5203735415793744
 30
0.0
 11
4663.734719622945704
 21
316.5217134541007908
 31
0.0
  0
ARC
  5
22C90
  8
0
 10
4663.7451140114771988
 20
316.4295727239817211
 30
0.0
 40
0.0210864664291504
 50
202.8462584925837007
 51
240.465916419026513
  0
ARC
  5
22C91
  8
0
 10
4664.0345722953788936
 20
316.5054947051245904
 30
0.0
 40
0.3201369650622325
 50
181.3628905242239
 51
195.2320053856107904
  0
ARC
  5
22C92
  8
0
 10
4663.7361428428630461
 20
316.4996078524961263
 30
0.0
 40
0.0216858635085096
 50
106.7506652023063936
 51
184.569043992444108
  0
ARC
  5
22C93
  8
0
 10
4663.7096580177003489
 20
316.6029685796455055
 30
0.0
 40
0.0207082080751357
 50
138.951473782609213
 51
186.7696434797522045
  0
ARC
  5
22C94
  8
0
 10
4652.5558376003446028
 20
315.278949197301813
 30
0.0
 40
11.2114214754449897
 50
6.4010220198560104
 51
6.7696434797522329
  0
ARC
  5
22C95
  8
0
 10
4663.7178961907884513
 20
316.5311762835162881
 30
0.0
 40
0.0206586814939952
 50
186.4010220198559864
 51
268.6361322383507968
  0
ARC
  5
22C96
  8
0
 10
4663.7095983198678368
 20
316.6765537325371724
 30
0.0
 40
0.0202733634673045
 50
103.7259517449800938
 51
185.6123365666753102
  0
ARC
  5
22C97
  8
0
 10
4664.0256693319443002
 20
316.6721601936932871
 30
0.0
 40
0.3362558351718598
 50
179.5892016464391929
 51
192.0466255225398129
  0
ARC
  5
22C98
  8
0
 10
4663.7168751921562944
 20
316.6040954255207112
 30
0.0
 40
0.0201678393863387
 50
186.0179099933237126
 51
267.0563263785369941
  0
ARC
  5
22C99
  8
0
 10
4663.6981438842776697
 20
316.7874883913651161
 30
0.0
 40
0.0368011017367238
 50
99.1340301788755482
 51
107.7509675438480059
  0
ARC
  5
22C9A
  8
0
 10
4663.6939019619248938
 20
316.8007393823506277
 30
0.0
 40
0.0228877028943151
 50
107.7509675438480059
 51
175.4881570734621903
  0
ARC
  5
22C9B
  8
0
 10
4665.404085135409332
 20
316.9036437071738987
 30
0.0
 40
1.7359466626939859
 50
183.3388724089940922
 51
185.9275403519156953
  0
ARC
  5
22C9C
  8
0
 10
4663.6955961963549271
 20
316.7288285406174282
 30
0.0
 40
0.0187146441931872
 50
193.7782556874448119
 51
269.1156428725369096
  0
ARC
  5
22C9D
  8
0
 10
4663.6991418684710879
 20
316.8491520011805846
 30
0.0
 40
0.0281011687960505
 50
143.7035351965593861
 51
183.224372901701912
  0
ARC
  5
22C9E
  8
0
 10
4662.1612303335714387
 20
316.7625131288791067
 30
0.0
 40
1.512248850964141
 50
1.7798160904217499
 51
3.2243729017019191
  0
ARC
  5
22C9F
  8
0
 10
4663.6957904231257999
 20
316.8726275981557023
 30
0.0
 40
0.0204737388986983
 50
199.5191724661870865
 51
264.5121297207344924
  0
ARC
  5
22CA0
  8
0
 10
4663.6922612814350941
 20
316.9448603564150062
 30
0.0
 40
0.0204886855327613
 50
99.0312288512313756
 51
182.9940380817751873
  0
ARC
  5
22CA1
  8
0
 10
4664.0191009297550409
 20
316.9255412782072767
 30
0.0
 40
0.3477794807407593
 50
176.9921570298014046
 51
189.8934776168071892
  0
ARC
  5
22CA2
  8
0
 10
4663.6941398980716258
 20
317.0680282884948724
 30
0.0
 40
0.0225031168015155
 50
101.6897530802478968
 51
184.856060267259295
  0
ARC
  5
22CA3
  8
0
 10
4664.0511334604143485
 20
317.0442626459596909
 30
0.0
 40
0.3800451529817294
 50
176.7024522501326942
 51
187.3662074237886088
  0
ARC
  5
22CA4
  8
0
 10
4663.6955997074928746
 20
316.9985302471030764
 30
0.0
 40
0.0215834614504557
 50
187.9721671857249135
 51
252.1997193313719947
  0
LINE
  5
22CA5
  8
0
 10
4663.6895804928462894
 20
317.0900646695448017
 30
0.0
 11
4663.6975074032461634
 21
317.091392944844813
 31
0.0
  0
LINE
  5
22CA6
  8
0
 10
4663.7080731233509141
 20
317.0206610769820941
 30
0.0
 11
4663.734719622945704
 21
317.0254911556590969
 31
0.0
  0
LINE
  5
22CA7
  8
0
 10
4663.7344037998964268
 20
316.951259037476575
 30
0.0
 11
4663.734719622945704
 21
316.9513211421806886
 31
0.0
  0
ARC
  5
22CA8
  8
0
 10
4663.7433498168220467
 20
316.8624027779508765
 30
0.0
 40
0.024061857156405
 50
189.1057515618153957
 51
248.9816461443446087
  0
ARC
  5
22CA9
  8
0
 10
4663.9245446893492044
 20
316.9040447851702993
 30
0.0
 40
0.2099324581763784
 50
172.3227957214706123
 51
192.5034297927228124
  0
ARC
  5
22CAA
  8
0
 10
4663.7373800196792217
 20
316.9305271373485766
 30
0.0
 40
0.0209444400048712
 50
98.1694235207450703
 51
175.7204739523807007
  0
ARC
  5
22CAB
  8
0
 10
4663.7162384746943644
 20
316.7434744924196934
 30
0.0
 40
0.0216090350135715
 50
190.1097035625784883
 51
265.0900359581585803
  0
ARC
  5
22CAC
  8
0
 10
4664.0221488059132753
 20
316.7980131490916733
 30
0.0
 40
0.3323429981010892
 50
177.3993746875501927
 51
190.1087315795527957
  0
ARC
  5
22CAD
  8
0
 10
4663.7100436916707622
 20
316.814680399471797
 30
0.0
 40
0.0199588338360088
 50
99.8955616959979409
 51
184.5622114735502919
  0
ARC
  5
22CAE
  8
0
 10
4663.7452519123125967
 20
316.6146951369286739
 30
0.0
 40
0.0235844546231005
 50
195.1725133824195098
 51
243.4756819776814041
  0
ARC
  5
22CAF
  8
0
 10
4663.9225884407833291
 20
316.6657219096650806
 30
0.0
 40
0.2081137621710644
 50
174.7965128103093946
 51
195.9528963472612872
  0
ARC
  5
22CB0
  8
0
 10
4663.7375512315966262
 20
316.6825412106477984
 30
0.0
 40
0.0223137397306666
 50
110.5513683666929978
 51
174.7152989222294082
  0
ARC
  5
22CB1
  8
0
 10
4662.9660633225676065
 20
316.7277600176831811
 30
0.0
 40
0.7754348606805137
 50
7.5814204030587593
 51
8.3645656676301012
  0
ARC
  5
22CB2
  8
0
 10
4663.7966159350298767
 20
316.6537405275685728
 30
0.0
 40
0.0788514802559222
 50
172.4668930926474957
 51
198.8540824895403034
  0
ARC
  5
22CB3
  8
0
 10
4663.6434670314074538
 20
316.6385608939211807
 30
0.0
 40
0.0792010889064098
 50
352.526176633988598
 51
18.7947989482077311
  0
ARC
  5
22CB4
  8
0
 10
4663.8440347170271707
 20
316.6536885497858975
 30
0.0
 40
0.1525981967628574
 50
179.0077592076904125
 51
192.5323136390026946
  0
ARC
  5
22CB5
  8
0
 10
4663.5328520063540054
 20
316.6222441701394814
 30
0.0
 40
0.1622289259718816
 50
359.4109117493230201
 51
12.1291610973666799
  0
ARC
  5
22CB6
  8
0
 10
4663.7899317534611328
 20
316.7843971891434762
 30
0.0
 40
0.0985669848436149
 50
173.8741287998747111
 51
194.8790892296491961
  0
ARC
  5
22CB7
  8
0
 10
4663.5904052324049189
 20
316.7695112882177
 30
0.0
 40
0.1046526097118708
 50
354.242746452776089
 51
14.0488271084334801
  0
ARC
  5
22CB8
  8
0
 10
4663.6001388289741953
 20
316.9041523132340217
 30
0.0
 40
0.0760266808437398
 50
349.1050604882838115
 51
16.4933201573754289
  0
ARC
  5
22CB9
  8
0
 10
4663.8289073408413969
 20
316.9153454410355266
 30
0.0
 40
0.1562178711789486
 50
176.1861470413151949
 51
189.417995210119102
  0
ARC
  5
22CBA
  8
0
 10
4663.7787909749076789
 20
316.8977206353392262
 30
0.0
 40
0.0612378860589321
 50
166.5149208648566059
 51
200.5690357216832069
  0
ARC
  5
22CBB
  8
0
 10
4663.6550478151912102
 20
316.8900611746249183
 30
0.0
 40
0.0678392336674458
 50
348.2148910485529996
 51
18.8690655379820917
  0
ARC
  5
22CBC
  8
0
 10
4663.7777998860374282
 20
316.9668001180888837
 30
0.0
 40
0.0865275363245804
 50
170.1438199610782931
 51
194.1540238333566037
  0
ARC
  5
22CBD
  8
0
 10
4663.6097314388607629
 20
316.9604936254752943
 30
0.0
 40
0.0854680563878688
 50
349.9927429254045137
 51
14.3051008690327297
  0
ARC
  5
22CBE
  8
0
 10
4663.7121838035245673
 20
316.9993827496833205
 30
0.0
 40
0.021671753600598
 50
100.9340613580666997
 51
173.2182633447663136
  0
ARC
  5
22CBF
  8
0
 10
4663.9430883430859467
 20
316.9723947048681794
 30
0.0
 40
0.2541480799202449
 50
173.3237058406421909
 51
189.5345978301874084
  0
ARC
  5
22CC0
  8
0
 10
4663.7262209862292366
 20
316.9359689202383947
 30
0.0
 40
0.0342428997723656
 50
189.5345978301874084
 51
221.5545640756380976
  0
ARC
  5
22CC1
  8
0
 10
4663.7145473126556681
 20
316.9284059610059217
 30
0.0
 40
0.0205961486963175
 50
227.3618782621888954
 51
264.1238453041966068
  0
LINE
  5
22CC2
  8
0
 10
4663.7124387388466857
 20
316.9079172264447948
 30
0.0
 11
4663.7146439241951157
 21
316.9076924945389919
 31
0.0
  0
ARC
  5
22CC3
  8
0
 10
4663.7731620862568889
 20
317.0273879364331151
 30
0.0
 40
0.0496440206617332
 50
153.6809849463645037
 51
184.4579971622775076
  0
ARC
  5
22CC4
  8
0
 10
4663.6794173514526847
 20
317.0209917681241905
 30
0.0
 40
0.0568524106520647
 50
13.4103555403062291
 51
29.9773886297959713
  0
LINE
  5
22CC5
  8
0
 10
4663.7190057555189924
 20
316.6996972544346249
 30
0.0
 11
4663.7176436034460494
 21
316.7217083105447841
 31
0.0
  0
ARC
  5
22CC6
  8
0
 10
4663.8393178482210715
 20
316.477851855533288
 30
0.0
 40
0.1214719234943767
 50
178.966508775469606
 51
196.0090001797121033
  0
ARC
  5
22CC7
  8
0
 10
4663.6032938295866188
 20
316.4468300210223788
 30
0.0
 40
0.1192887277370032
 50
358.8093622448154179
 51
16.1661467103821117
  0
LINE
  5
22CC9
  8
0
 10
4665.3812577400467489
 20
317.8438900401910132
 30
0.0
 11
4665.3812577400467489
 21
316.5078902568448029
 31
0.0
  0
LINE
  5
22CCA
  8
0
 10
4665.4581978269616229
 20
317.9788902573121163
 30
0.0
 11
4665.4581978269616229
 21
316.3728902564774899
 31
0.0
  0
ARC
  5
22CCB
  8
0
 10
4665.3065520915415618
 20
317.8508286621568004
 30
0.0
 40
0.0679415299401273
 50
270.5495127217046161
 51
312.6910668160286946
  0
ARC
  5
22CCC
  8
0
 10
4665.272585561771848
 20
317.8852298991765792
 30
0.0
 40
0.1162695504026287
 50
313.499505937818185
 51
339.1728417408371001
  0
ARC
  5
22CCD
  8
0
 10
15100.4959794578298897
 20
-3885.6691377194129018
 30
0.0
 40
11249.9396011692406319
 50
158.0589411188655902
 51
158.0592485954138056
  0
ARC
  5
22CCE
  8
0
 10
4665.4997594364949691
 20
317.8612365946028717
 30
0.0
 40
0.1034370448914445
 50
127.8701097769124004
 51
158.0589411188655902
  0
ARC
  5
22CCF
  8
0
 10
4665.3997822012852339
 20
317.989801319795788
 30
0.0
 40
0.0594258917281292
 50
307.8701097769123862
 51
349.4200196597378181
  0
ARC
  5
22CD0
  8
0
 10
4670.1749484792171643
 20
317.0978800499937051
 30
0.0
 40
4.7983242596709879
 50
167.5799802841972053
 51
169.4200196597377044
  0
ARC
  5
22CD1
  8
0
 10
4665.6239395664197218
 20
318.1001514193433195
 30
0.0
 40
0.1382566612154143
 50
90.9200197422968444
 51
167.5799802841972053
  0
ARC
  5
22CD2
  8
0
 10
4663.9617196228746252
 20
318.0703902564666237
 30
0.0
 40
0.2500000004782228
 50
59.1425936732737512
 51
89.9999999837937139
  0
LINE
  5
22CD3
  8
0
 10
4663.865421417145626
 20
318.3203902569447905
 30
0.0
 11
4663.9617196229455658
 21
318.3203902569447905
 31
0.0
  0
ARC
  5
22CD4
  8
0
 10
4663.8654214171119747
 20
318.3403902568202284
 30
0.0
 40
0.0199999998754361
 50
207.8993940509787137
 51
270.0000000991136062
  0
ARC
  5
22CD5
  8
0
 10
4663.7947197014100311
 20
318.3029565826550993
 30
0.0
 40
0.0600000786533725
 50
27.8993940551017587
 51
90.0033079102466331
  0
ARC
  5
22CD6
  8
0
 10
4663.7947197015655547
 20
318.3029565826889211
 30
0.0
 40
0.0600000786195486
 50
90.0033080579269864
 51
179.9999999834745097
  0
LINE
  5
22CD7
  8
0
 10
4663.734719622945704
 20
318.3029565827063152
 30
0.0
 11
4663.734719622945704
 21
316.048823615044796
 31
0.0
  0
LINE
  5
22CD8
  8
0
 10
4663.8477460056838027
 20
318.3310318474547103
 30
0.0
 11
4663.8477460047452041
 21
316.0207486645628023
 31
0.0
  0
LINE
  5
22CD9
  8
0
 10
4664.0899454294240059
 20
318.2850018655987014
 30
0.0
 11
4664.0899454294240059
 21
316.0667786482318888
 31
0.0
  0
LINE
  5
22CDA
  8
0
 10
4665.3072036956036754
 20
316.5688902568447816
 30
0.0
 11
4665.1381937154474144
 21
316.5688902568447816
 31
0.0
  0
ARC
  5
22CDB
  8
0
 10
4664.1207196228451721
 20
316.0152718623870101
 30
0.0
 40
0.0599999997402789
 50
87.9999998933139551
 51
120.8574064231178937
  0
ARC
  5
22CDC
  8
0
 10
4665.2479431086549084
 20
340.3387148158309969
 30
0.0
 40
24.2895523646026987
 50
267.34502111656019
 51
268.6947703536350218
  0
ARC
  5
22CDD
  8
0
 10
4664.7072196229455585
 20
316.2425437308241953
 30
0.0
 40
0.1875
 50
266.1596413931806069
 51
0.0
  0
ARC
  5
22CDE
  8
0
 10
4664.6407196235386436
 20
317.175890255445097
 30
0.0
 40
0.812499998484964
 50
288.2216559026315963
 51
307.2276334680231002
  0
ARC
  5
22CDF
  8
0
 10
4665.1235167286513388
 20
316.5407300087696854
 30
0.0
 40
0.0146778615899389
 50
306.602083199594972
 51
0.6255489417536428
  0
ARC
  5
22CE0
  8
0
 10
4665.3065520915415618
 20
316.5009518516328058
 30
0.0
 40
0.0679415299401273
 50
47.3089331839713125
 51
89.4504872782953981
  0
ARC
  5
22CE1
  8
0
 10
4665.272585561771848
 20
316.4665506146130269
 30
0.0
 40
0.1162695504026287
 50
20.8271582591629283
 51
46.5004940621817511
  0
ARC
  5
22CE2
  8
0
 10
15100.4959794578298897
 20
4520.0209182332000637
 30
0.0
 40
11249.9396011692406319
 50
201.9407514045861944
 51
201.9410588811344098
  0
ARC
  5
22CE3
  8
0
 10
4665.4997594364949691
 20
316.4905439191866776
 30
0.0
 40
0.1034370448914445
 50
201.9410588811344098
 51
232.1298902230875001
  0
ARC
  5
22CE4
  8
0
 10
4665.3997822012852339
 20
316.3619791939938182
 30
0.0
 40
0.0594258917281292
 50
10.5799803402622299
 51
52.1298902230875996
  0
ARC
  5
22CE5
  8
0
 10
4670.1749484792171643
 20
317.2539004637957873
 30
0.0
 40
4.7983242596709879
 50
190.5799803402622103
 51
192.4200197158027095
  0
ARC
  5
22CE6
  8
0
 10
4665.6239395664197218
 20
316.2516290944462867
 30
0.0
 40
0.1382566612154143
 50
192.4200197158027095
 51
269.0799802577031983
  0
ARC
  5
22CE7
  8
0
 10
4663.9617196228746252
 20
316.2813902573229825
 30
0.0
 40
0.2500000004782228
 50
270.0000000162062861
 51
300.8574063267262773
  0
LINE
  5
22CE8
  8
0
 10
4663.865421417145626
 20
316.0313902568448157
 30
0.0
 11
4663.9617196229455658
 21
316.0313902568448157
 31
0.0
  0
ARC
  5
22CE9
  8
0
 10
4663.8654214171119747
 20
316.0113902569693778
 30
0.0
 40
0.0199999998754361
 50
89.9999999008863654
 51
152.1006059490212863
  0
ARC
  5
22CEA
  8
0
 10
4663.7947197014982521
 20
316.048823931083291
 30
0.0
 40
0.0600000785522408
 50
180.0000000000032117
 51
269.9966920063249063
  0
ARC
  5
22CEB
  8
0
 10
4663.7947197014982521
 20
316.048823931083291
 30
0.0
 40
0.0600000785522395
 50
269.9966920063249063
 51
332.1006059490184157
  0
LINE
  5
22CEC
  8
0
 10
4663.734719622945704
 20
316.048823931083291
 30
0.0
 11
4663.734719622945704
 21
318.3029568987448101
 31
0.0
  0
ENDSEC
  0
EOF
