  0
SECTION
  2
HEADER
  9
$ACADVER
  1
AC1009
  9
$INSBASE
 10
4662.2350552348825659
 20
316.5201965815476797
 30
0.0
  9
$EXTMIN
 10
4660.2840302810136563
 20
315.333130177183989
 30
0.0
  9
$EXTMAX
 10
4662.2468141207127701
 20
317.7072629860114148
 30
0.0
  9
$LIMMIN
 10
0.0
 20
0.0
  9
$LIMMAX
 10
11.6929133858000007
 20
8.2677165353999982
  9
$ORTHOMODE
 70
     0
  9
$REGENMODE
 70
     1
  9
$FILLMODE
 70
     1
  9
$QTEXTMODE
 70
     0
  9
$MIRRTEXT
 70
     0
  9
$DRAGMODE
 70
     2
  9
$LTSCALE
 40
0.6431102362
  9
$OSMODE
 70
  4095
  9
$ATTMODE
 70
     1
  9
$TEXTSIZE
 40
0.2
  9
$TRACEWID
 40
0.05
  9
$TEXTSTYLE
  7
STANDARD
  9
$CLAYER
  8
0
  9
$CELTYPE
  6
BYLAYER
  9
$CECOLOR
 62
   256
  9
$DIMSCALE
 40
1.0
  9
$DIMASZ
 40
0.1875
  9
$DIMEXO
 40
0.0625
  9
$DIMDLI
 40
0.4443307087
  9
$DIMRND
 40
0.0
  9
$DIMDLE
 40
0.0
  9
$DIMEXE
 40
0.125
  9
$DIMTP
 40
0.01
  9
$DIMTM
 40
0.01
  9
$DIMTXT
 40
2.0
  9
$DIMCEN
 40
0.1052362205
  9
$DIMTSZ
 40
0.0
  9
$DIMTOL
 70
     1
  9
$DIMLIM
 70
     0
  9
$DIMTIH
 70
     1
  9
$DIMTOH
 70
     1
  9
$DIMSE1
 70
     0
  9
$DIMSE2
 70
     0
  9
$DIMTAD
 70
     0
  9
$DIMZIN
 70
     0
  9
$DIMBLK
  1

  9
$DIMASO
 70
     1
  9
$DIMSHO
 70
     1
  9
$DIMPOST
  1
\X
  9
$DIMAPOST
  1

  9
$DIMALT
 70
     1
  9
$DIMALTD
 70
     2
  9
$DIMALTF
 40
25.3999999999999986
  9
$DIMLFAC
 40
1.0
  9
$DIMTOFL
 70
     0
  9
$DIMTVP
 40
0.0
  9
$DIMTIX
 70
     0
  9
$DIMSOXD
 70
     0
  9
$DIMSAH
 70
     0
  9
$DIMBLK1
  1

  9
$DIMBLK2
  1

  9
$DIMSTYLE
  2
STANDARD
  9
$DIMCLRD
 70
     0
  9
$DIMCLRE
 70
     0
  9
$DIMCLRT
 70
     0
  9
$DIMTFAC
 40
1.0
  9
$DIMGAP
 40
0.09
  9
$LUNITS
 70
     2
  9
$LUPREC
 70
     4
  9
$SKETCHINC
 40
0.1
  9
$FILLETRAD
 40
0.0
  9
$AUNITS
 70
     0
  9
$AUPREC
 70
     0
  9
$MENU
  1
.
  9
$ELEVATION
 40
0.0
  9
$PELEVATION
 40
0.0
  9
$THICKNESS
 40
0.0
  9
$LIMCHECK
 70
     0
  9
$BLIPMODE
 70
     0
  9
$CHAMFERA
 40
0.0
  9
$CHAMFERB
 40
0.0
  9
$SKPOLY
 70
     0
  9
$TDCREATE
 40
2458060.468368056230247
  9
$TDUPDATE
 40
2459573.7528009261004627
  9
$TDINDWG
 40
0.6530626157
  9
$TDUSRTIMER
 40
0.6530626157
  9
$USRTIMER
 70
     1
  9
$ANGBASE
 50
0.0
  9
$ANGDIR
 70
     0
  9
$PDMODE
 70
     0
  9
$PDSIZE
 40
0.3125
  9
$PLINEWID
 40
0.0
  9
$COORDS
 70
     1
  9
$SPLFRAME
 70
     0
  9
$SPLINETYPE
 70
     6
  9
$SPLINESEGS
 70
     8
  9
$ATTDIA
 70
     1
  9
$ATTREQ
 70
     1
  9
$HANDLING
 70
     1
  9
$HANDSEED
  5
22B6D
  9
$SURFTAB1
 70
     6
  9
$SURFTAB2
 70
     6
  9
$SURFTYPE
 70
     6
  9
$SURFU
 70
     6
  9
$SURFV
 70
     6
  9
$UCSNAME
  2

  9
$UCSORG
 10
0.0
 20
0.0
 30
0.0
  9
$UCSXDIR
 10
1.0
 20
0.0
 30
0.0
  9
$UCSYDIR
 10
0.0
 20
1.0
 30
0.0
  9
$PUCSNAME
  2

  9
$PUCSORG
 10
0.0
 20
0.0
 30
0.0
  9
$PUCSXDIR
 10
1.0
 20
0.0
 30
0.0
  9
$PUCSYDIR
 10
0.0
 20
1.0
 30
0.0
  9
$USERI1
 70
     0
  9
$USERI2
 70
     0
  9
$USERI3
 70
     0
  9
$USERI4
 70
     0
  9
$USERI5
 70
     0
  9
$USERR1
 40
0.0
  9
$USERR2
 40
0.0
  9
$USERR3
 40
0.0
  9
$USERR4
 40
0.0
  9
$USERR5
 40
0.0
  9
$WORLDVIEW
 70
     1
  9
$SHADEDGE
 70
     3
  9
$SHADEDIF
 70
    70
  9
$TILEMODE
 70
     1
  9
$MAXACTVP
 70
    64
  9
$PLIMCHECK
 70
     0
  9
$PEXTMIN
 10
1.0000000000000000E+20
 20
1.0000000000000000E+20
 30
1.0000000000000000E+20
  9
$PEXTMAX
 10
-1.0000000000000000E+20
 20
-1.0000000000000000E+20
 30
-1.0000000000000000E+20
  9
$PLIMMIN
 10
0.0
 20
0.0
  9
$PLIMMAX
 10
12.0
 20
9.0
  9
$UNITMODE
 70
     0
  9
$VISRETAIN
 70
     1
  9
$PLINEGEN
 70
     0
  9
$PSLTSCALE
 70
     1
  0
ENDSEC
  0
SECTION
  2
TABLES
  0
TABLE
  2
VPORT
 70
     1
  0
VPORT
  2
*ACTIVE
 70
     0
 10
0.0
 20
0.0
 11
1.0
 21
1.0
 12
749.9000657555510543
 22
183.9405914790586962
 13
0.0
 23
0.0
 14
1.0
 24
1.0
 15
0.0
 25
0.0
 16
0.0
 26
0.0
 36
60.4960186965801583
 17
3911.3653564453120453
 27
132.5796051025390057
 37
0.0
 40
2.3929502419224491
 41
1.67063492063492
 42
50.0
 43
0.0
 44
0.0
 50
0.0
 51
0.0
 71
     0
 72
   100
 73
     1
 74
     1
 75
     0
 76
     0
 77
     0
 78
     0
  0
ENDTAB
  0
TABLE
  2
LTYPE
 70
     2
  0
LTYPE
  2
CONTINUOUS
 70
     0
  3
Solid line
 72
    65
 73
     0
 40
0.0
  0
LTYPE
  2
PHANTOM2
 70
     0
  3
___ _ _ ___ _ _ ___ _ _ ___ _ _
 72
    65
 73
     6
 40
1.25
 49
0.625
 49
-0.125
 49
0.125
 49
-0.125
 49
0.125
 49
-0.125
  0
ENDTAB
  0
TABLE
  2
LAYER
 70
     2
  0
LAYER
  2
0
 70
     0
 62
   255
  6
CONTINUOUS
  0
LAYER
  2
DEFPOINTS
 70
     0
 62
     7
  6
CONTINUOUS
  0
ENDTAB
  0
TABLE
  2
STYLE
 70
     1
  0
STYLE
  2
STANDARD
 70
     0
 40
0.0
 41
0.8
 50
0.0
 71
     0
 42
0.2
  3
txt
  4

  0
ENDTAB
  0
TABLE
  2
VIEW
 70
     0
  0
ENDTAB
  0
TABLE
  2
UCS
 70
     0
  0
ENDTAB
  0
TABLE
  2
APPID
 70
    11
  0
APPID
  2
ACAD
 70
     0
  0
APPID
  2
ACAD_MLEADERVER
 70
     0
  0
APPID
  2
ACAD_EXEMPT_FROM_CAD_STANDARDS
 70
     0
  0
APPID
  2
ACAD_NAV_VCDISPLAY
 70
     0
  0
APPID
  2
ACAECLAYERSTANDARD
 70
     0
  0
APPID
  2
ACCMTRANSPARENCY
 70
     0
  0
APPID
  2
ACAD_DSTYLE_DIMJAG
 70
     0
  0
APPID
  2
ACAD_DSTYLE_DIMTALN
 70
     0
  0
APPID
  2
ACDBATTR
 70
     0
  0
APPID
  2
ACADANNOTATIVE
 70
     0
  0
APPID
  2
DCO15
 70
     0
  0
ENDTAB
  0
TABLE
  2
DIMSTYLE
 70
     1
  0
DIMSTYLE
  2
STANDARD
 70
     0
  3

  4

  5

  6

  7

 40
1.0
 41
0.1875
 42
0.0625
 43
0.38
 44
0.125
 45
0.0
 46
0.0
 47
0.01
 48
0.01
140
0.15625
141
0.09
142
0.0
143
25.3999999999999986
144
1.0
145
0.0
146
1.0
147
0.09
 71
     1
 72
     0
 73
     1
 74
     1
 75
     0
 76
     0
 77
     0
 78
     4
170
     0
171
     2
172
     0
173
     0
174
     0
175
     0
176
     0
177
     0
178
     0
  0
ENDTAB
  0
ENDSEC
  0
SECTION
  2
BLOCKS
  0
BLOCK
  8
0
  2
$MODEL_SPACE
 70
     0
 10
0.0
 20
0.0
 30
0.0
  3
$MODEL_SPACE
  1

  0
ENDBLK
  5
21
  8
0
  0
BLOCK
 67
     1
  8
0
  2
$PAPER_SPACE
 70
     0
 10
0.0
 20
0.0
 30
0.0
  3
$PAPER_SPACE
  1

  0
ENDBLK
  5
1D
 67
     1
  8
0
  0
ENDSEC
  0
SECTION
  2
ENTITIES
  0
ATTDEF
  5
211C4
  8
DEFPOINTS
 10
4662.2361474540439303
 20
316.5204818290752087
 30
0.0
 40
0.001
  1
P22076-00
  3

  2
MODELNUMBER
 70
     0
1001
ACDBATTR
1070
     0
1070
     1
  0
ATTDEF
  5
211C5
  8
DEFPOINTS
 10
4662.2361474540439303
 20
316.5188149886960218
 30
0.0
 40
0.001
  1
TURNSPRAY
  3

  2
TRADENAME
 70
     0
1001
ACDBATTR
1070
     0
1070
     1
  0
ATTDEF
  5
211C6
  8
DEFPOINTS
 10
4662.2361474540439303
 20
316.5171484957418215
 30
0.0
 40
0.001
  1
BODY SPRAY
  3

  2
PRODUCT
 70
     0
1001
ACDBATTR
1070
     0
1070
     1
  0
LINE
  5
22A0D
  8
0
 10
4662.2350552348825659
 20
317.5826965815978156
 30
0.0
 11
4662.2350552348825659
 21
315.457696581497828
 31
0.0
  0
LINE
  5
22A0E
  8
0
 10
4661.5080552348817946
 20
317.4535431076183158
 30
0.0
 11
4661.5080552348817946
 21
315.586850055477214
 31
0.0
  0
LINE
  5
22A0F
  8
0
 10
4661.751529327380922
 20
317.1551965815976928
 30
0.0
 11
4661.751529327380922
 21
315.8848760853476278
 31
0.0
  0
LINE
  5
22A10
  8
0
 10
4661.9205393075399115
 20
317.1271965815976728
 30
0.0
 11
4661.751529327380922
 21
317.1271965815976728
 31
0.0
  0
ARC
  5
22A11
  8
0
 10
4660.7340552347814082
 20
317.6808149760556148
 30
0.0
 40
0.0599999997402789
 50
239.1425935768820921
 51
272.0000001066861159
  0
ARC
  5
22A12
  8
0
 10
4661.861278720590235
 20
293.3573720226116279
 30
0.0
 40
24.2895523646026987
 50
91.305229646365035
 51
92.6549788834397958
  0
ARC
  5
22A13
  8
0
 10
4661.3205552348817946
 20
317.4535431076183158
 30
0.0
 40
0.1875
 50
0.0
 51
93.8403586068194215
  0
LINE
  5
22A14
  8
0
 10
4662.1022541117827132
 20
317.4741935129977719
 30
0.0
 11
4662.1022541117827132
 21
315.5661996502008719
 31
0.0
  0
ARC
  5
22A15
  8
0
 10
4661.2540552354757892
 20
316.5201965829974142
 30
0.0
 40
0.812499998484964
 50
52.7723665319768287
 51
71.7783440973684179
  0
ARC
  5
22A16
  8
0
 10
4661.7365293273833231
 20
317.1551965815976928
 30
0.0
 40
0.015
 50
0.0000000000325689
 51
52.7723678584151799
  0
LINE
  5
22A17
  8
0
 10
4660.3389198788763679
 20
317.3679548433931927
 30
0.0
 11
4660.3279630887491294
 21
317.2960910739752194
 31
0.0
  0
ARC
  5
22A18
  8
0
 10
4660.3599233486183948
 20
317.3635810384611773
 30
0.0
 40
0.0214540418285186
 50
123.5859839529469042
 51
168.2367254850431095
  0
ARC
  5
22A19
  8
0
 10
4660.3484314373399684
 20
317.2930915314353228
 30
0.0
 40
0.0206869656912428
 50
171.6629097189139941
 51
242.907856577800203
  0
LINE
  5
22A1A
  8
0
 10
4660.3480552348819401
 20
316.5800725989680018
 30
0.0
 11
4660.3235703587833996
 21
316.5766080564977187
 31
0.0
  0
LINE
  5
22A1B
  8
0
 10
4660.3044254316846491
 20
316.5766152040482098
 30
0.0
 11
4660.3309235234355583
 21
316.5803545148586977
 31
0.0
  0
ARC
  5
22A1C
  8
0
 10
4660.550774639030351
 20
316.5206988260480898
 30
0.0
 40
0.2667443580167649
 50
171.5914951942502
 51
180.1078804716605077
  0
ARC
  5
22A1D
  8
0
 10
4660.3070783846233098
 20
316.5563262952331911
 30
0.0
 40
0.020461622130253
 50
97.4496602797375857
 51
170.4960756422157999
  0
ARC
  5
22A1E
  8
0
 10
4660.370577398452042
 20
316.5222227573780174
 30
0.0
 40
0.084850839688582
 50
169.1499826489661018
 51
181.3683112601129892
  0
ARC
  5
22A1F
  8
0
 10
4660.188239818709917
 20
316.5215421285749926
 30
0.0
 40
0.1003943658534913
 50
359.232063737823978
 51
9.5480277785346761
  0
ARC
  5
22A20
  8
0
 10
4660.3731165790250088
 20
316.5210005302855052
 30
0.0
 40
0.0687680631250425
 50
165.5215591352437059
 51
180.6698447298828967
  0
ARC
  5
22A21
  8
0
 10
4660.2340401189139811
 20
316.5200578901698236
 30
0.0
 40
0.074726470626077
 50
0.1063402982183817
 51
14.0456517426189293
  0
ARC
  5
22A22
  8
0
 10
4660.3840719950949278
 20
316.5209722796498113
 30
0.0
 40
0.0534232032323199
 50
161.196620412714708
 51
180.8319566509869105
  0
ARC
  5
22A23
  8
0
 10
4660.2860958391456734
 20
316.5206192877163858
 30
0.0
 40
0.0505563325051472
 50
359.5209391101897154
 51
20.339453717937019
  0
ARC
  5
22A24
  8
0
 10
4660.5568374879649127
 20
316.5184652834898884
 30
0.0
 40
0.2545415947763979
 50
170.7059461713886037
 51
179.6102922212141095
  0
ARC
  5
22A25
  8
0
 10
4660.3270475177660046
 20
316.5549906893713796
 30
0.0
 40
0.0218952322681451
 50
99.1377705532324853
 51
167.9166674462109938
  0
ARC
  5
22A26
  8
0
 10
4660.4894714167121492
 20
316.5209024523932158
 30
0.0
 40
0.1620254602194675
 50
165.8775036839593042
 51
180.2496123029291084
  0
ARC
  5
22A27
  8
0
 10
4660.354027861432769
 20
316.554383970380627
 30
0.0
 40
0.0225135849114675
 50
105.3841790426017013
 51
164.4061713727676022
  0
ARC
  5
22A28
  8
0
 10
4660.3772632146783508
 20
316.5819060911553038
 30
0.0
 40
0.0553322106267802
 50
156.0149174681569946
 51
182.9114761691321007
  0
ARC
  5
22A29
  8
0
 10
4660.2156366526050988
 20
316.5725374198707982
 30
0.0
 40
0.1155515883057893
 50
2.5457218082621091
 51
16.0055777867524505
  0
ARC
  5
22A2A
  8
0
 10
4660.4156519561647656
 20
316.5756495419789758
 30
0.0
 40
0.0768443292760741
 50
159.7369028399037916
 51
177.6704262847659948
  0
ARC
  5
22A2B
  8
0
 10
4660.345731399662327
 20
316.6014627570119728
 30
0.0
 40
0.0023110729932663
 50
42.3400798562534817
 51
159.7369028399160129
  0
ARC
  5
22A2C
  8
0
 10
4660.2741657516598934
 20
316.5756374080339128
 30
0.0
 40
0.078222978755133
 50
19.1608723793719093
 51
20.4903512045178111
  0
LINE
  5
22A2D
  8
0
 10
4660.3104755470376404
 20
316.57746897351808
 30
0.0
 11
4660.3125002092046998
 21
316.6793896030910105
 31
0.0
  0
LINE
  5
22A2E
  8
0
 10
4660.3071680286038827
 20
316.8438391372266096
 30
0.0
 11
4660.3363690454525567
 21
316.8465765987129998
 31
0.0
  0
LINE
  5
22A2F
  8
0
 10
4660.3199493223219179
 20
316.8617445399640928
 30
0.0
 11
4660.3466174401446551
 21
316.8557435727257143
 31
0.0
  0
LINE
  5
22A30
  8
0
 10
4660.3277245651815974
 20
316.9741420851976841
 30
0.0
 11
4660.3480552348819401
 21
316.975510494286425
 31
0.0
  0
LINE
  5
22A31
  8
0
 10
4660.3086429602817589
 20
316.9859707128978243
 30
0.0
 11
4660.3318342883549121
 21
316.9877680554945982
 31
0.0
  0
LINE
  5
22A32
  8
0
 10
4660.3430536718924486
 20
316.9926519828603091
 30
0.0
 11
4660.3480552348819401
 21
316.9914282112046067
 31
0.0
  0
LINE
  5
22A33
  8
0
 10
4660.318123505047879
 20
316.9998387144000276
 30
0.0
 11
4660.3387672311409915
 21
316.9948307252261088
 31
0.0
  0
LINE
  5
22A34
  8
0
 10
4660.3291751008819119
 20
317.1121326409977996
 30
0.0
 11
4660.3480552348819401
 21
317.1129204900182117
 31
0.0
  0
LINE
  5
22A35
  8
0
 10
4660.3432284281061584
 20
317.1757132969631243
 30
0.0
 11
4660.3480552348819401
 21
317.1743733844418216
 31
0.0
  0
ARC
  5
22A36
  8
0
 10
4660.3584496234116159
 20
317.2665141145607777
 30
0.0
 40
0.0210864664291504
 50
119.5340835809718953
 51
157.1537415074162141
  0
ARC
  5
22A37
  8
0
 10
4660.6479079073151297
 20
317.1905921334180221
 30
0.0
 40
0.3201369650622325
 50
164.7679946143892096
 51
178.6371094757759863
  0
ARC
  5
22A38
  8
0
 10
4660.3494784547983727
 20
317.1964789860463725
 30
0.0
 40
0.0216858635085096
 50
175.4309560075558068
 51
253.2493347976935922
  0
ARC
  5
22A39
  8
0
 10
4660.322993629636585
 20
317.0931182588969932
 30
0.0
 40
0.0207082080751357
 50
173.2303565202477103
 51
221.048526217390787
  0
ARC
  5
22A3A
  8
0
 10
4649.1691732122808389
 20
318.4171376412406858
 30
0.0
 40
11.2114214754449897
 50
353.2303565202478239
 51
353.5989779801440136
  0
ARC
  5
22A3B
  8
0
 10
4660.3312318027228685
 20
317.1649105550262107
 30
0.0
 40
0.0206586814939952
 50
91.1749380650578871
 51
173.5989779801440136
  0
ARC
  5
22A3C
  8
0
 10
4660.3229339318040729
 20
317.0195331060053263
 30
0.0
 40
0.0202733634673087
 50
174.38766343333441
 51
256.2740482550199204
  0
ARC
  5
22A3D
  8
0
 10
4660.6390049438796268
 20
317.0239266448492117
 30
0.0
 40
0.3362558351718598
 50
167.9533744774601018
 51
180.4107983535606934
  0
ARC
  5
22A3E
  8
0
 10
4660.3302108040907115
 20
317.0919914130219013
 30
0.0
 40
0.0201678393863387
 50
92.9436736214630059
 51
173.9820900066762874
  0
ARC
  5
22A3F
  8
0
 10
4660.3114794962139058
 20
316.9085984471774964
 30
0.0
 40
0.0368011017367238
 50
252.2490324561520083
 51
260.8708404463238253
  0
ARC
  5
22A40
  8
0
 10
4660.3072375738620394
 20
316.8953474561919279
 30
0.0
 40
0.0228877028943151
 50
184.5118429265345128
 51
252.2490324561520083
  0
ARC
  5
22A41
  8
0
 10
4662.0174207473446586
 20
316.7924431313686
 30
0.0
 40
1.7359466626939859
 50
174.0724596480843047
 51
176.6611275910057941
  0
ARC
  5
22A42
  8
0
 10
4660.3089318082911632
 20
316.9672582979251843
 30
0.0
 40
0.0187146441931872
 50
90.8843571274630762
 51
166.2217443125551029
  0
ARC
  5
22A43
  8
0
 10
4660.312477480407324
 20
316.8469348373620278
 30
0.0
 40
0.0281011687960505
 50
176.775627098298088
 51
216.2964648034406139
  0
ARC
  5
22A44
  8
0
 10
4658.7745659455049463
 20
316.9335737096635057
 30
0.0
 40
1.512248850964141
 50
356.7756270982981164
 51
358.2201839095782248
  0
ARC
  5
22A45
  8
0
 10
4660.309126035062036
 20
316.8234592403867964
 30
0.0
 40
0.0204737388986938
 50
95.487870279265465
 51
160.4808275338220938
  0
ARC
  5
22A46
  8
0
 10
4660.3055968933722397
 20
316.7512264821274925
 30
0.0
 40
0.0204886855327613
 50
177.0059619182248127
 51
260.9687711487686101
  0
ARC
  5
22A47
  8
0
 10
4660.6324365416921864
 20
316.7705455603352789
 30
0.0
 40
0.3477794807407593
 50
170.1065223831926971
 51
183.0078429701985954
  0
ARC
  5
22A48
  8
0
 10
4660.3074743676752405
 20
316.628058223884409
 30
0.0
 40
0.0225020061845389
 50
175.1428659933372955
 51
258.3126715984341786
  0
ARC
  5
22A49
  8
0
 10
4660.6644690723496751
 20
316.6518241925829216
 30
0.0
 40
0.3800451529817294
 50
172.6337925762113912
 51
183.2975477498673058
  0
ARC
  5
22A4A
  8
0
 10
4660.3089353194282012
 20
316.6975565914394792
 30
0.0
 40
0.0215834614504557
 50
107.8002806686280053
 51
172.0278328142750013
  0
LINE
  5
22A4B
  8
0
 10
4660.302916104781616
 20
316.6060221689978107
 30
0.0
 11
4660.3110157973042078
 21
316.6046649414055878
 31
0.0
  0
LINE
  5
22A4C
  8
0
 10
4660.3214087352871502
 20
316.6754257615604047
 30
0.0
 11
4660.3480552348819401
 21
316.6705956828835156
 31
0.0
  0
LINE
  5
22A4D
  8
0
 10
4660.3477394118317534
 20
316.7448278010659237
 30
0.0
 11
4660.3480552348819401
 21
316.7447656963618101
 31
0.0
  0
ARC
  5
22A4E
  8
0
 10
4660.3566854287582828
 20
316.8336840605916223
 30
0.0
 40
0.024061857156405
 50
111.018353855655306
 51
170.8942484381844906
  0
ARC
  5
22A4F
  8
0
 10
4660.5378803012836215
 20
316.7920420533723131
 30
0.0
 40
0.2099324581763784
 50
167.4965702072771023
 51
187.6772042785293024
  0
ARC
  5
22A50
  8
0
 10
4660.3507156316136388
 20
316.7655597011939221
 30
0.0
 40
0.0209444400048712
 50
184.2795260476192141
 51
261.8305764792550008
  0
ARC
  5
22A51
  8
0
 10
4660.329574086629691
 20
316.9526123461228053
 30
0.0
 40
0.0216090350135747
 50
94.9099640418935309
 51
169.8902964374181863
  0
ARC
  5
22A52
  8
0
 10
4660.6354844178486019
 20
316.8980736894508823
 30
0.0
 40
0.3323429981010892
 50
169.8912684204470906
 51
182.6006253124498073
  0
ARC
  5
22A53
  8
0
 10
4660.3233793036069983
 20
316.8814064390708154
 30
0.0
 40
0.0199588338360088
 50
175.4377885264497081
 51
260.1044383040019738
  0
ARC
  5
22A54
  8
0
 10
4660.3585875242497423
 20
317.0813917016138817
 30
0.0
 40
0.0235844546231005
 50
116.5243180223185959
 51
164.827486617580405
  0
ARC
  5
22A55
  8
0
 10
4660.5359240527186557
 20
317.030364928877475
 30
0.0
 40
0.2081137621710644
 50
164.0471036527385991
 51
185.2034871896904917
  0
ARC
  5
22A56
  8
0
 10
4660.350780307822788
 20
317.0135041663691027
 30
0.0
 40
0.0222038603738093
 50
185.2034871896904917
 51
249.4494300805955902
  0
ARC
  5
22A57
  8
0
 10
4659.5793989345038426
 20
316.9683268208593745
 30
0.0
 40
0.7754348606805137
 50
351.6354343323699254
 51
352.4185795969411856
  0
ARC
  5
22A58
  8
0
 10
4660.4099515469670223
 20
317.0423463109739828
 30
0.0
 40
0.0788514802559222
 50
161.1459175104596113
 51
187.5331069073492074
  0
ARC
  5
22A59
  8
0
 10
4660.2568026433427804
 20
317.0575259446213181
 30
0.0
 40
0.0792010889064098
 50
341.2052010517923009
 51
7.4738233660113851
  0
ARC
  5
22A5A
  8
0
 10
4660.4573703289615878
 20
317.0423982887566012
 30
0.0
 40
0.1525981967628574
 50
167.4676863609973054
 51
180.9922407923095022
  0
ARC
  5
22A5B
  8
0
 10
4660.1461876182902415
 20
317.0738426684030742
 30
0.0
 40
0.1622289259718816
 50
347.8708389026332952
 51
0.5890882506770254
  0
ARC
  5
22A5C
  8
0
 10
4660.4032673653973688
 20
316.9116896493990794
 30
0.0
 40
0.0985669848436149
 50
165.1209107703508039
 51
186.1258712001252036
  0
ARC
  5
22A5D
  8
0
 10
4660.203740844341155
 20
316.9265755503247988
 30
0.0
 40
0.1046526097118708
 50
345.951172891566614
 51
5.7572535472206843
  0
ARC
  5
22A5E
  8
0
 10
4660.2134744409104314
 20
316.7919345253084771
 30
0.0
 40
0.0760266808437398
 50
343.5066798426245782
 51
10.89493951171616
  0
ARC
  5
22A5F
  8
0
 10
4660.4422429527749046
 20
316.7807413975069721
 30
0.0
 40
0.1562178711789486
 50
170.582004789880898
 51
183.8138529586848051
  0
ARC
  5
22A60
  8
0
 10
4660.3921265868430055
 20
316.7983662032033862
 30
0.0
 40
0.0612378860589321
 50
159.4309642783167931
 51
193.4850791351433088
  0
ARC
  5
22A61
  8
0
 10
4660.2683834271256273
 20
316.8060256639175805
 30
0.0
 40
0.0678392336674458
 50
341.1309344620178763
 51
11.7851089514470502
  0
ARC
  5
22A62
  8
0
 10
4660.3911354979718453
 20
316.7292867204536719
 30
0.0
 40
0.0865275363245804
 50
165.8459761666433963
 51
189.8561800389215932
  0
ARC
  5
22A63
  8
0
 10
4660.2230670507979085
 20
316.7355932130672045
 30
0.0
 40
0.0854680563878688
 50
345.6948991309640746
 51
10.0072570745955094
  0
ARC
  5
22A64
  8
0
 10
4660.3255194154608034
 20
316.6967040888592919
 30
0.0
 40
0.0216717536005962
 50
186.7817366552272063
 51
259.0659386419333146
  0
ARC
  5
22A65
  8
0
 10
4660.5564239550221828
 20
316.7236921336743194
 30
0.0
 40
0.2541480799202449
 50
170.4654021698125916
 51
186.6762941593576954
  0
ARC
  5
22A66
  8
0
 10
4660.3395565981663822
 20
316.760117918304104
 30
0.0
 40
0.0342428997723656
 50
138.4454359243619024
 51
170.4654021698125916
  0
ARC
  5
22A67
  8
0
 10
4660.3278829245919042
 20
316.7676808775365771
 30
0.0
 40
0.0205961486963175
 50
95.8761546958033932
 51
132.6381217378111046
  0
LINE
  5
22A68
  8
0
 10
4660.3257743507811028
 20
316.7881696120978177
 30
0.0
 11
4660.3279795361304423
 21
316.7883943440036205
 31
0.0
  0
ARC
  5
22A69
  8
0
 10
4660.3864976981922155
 20
316.6686989021094973
 30
0.0
 40
0.0496440206617332
 50
175.5420028377224071
 51
206.3190150536354963
  0
ARC
  5
22A6A
  8
0
 10
4660.2927529633880113
 20
316.675095070418422
 30
0.0
 40
0.0568524106520647
 50
330.0226113702040038
 51
346.5896444596937727
  0
LINE
  5
22A6B
  8
0
 10
4660.332341367454319
 20
316.9963895841079875
 30
0.0
 11
4660.3309781353218568
 21
316.9743610752760787
 31
0.0
  0
ARC
  5
22A6C
  8
0
 10
4660.4526534601573076
 20
317.2182349830093244
 30
0.0
 40
0.1214719234943767
 50
163.9909998202878967
 51
181.033491224530394
  0
ARC
  5
22A6D
  8
0
 10
4660.2166294415219454
 20
317.24925681752012
 30
0.0
 40
0.1192887277370032
 50
343.8338532896178776
 51
1.1906377551846421
  0
LINE
  5
22A6E
  8
0
 10
4660.3389198788763679
 20
315.6724383198023247
 30
0.0
 11
4660.3279630887491294
 21
315.7443020892204117
 31
0.0
  0
ARC
  5
22A6F
  8
0
 10
4660.3599233486165758
 20
315.6768121247342265
 30
0.0
 40
0.0214540418283103
 50
191.7632745147548974
 51
236.4140160472952061
  0
ARC
  5
22A70
  8
0
 10
4660.3484314373399684
 20
315.7473016317600809
 30
0.0
 40
0.0206869656912428
 50
117.092143422199797
 51
188.3370902810860059
  0
LINE
  5
22A71
  8
0
 10
4660.3480552348819401
 20
316.4603205642275157
 30
0.0
 11
4660.3235703587833996
 21
316.4637851066977987
 31
0.0
  0
LINE
  5
22A72
  8
0
 10
4660.3044254316846491
 20
316.4637779591473077
 30
0.0
 11
4660.3309235234355583
 21
316.460038648336706
 31
0.0
  0
ARC
  5
22A73
  8
0
 10
4660.550774639030351
 20
316.5196943371474276
 30
0.0
 40
0.2667443580167491
 50
179.8921195283394923
 51
188.4085048057498
  0
ARC
  5
22A74
  8
0
 10
4660.3070783846233098
 20
316.4840668679623832
 30
0.0
 40
0.020461622130253
 50
189.5039243577809884
 51
262.5503397202625138
  0
ARC
  5
22A75
  8
0
 10
4660.370577398452042
 20
316.5181704058175001
 30
0.0
 40
0.0848508396885818
 50
178.6316887398870108
 51
190.8500173510306013
  0
ARC
  5
22A76
  8
0
 10
4660.188239818709917
 20
316.5188510346205248
 30
0.0
 40
0.1003943658534913
 50
350.4519722214653257
 51
0.7679362621760003
  0
ARC
  5
22A77
  8
0
 10
4660.3731165788931321
 20
316.5193926328851717
 30
0.0
 40
0.068768062991097
 50
179.3301554147097079
 51
194.4784408721340867
  0
ARC
  5
22A78
  8
0
 10
4660.2340401189012482
 20
316.5203352730280244
 30
0.0
 40
0.0747264706386441
 50
345.9543482579720148
 51
359.8936596233555747
  0
ARC
  5
22A79
  8
0
 10
4660.3840719950458151
 20
316.5194208835337122
 30
0.0
 40
0.0534232031827794
 50
179.1680434426941986
 51
198.8033795918574924
  0
ARC
  5
22A7A
  8
0
 10
4660.2860958391711392
 20
316.5197738754724242
 30
0.0
 40
0.0505563324797853
 50
339.6605462794615846
 51
0.4790607842606029
  0
ARC
  5
22A7B
  8
0
 10
4660.5568374879649127
 20
316.5219278797055154
 30
0.0
 40
0.2545415947763979
 50
180.3897077787858052
 51
189.294053828611311
  0
ARC
  5
22A7C
  8
0
 10
4660.3270475177660046
 20
316.485402473824081
 30
0.0
 40
0.0218952322681489
 50
192.083332553798499
 51
260.8622294467675147
  0
ARC
  5
22A7D
  8
0
 10
4660.4894714166839549
 20
316.5194907107971858
 30
0.0
 40
0.1620254601917377
 50
179.7503877305910862
 51
194.1224963166567932
  0
ARC
  5
22A7E
  8
0
 10
4660.354027861432769
 20
316.4860091928147767
 30
0.0
 40
0.0225135849114675
 50
195.5938286272323978
 51
254.6158209573983129
  0
ARC
  5
22A7F
  8
0
 10
4660.3772632146783508
 20
316.4584870720403273
 30
0.0
 40
0.0553322106267802
 50
177.0885238308678993
 51
203.9850825318430054
  0
ARC
  5
22A80
  8
0
 10
4660.2156366526050988
 20
316.4678557433247192
 30
0.0
 40
0.1155515883057893
 50
343.994422213247617
 51
357.4542781917378989
  0
ARC
  5
22A81
  8
0
 10
4660.4156519561647656
 20
316.4647436212164848
 30
0.0
 40
0.0768443292760741
 50
182.3295737152340052
 51
200.2630971600962084
  0
ARC
  5
22A82
  8
0
 10
4660.3460758474493559
 20
316.4393353070838089
 30
0.0
 40
0.0027866409481614
 50
205.6280564106982922
 51
315.2603916890358846
  0
LINE
  5
22A83
  8
0
 10
4660.3104755470376404
 20
316.4629241896773806
 30
0.0
 11
4660.312499998018211
 21
316.3610141911777873
 31
0.0
  0
LINE
  5
22A84
  8
0
 10
4660.3071680286038827
 20
316.1965540259690215
 30
0.0
 11
4660.3363690454525567
 21
316.1938165644825744
 31
0.0
  0
LINE
  5
22A85
  8
0
 10
4660.3199493223219179
 20
316.1786486232314246
 30
0.0
 11
4660.3466174401446551
 21
316.1846495904698031
 31
0.0
  0
LINE
  5
22A86
  8
0
 10
4660.3277245651815974
 20
316.0662510779977197
 30
0.0
 11
4660.3480552348819401
 21
316.0648826689090924
 31
0.0
  0
LINE
  5
22A87
  8
0
 10
4660.3086429602817589
 20
316.0544224502978068
 30
0.0
 11
4660.3318342883549121
 21
316.0526251077009192
 31
0.0
  0
LINE
  5
22A88
  8
0
 10
4660.3430536718924486
 20
316.0477411803352084
 30
0.0
 11
4660.3480552348819401
 21
316.0489649519909108
 31
0.0
  0
LINE
  5
22A89
  8
0
 10
4660.318123505047879
 20
316.0405544487954899
 30
0.0
 11
4660.3387165896137958
 21
316.0455501527736146
 31
0.0
  0
LINE
  5
22A8A
  8
0
 10
4660.3291751008819119
 20
315.9282605221977178
 30
0.0
 11
4660.3480552348819401
 21
315.9274726731774194
 31
0.0
  0
LINE
  5
22A8B
  8
0
 10
4660.3432284281061584
 20
315.8646798662322794
 30
0.0
 11
4660.3480552348819401
 21
315.8660197787538095
 31
0.0
  0
ARC
  5
22A8C
  8
0
 10
4660.3584496234116159
 20
315.7738790486346829
 30
0.0
 40
0.0210864664291504
 50
202.8462584925837007
 51
240.465916419026513
  0
ARC
  5
22A8D
  8
0
 10
4660.6479079073151297
 20
315.8498010297774954
 30
0.0
 40
0.3201369650622325
 50
181.3628905242239
 51
195.2320053856107904
  0
ARC
  5
22A8E
  8
0
 10
4660.3494784547983727
 20
315.8439141771490881
 30
0.0
 40
0.0216858635085096
 50
106.7506652023063936
 51
184.569043992444108
  0
ARC
  5
22A8F
  8
0
 10
4660.322993629636585
 20
315.9472749042985242
 30
0.0
 40
0.0207082080751357
 50
138.951473782609213
 51
186.7696434797522045
  0
ARC
  5
22A90
  8
0
 10
4649.1691732122808389
 20
314.6232555219547748
 30
0.0
 40
11.2114214754449897
 50
6.4010220198560104
 51
6.7696434797522329
  0
ARC
  5
22A91
  8
0
 10
4660.3312318027228685
 20
315.8754826081693068
 30
0.0
 40
0.0206586814939952
 50
186.4010220198559864
 51
268.6361322383507968
  0
ARC
  5
22A92
  8
0
 10
4660.3229339318040729
 20
316.0208600571900774
 30
0.0
 40
0.0202733634673045
 50
103.7259517449800938
 51
185.6123365666753102
  0
ARC
  5
22A93
  8
0
 10
4660.6390049438796268
 20
316.0164665183463057
 30
0.0
 40
0.3362558351718598
 50
179.5892016464391929
 51
192.0466255225398129
  0
ARC
  5
22A94
  8
0
 10
4660.3302108040907115
 20
315.9484017501736162
 30
0.0
 40
0.0201678393863387
 50
186.0179099933237126
 51
267.0563263785369941
  0
ARC
  5
22A95
  8
0
 10
4660.3114794962139058
 20
316.1317947160180211
 30
0.0
 40
0.0368011017367238
 50
99.1340301788755482
 51
107.7509675438480059
  0
ARC
  5
22A96
  8
0
 10
4660.3072375738620394
 20
316.1450457070035895
 30
0.0
 40
0.0228877028943151
 50
107.7509675438480059
 51
175.4881570734621903
  0
ARC
  5
22A97
  8
0
 10
4662.0174207473446586
 20
316.2479500318269174
 30
0.0
 40
1.7359466626939859
 50
183.3388724089940922
 51
185.9275403519156953
  0
ARC
  5
22A98
  8
0
 10
4660.3089318082911632
 20
316.0731348652702764
 30
0.0
 40
0.0187146441931872
 50
193.7782556874448119
 51
269.1156428725369096
  0
ARC
  5
22A99
  8
0
 10
4660.312477480407324
 20
316.193458325833376
 30
0.0
 40
0.0281011687960505
 50
143.7035351965593861
 51
183.224372901701912
  0
ARC
  5
22A9A
  8
0
 10
4658.7745659455049463
 20
316.1068194535320117
 30
0.0
 40
1.512248850964141
 50
1.7798160904217499
 51
3.2243729017019191
  0
ARC
  5
22A9B
  8
0
 10
4660.309126035062036
 20
316.216933922808721
 30
0.0
 40
0.0204737388986983
 50
199.5191724661870865
 51
264.5121297207344924
  0
ARC
  5
22A9C
  8
0
 10
4660.3055968933722397
 20
316.2891666810680249
 30
0.0
 40
0.0204886855327613
 50
99.0312288512313756
 51
182.9940380817751873
  0
ARC
  5
22A9D
  8
0
 10
4660.6324365416921864
 20
316.2698476028601817
 30
0.0
 40
0.3477794807407593
 50
176.9921570298014046
 51
189.8934776168071892
  0
ARC
  5
22A9E
  8
0
 10
4660.3074755100060429
 20
316.4123346131478911
 30
0.0
 40
0.0225031168015155
 50
101.6897530802478968
 51
184.856060267259295
  0
ARC
  5
22A9F
  8
0
 10
4660.6644690723496751
 20
316.3885689706125959
 30
0.0
 40
0.3800451529817294
 50
176.7024522501326942
 51
187.3662074237886088
  0
ARC
  5
22AA0
  8
0
 10
4660.3089353194282012
 20
316.3428365717559814
 30
0.0
 40
0.0215834614504557
 50
187.9721671857249135
 51
252.1997193313719947
  0
LINE
  5
22AA1
  8
0
 10
4660.302916104781616
 20
316.4343709941978204
 30
0.0
 11
4660.3108430151823995
 21
316.435699269497718
 31
0.0
  0
LINE
  5
22AA2
  8
0
 10
4660.3214087352871502
 20
316.3649674016351128
 30
0.0
 11
4660.3480552348819401
 21
316.3697974803120019
 31
0.0
  0
LINE
  5
22AA3
  8
0
 10
4660.3477394118317534
 20
316.2955653621295937
 30
0.0
 11
4660.3480552348819401
 21
316.2956274668335936
 31
0.0
  0
ARC
  5
22AA4
  8
0
 10
4660.3566854287582828
 20
316.2067091026038952
 30
0.0
 40
0.024061857156405
 50
189.1057515618153957
 51
248.9816461443446087
  0
ARC
  5
22AA5
  8
0
 10
4660.5378803012836215
 20
316.2483511098232043
 30
0.0
 40
0.2099324581763784
 50
172.3227957214706123
 51
192.5034297927228124
  0
ARC
  5
22AA6
  8
0
 10
4660.3507156316136388
 20
316.2748334620015953
 30
0.0
 40
0.0209444400048712
 50
98.1694235207450703
 51
175.7204739523807007
  0
ARC
  5
22AA7
  8
0
 10
4660.329574086629691
 20
316.0877808170725984
 30
0.0
 40
0.0216090350135715
 50
190.1097035625784883
 51
265.0900359581585803
  0
ARC
  5
22AA8
  8
0
 10
4660.6354844178486019
 20
316.1423194737445783
 30
0.0
 40
0.3323429981010892
 50
177.3993746875501927
 51
190.1087315795527957
  0
ARC
  5
22AA9
  8
0
 10
4660.3233793036069983
 20
316.1589867241247021
 30
0.0
 40
0.0199588338360088
 50
99.8955616959979409
 51
184.5622114735502919
  0
ARC
  5
22AAA
  8
0
 10
4660.3585875242497423
 20
315.959001461581579
 30
0.0
 40
0.0235844546231005
 50
195.1725133824195098
 51
243.4756819776814041
  0
ARC
  5
22AAB
  8
0
 10
4660.5359240527186557
 20
316.0100282343179856
 30
0.0
 40
0.2081137621710644
 50
174.7965128103093946
 51
195.9528963472612872
  0
ARC
  5
22AAC
  8
0
 10
4660.3508868435328623
 20
316.0268475353008171
 30
0.0
 40
0.0223137397306666
 50
110.5513683666929978
 51
174.7152989222294082
  0
ARC
  5
22AAD
  8
0
 10
4659.5793989345038426
 20
316.0720663423360861
 30
0.0
 40
0.7754348606805137
 50
7.5814204030587593
 51
8.3645656676301012
  0
ARC
  5
22AAE
  8
0
 10
4660.4099515469670223
 20
315.9980468522214778
 30
0.0
 40
0.0788514802559222
 50
172.4668930926474957
 51
198.8540824895403034
  0
ARC
  5
22AAF
  8
0
 10
4660.2568026433427804
 20
315.9828672185740857
 30
0.0
 40
0.0792010889064098
 50
352.526176633988598
 51
18.7947989482077311
  0
ARC
  5
22AB0
  8
0
 10
4660.4573703289615878
 20
315.9979948744389162
 30
0.0
 40
0.1525981967628574
 50
179.0077592076904125
 51
192.5323136390026946
  0
ARC
  5
22AB1
  8
0
 10
4660.1461876182902415
 20
315.9665504947923864
 30
0.0
 40
0.1622289259718816
 50
359.4109117493230201
 51
12.1291610973666799
  0
ARC
  5
22AB2
  8
0
 10
4660.4032673653973688
 20
316.1287035137963812
 30
0.0
 40
0.0985669848436149
 50
173.8741287998747111
 51
194.8790892296491961
  0
ARC
  5
22AB3
  8
0
 10
4660.203740844341155
 20
316.113817612870605
 30
0.0
 40
0.1046526097118708
 50
354.242746452776089
 51
14.0488271084334801
  0
ARC
  5
22AB4
  8
0
 10
4660.2134744409104314
 20
316.2484586378869835
 30
0.0
 40
0.0760266808437398
 50
349.1050604882838115
 51
16.4933201573754289
  0
ARC
  5
22AB5
  8
0
 10
4660.4422429527749046
 20
316.2596517656883748
 30
0.0
 40
0.1562178711789486
 50
176.1861470413151949
 51
189.417995210119102
  0
ARC
  5
22AB6
  8
0
 10
4660.3921265868430055
 20
316.2420269599920744
 30
0.0
 40
0.0612378860589321
 50
166.5149208648566059
 51
200.5690357216832069
  0
ARC
  5
22AB7
  8
0
 10
4660.2683834271256273
 20
316.2343674992778233
 30
0.0
 40
0.0678392336674458
 50
348.2148910485529996
 51
18.8690655379820917
  0
ARC
  5
22AB8
  8
0
 10
4660.3911354979718453
 20
316.3111064427419024
 30
0.0
 40
0.0865275363245804
 50
170.1438199610782931
 51
194.1540238333566037
  0
ARC
  5
22AB9
  8
0
 10
4660.2230670507979085
 20
316.304799950128313
 30
0.0
 40
0.0854680563878688
 50
349.9927429254045137
 51
14.3051008690327297
  0
ARC
  5
22ABA
  8
0
 10
4660.3255194154608034
 20
316.3436890743362255
 30
0.0
 40
0.021671753600598
 50
100.9340613580666997
 51
173.2182633447663136
  0
ARC
  5
22ABB
  8
0
 10
4660.5564239550221828
 20
316.3167010295210844
 30
0.0
 40
0.2541480799202449
 50
173.3237058406421909
 51
189.5345978301874084
  0
ARC
  5
22ABC
  8
0
 10
4660.3395565981663822
 20
316.2802752448912997
 30
0.0
 40
0.0342428997723656
 50
189.5345978301874084
 51
221.5545640756380976
  0
ARC
  5
22ABD
  8
0
 10
4660.3278829245919042
 20
316.2727122856588267
 30
0.0
 40
0.0205961486963175
 50
227.3618782621888954
 51
264.1238453041966068
  0
LINE
  5
22ABE
  8
0
 10
4660.3257743507811028
 20
316.2522235510976998
 30
0.0
 11
4660.3279795361304423
 21
316.2519988191918969
 31
0.0
  0
ARC
  5
22ABF
  8
0
 10
4660.3864976981922155
 20
316.3716942610860201
 30
0.0
 40
0.0496440206617332
 50
153.6809849463645037
 51
184.4579971622775076
  0
ARC
  5
22AC0
  8
0
 10
4660.2927529633880113
 20
316.3652980927772091
 30
0.0
 40
0.0568524106520647
 50
13.4103555403062291
 51
29.9773886297959713
  0
LINE
  5
22AC1
  8
0
 10
4660.332341367454319
 20
316.0440035790874731
 30
0.0
 11
4660.3309792153822855
 21
316.0660146351978028
 31
0.0
  0
ARC
  5
22AC2
  8
0
 10
4660.4526534601573076
 20
315.822158180186193
 30
0.0
 40
0.1214719234943767
 50
178.966508775469606
 51
196.0090001797121033
  0
ARC
  5
22AC3
  8
0
 10
4660.2166294415219454
 20
315.7911363456753975
 30
0.0
 40
0.1192887277370032
 50
358.8093622448154179
 51
16.1661467103821117
  0
LINE
  5
22AC5
  8
0
 10
4661.9945933519820755
 20
317.1881963648439182
 30
0.0
 11
4661.9945933519820755
 21
315.8521965814978216
 31
0.0
  0
LINE
  5
22AC6
  8
0
 10
4662.07153343889604
 20
317.3231965819650782
 30
0.0
 11
4662.07153343889604
 21
315.7171965811305085
 31
0.0
  0
ARC
  5
22AC7
  8
0
 10
4661.9198877034768884
 20
317.1951349868098191
 30
0.0
 40
0.0679415299401273
 50
270.5495127217046161
 51
312.6910668160286946
  0
ARC
  5
22AC8
  8
0
 10
4661.8859211737071746
 20
317.2295362238295979
 30
0.0
 40
0.1162695504026287
 50
313.499505937818185
 51
339.1728417408371001
  0
ARC
  5
22AC9
  8
0
 10
15097.1093150697597594
 20
-3886.3248313947588031
 30
0.0
 40
11249.9396011692406319
 50
158.0589411188655902
 51
158.0592485954138056
  0
ARC
  5
22ACA
  8
0
 10
4662.1130950484312052
 20
317.2055429192557767
 30
0.0
 40
0.1034370448914445
 50
127.8701097769124004
 51
158.0589411188655902
  0
ARC
  5
22ACB
  8
0
 10
4662.013117813219651
 20
317.3341076444488067
 30
0.0
 40
0.0594258917281292
 50
307.8701097769123862
 51
349.4200196597378181
  0
ARC
  5
22ACC
  8
0
 10
4666.7882840911515814
 20
316.4421863746467238
 30
0.0
 40
4.7983242596709879
 50
167.5799802841972053
 51
169.4200196597377044
  0
ARC
  5
22ACD
  8
0
 10
4662.2372751783541389
 20
317.4444577439962814
 30
0.0
 40
0.1382566612154143
 50
90.9200197422968444
 51
167.5799802841972053
  0
ARC
  5
22ACE
  8
0
 10
4660.5750552348108613
 20
317.4146965811194718
 30
0.0
 40
0.2500000004782228
 50
59.1425936732737512
 51
89.9999999837937139
  0
LINE
  5
22ACF
  8
0
 10
4660.4787570290809526
 20
317.6646965815978092
 30
0.0
 11
4660.5750552348827114
 21
317.6646965815978092
 31
0.0
  0
ARC
  5
22AD0
  8
0
 10
4660.4787570290473013
 20
317.6846965814731902
 30
0.0
 40
0.0199999998754361
 50
207.8993940509787137
 51
270.0000000991136062
  0
ARC
  5
22AD1
  8
0
 10
4660.4080553132143905
 20
317.6472629071831761
 30
0.0
 40
0.0600000788282455
 50
27.8993941016029616
 51
90.0033077844005049
  0
ARC
  5
22AD2
  8
0
 10
4660.4080553135863738
 20
317.6472629073064127
 30
0.0
 40
0.0600000787050905
 50
90.0033081396357915
 51
179.9999999495377097
  0
LINE
  5
22AD3
  8
0
 10
4660.3480552348819401
 20
317.6472629073592202
 30
0.0
 11
4660.3480552348819401
 21
315.393129939697701
 31
0.0
  0
LINE
  5
22AD4
  8
0
 10
4660.4610816176191292
 20
317.6753381721076721
 30
0.0
 11
4660.4610816166823497
 21
315.365054989215821
 31
0.0
  0
LINE
  5
22AD5
  8
0
 10
4660.7032810413593324
 20
317.6293081902516064
 30
0.0
 11
4660.7032810413593324
 21
315.4110849728847938
 31
0.0
  0
LINE
  5
22AD6
  8
0
 10
4661.9205393075399115
 20
315.9131965814978003
 30
0.0
 11
4661.751529327380922
 21
315.9131965814978003
 31
0.0
  0
ARC
  5
22AD7
  8
0
 10
4660.7340552347814082
 20
315.3595781870399151
 30
0.0
 40
0.0599999997402789
 50
87.9999998933139551
 51
120.8574064231178937
  0
ARC
  5
22AD8
  8
0
 10
4661.861278720590235
 20
339.6830211404839019
 30
0.0
 40
24.2895523646026987
 50
267.34502111656019
 51
268.6947703536350218
  0
ARC
  5
22AD9
  8
0
 10
4661.3205552348817946
 20
315.586850055477214
 30
0.0
 40
0.1875
 50
266.1596413931806069
 51
0.0
  0
ARC
  5
22ADA
  8
0
 10
4661.2540552354757892
 20
316.5201965800981156
 30
0.0
 40
0.812499998484964
 50
288.2216559026315963
 51
307.2276334680231002
  0
ARC
  5
22ADB
  8
0
 10
4661.7368523405857559
 20
315.885036333422704
 30
0.0
 40
0.0146778615899389
 50
306.602083199594972
 51
0.6255489417536428
  0
ARC
  5
22ADC
  8
0
 10
4661.9198877034768884
 20
315.8452581762857108
 30
0.0
 40
0.0679415299401273
 50
47.3089331839713125
 51
89.4504872782953981
  0
ARC
  5
22ADD
  8
0
 10
4661.8859211737071746
 20
315.8108569392659888
 30
0.0
 40
0.1162695504026287
 50
20.8271582591629283
 51
46.5004940621817511
  0
ARC
  5
22ADE
  8
0
 10
15097.1093150697597594
 20
4519.3652245578541624
 30
0.0
 40
11249.9396011692406319
 50
201.9407514045861944
 51
201.9410588811344098
  0
ARC
  5
22ADF
  8
0
 10
4662.1130950484312052
 20
315.8348502438395826
 30
0.0
 40
0.1034370448914445
 50
201.9410588811344098
 51
232.1298902230875001
  0
ARC
  5
22AE0
  8
0
 10
4662.013117813219651
 20
315.7062855186467232
 30
0.0
 40
0.0594258917281292
 50
10.5799803402622299
 51
52.1298902230875996
  0
ARC
  5
22AE1
  8
0
 10
4666.7882840911515814
 20
316.598206788448806
 30
0.0
 40
4.7983242596709879
 50
190.5799803402622103
 51
192.4200197158027095
  0
ARC
  5
22AE2
  8
0
 10
4662.2372751783541389
 20
315.5959354190993054
 30
0.0
 40
0.1382566612154143
 50
192.4200197158027095
 51
269.0799802577031983
  0
ARC
  5
22AE3
  8
0
 10
4660.5750552348108613
 20
315.6256965819760012
 30
0.0
 40
0.2500000004782228
 50
270.0000000162062861
 51
300.8574063267262773
  0
LINE
  5
22AE4
  8
0
 10
4660.4787570290809526
 20
315.3756965814977207
 30
0.0
 11
4660.5750552348827114
 21
315.3756965814977207
 31
0.0
  0
ARC
  5
22AE5
  8
0
 10
4660.4787570290473013
 20
315.3556965816222828
 30
0.0
 40
0.0199999998754361
 50
89.9999999008863654
 51
152.1006059490212863
  0
ARC
  5
22AE6
  8
0
 10
4660.4080553134335787
 20
315.3931302557363097
 30
0.0
 40
0.0600000785522408
 50
180.0000000000032117
 51
269.9966920063249063
  0
ARC
  5
22AE7
  8
0
 10
4660.4080553134335787
 20
315.3931302557363097
 30
0.0
 40
0.0600000785522395
 50
269.9966920063249063
 51
332.1006059490184157
  0
LINE
  5
22AE8
  8
0
 10
4660.3480552348819401
 20
315.3931302557363097
 30
0.0
 11
4660.3480552348819401
 21
317.647263223397772
 31
0.0
  0
ENDSEC
  0
EOF
