  0
SECTION
  2
HEADER
  9
$ACADVER
  1
AC1009
  9
$INSBASE
 10
3069.5901012669578449
 20
127.0948098516500977
 30
0.0
  9
$EXTMIN
 10
3068.2151012669578449
 20
124.2396191442158937
 30
0.0
  9
$EXTMAX
 10
3070.9651012669578449
 20
128.4698098516500977
 30
0.0
  9
$LIMMIN
 10
0.0
 20
0.0
  9
$LIMMAX
 10
11.6929133858000007
 20
8.2677165353999982
  9
$ORTHOMODE
 70
     0
  9
$REGENMODE
 70
     1
  9
$FILLMODE
 70
     1
  9
$QTEXTMODE
 70
     0
  9
$MIRRTEXT
 70
     0
  9
$DRAGMODE
 70
     2
  9
$LTSCALE
 40
0.6431102362
  9
$OSMODE
 70
   575
  9
$ATTMODE
 70
     1
  9
$TEXTSIZE
 40
0.2
  9
$TRACEWID
 40
0.05
  9
$TEXTSTYLE
  7
STANDARD
  9
$CLAYER
  8
0
  9
$CELTYPE
  6
BYLAYER
  9
$CECOLOR
 62
   256
  9
$DIMSCALE
 40
1.0
  9
$DIMASZ
 40
0.1875
  9
$DIMEXO
 40
0.0625
  9
$DIMDLI
 40
0.4443307087
  9
$DIMRND
 40
0.0
  9
$DIMDLE
 40
0.0
  9
$DIMEXE
 40
0.125
  9
$DIMTP
 40
0.01
  9
$DIMTM
 40
0.01
  9
$DIMTXT
 40
2.0
  9
$DIMCEN
 40
0.1052362205
  9
$DIMTSZ
 40
0.0
  9
$DIMTOL
 70
     1
  9
$DIMLIM
 70
     0
  9
$DIMTIH
 70
     1
  9
$DIMTOH
 70
     1
  9
$DIMSE1
 70
     0
  9
$DIMSE2
 70
     0
  9
$DIMTAD
 70
     0
  9
$DIMZIN
 70
     0
  9
$DIMBLK
  1

  9
$DIMASO
 70
     1
  9
$DIMSHO
 70
     1
  9
$DIMPOST
  1
\X
  9
$DIMAPOST
  1

  9
$DIMALT
 70
     1
  9
$DIMALTD
 70
     2
  9
$DIMALTF
 40
25.3999999999999986
  9
$DIMLFAC
 40
1.0
  9
$DIMTOFL
 70
     0
  9
$DIMTVP
 40
0.0
  9
$DIMTIX
 70
     0
  9
$DIMSOXD
 70
     0
  9
$DIMSAH
 70
     0
  9
$DIMBLK1
  1

  9
$DIMBLK2
  1

  9
$DIMSTYLE
  2
STANDARD
  9
$DIMCLRD
 70
     0
  9
$DIMCLRE
 70
     0
  9
$DIMCLRT
 70
     0
  9
$DIMTFAC
 40
1.0
  9
$DIMGAP
 40
0.09
  9
$LUNITS
 70
     2
  9
$LUPREC
 70
     4
  9
$SKETCHINC
 40
0.1
  9
$FILLETRAD
 40
0.0
  9
$AUNITS
 70
     0
  9
$AUPREC
 70
     0
  9
$MENU
  1
.
  9
$ELEVATION
 40
0.0
  9
$PELEVATION
 40
0.0
  9
$THICKNESS
 40
0.0
  9
$LIMCHECK
 70
     0
  9
$BLIPMODE
 70
     0
  9
$CHAMFERA
 40
0.0
  9
$CHAMFERB
 40
0.0
  9
$SKPOLY
 70
     0
  9
$TDCREATE
 40
2458060.468368056230247
  9
$TDUPDATE
 40
2459522.7049421300180256
  9
$TDINDWG
 40
0.6589885417
  9
$TDUSRTIMER
 40
0.6589885417
  9
$USRTIMER
 70
     1
  9
$ANGBASE
 50
0.0
  9
$ANGDIR
 70
     0
  9
$PDMODE
 70
     0
  9
$PDSIZE
 40
0.3125
  9
$PLINEWID
 40
0.0
  9
$COORDS
 70
     1
  9
$SPLFRAME
 70
     0
  9
$SPLINETYPE
 70
     6
  9
$SPLINESEGS
 70
     8
  9
$ATTDIA
 70
     1
  9
$ATTREQ
 70
     1
  9
$HANDLING
 70
     1
  9
$HANDSEED
  5
2D171
  9
$SURFTAB1
 70
     6
  9
$SURFTAB2
 70
     6
  9
$SURFTYPE
 70
     6
  9
$SURFU
 70
     6
  9
$SURFV
 70
     6
  9
$UCSNAME
  2

  9
$UCSORG
 10
0.0
 20
0.0
 30
0.0
  9
$UCSXDIR
 10
1.0
 20
0.0
 30
0.0
  9
$UCSYDIR
 10
0.0
 20
1.0
 30
0.0
  9
$PUCSNAME
  2

  9
$PUCSORG
 10
0.0
 20
0.0
 30
0.0
  9
$PUCSXDIR
 10
1.0
 20
0.0
 30
0.0
  9
$PUCSYDIR
 10
0.0
 20
1.0
 30
0.0
  9
$USERI1
 70
     0
  9
$USERI2
 70
     0
  9
$USERI3
 70
     0
  9
$USERI4
 70
     0
  9
$USERI5
 70
     0
  9
$USERR1
 40
0.0
  9
$USERR2
 40
0.0
  9
$USERR3
 40
0.0
  9
$USERR4
 40
0.0
  9
$USERR5
 40
0.0
  9
$WORLDVIEW
 70
     1
  9
$SHADEDGE
 70
     3
  9
$SHADEDIF
 70
    70
  9
$TILEMODE
 70
     1
  9
$MAXACTVP
 70
    64
  9
$PLIMCHECK
 70
     0
  9
$PEXTMIN
 10
1.0000000000000000E+20
 20
1.0000000000000000E+20
 30
1.0000000000000000E+20
  9
$PEXTMAX
 10
-1.0000000000000000E+20
 20
-1.0000000000000000E+20
 30
-1.0000000000000000E+20
  9
$PLIMMIN
 10
0.0
 20
0.0
  9
$PLIMMAX
 10
12.0
 20
9.0
  9
$UNITMODE
 70
     0
  9
$VISRETAIN
 70
     1
  9
$PLINEGEN
 70
     0
  9
$PSLTSCALE
 70
     1
  0
ENDSEC
  0
SECTION
  2
TABLES
  0
TABLE
  2
VPORT
 70
     1
  0
VPORT
  2
*ACTIVE
 70
     0
 10
0.0
 20
0.0
 11
1.0
 21
1.0
 12
-234.1030139848145097
 22
-68.9067970867555744
 13
0.0
 23
0.0
 14
1.0
 24
1.0
 15
0.0
 25
0.0
 16
0.0
 26
0.0
 36
96.5995694866707311
 17
3303.693115234375
 27
195.2615115758877096
 37
0.0
 40
4.911949601678983
 41
2.5105348460291732
 42
50.0
 43
0.0
 44
0.0
 50
0.0
 51
0.0
 71
     0
 72
   100
 73
     1
 74
     1
 75
     0
 76
     0
 77
     0
 78
     0
  0
ENDTAB
  0
TABLE
  2
LTYPE
 70
     2
  0
LTYPE
  2
CONTINUOUS
 70
     0
  3
Solid line
 72
    65
 73
     0
 40
0.0
  0
LTYPE
  2
PHANTOM2
 70
     0
  3
___ _ _ ___ _ _ ___ _ _ ___ _ _
 72
    65
 73
     6
 40
1.25
 49
0.625
 49
-0.125
 49
0.125
 49
-0.125
 49
0.125
 49
-0.125
  0
ENDTAB
  0
TABLE
  2
LAYER
 70
     2
  0
LAYER
  2
0
 70
     0
 62
   255
  6
CONTINUOUS
  0
LAYER
  2
DEFPOINTS
 70
     0
 62
     7
  6
CONTINUOUS
  0
ENDTAB
  0
TABLE
  2
STYLE
 70
     1
  0
STYLE
  2
STANDARD
 70
     0
 40
0.0
 41
0.8
 50
0.0
 71
     0
 42
0.2
  3
txt
  4

  0
ENDTAB
  0
TABLE
  2
VIEW
 70
     0
  0
ENDTAB
  0
TABLE
  2
UCS
 70
     0
  0
ENDTAB
  0
TABLE
  2
APPID
 70
     9
  0
APPID
  2
ACAD
 70
     0
  0
APPID
  2
ACAD_MLEADERVER
 70
     0
  0
APPID
  2
ACAD_EXEMPT_FROM_CAD_STANDARDS
 70
     0
  0
APPID
  2
ACAD_NAV_VCDISPLAY
 70
     0
  0
APPID
  2
ACAECLAYERSTANDARD
 70
     0
  0
APPID
  2
ACCMTRANSPARENCY
 70
     0
  0
APPID
  2
ACAD_DSTYLE_DIMJAG
 70
     0
  0
APPID
  2
ACAD_DSTYLE_DIMTALN
 70
     0
  0
APPID
  2
ACDBATTR
 70
     0
  0
ENDTAB
  0
TABLE
  2
DIMSTYLE
 70
     1
  0
DIMSTYLE
  2
STANDARD
 70
     0
  3

  4

  5

  6

  7

 40
1.0
 41
0.1875
 42
0.0625
 43
0.38
 44
0.125
 45
0.0
 46
0.0
 47
0.01
 48
0.01
140
0.15625
141
0.09
142
0.0
143
25.3999999999999986
144
1.0
145
0.0
146
1.0
147
0.09
 71
     1
 72
     0
 73
     1
 74
     1
 75
     0
 76
     0
 77
     0
 78
     4
170
     0
171
     2
172
     0
173
     0
174
     0
175
     0
176
     0
177
     0
178
     0
  0
ENDTAB
  0
ENDSEC
  0
SECTION
  2
BLOCKS
  0
BLOCK
  8
0
  2
$MODEL_SPACE
 70
     0
 10
0.0
 20
0.0
 30
0.0
  3
$MODEL_SPACE
  1

  0
ENDBLK
  5
21
  8
0
  0
BLOCK
 67
     1
  8
0
  2
$PAPER_SPACE
 70
     0
 10
0.0
 20
0.0
 30
0.0
  3
$PAPER_SPACE
  1

  0
ENDBLK
  5
1D
 67
     1
  8
0
  0
ENDSEC
  0
SECTION
  2
ENTITIES
  0
ATTDEF
  5
28FC7
  8
DEFPOINTS
 10
3069.5901519752428612
 20
127.0937247458974042
 30
0.0
 40
0.001
  1
P21834-00
  3

  2
MODELNUMBER
 70
     0
1001
ACDBATTR
1070
     0
1070
     1
  0
ATTDEF
  5
28FC8
  8
DEFPOINTS
 10
3069.5901519752428612
 20
127.0920580792307959
 30
0.0
 40
0.001
  1
ONE
  3

  2
TRADENAME
 70
     0
1001
ACDBATTR
1070
     0
1070
     1
  0
ATTDEF
  5
28FC9
  8
DEFPOINTS
 10
3069.5901519752428612
 20
127.0903914125641023
 30
0.0
 40
0.001
  1
BATH SPOUT
  3

  2
PRODUCT
 70
     0
1001
ACDBATTR
1070
     0
1070
     1
  0
LINE
  5
2CFEE
  8
0
 10
3069.3660473302579703
 20
124.2516901701500984
 30
0.0
 11
3069.4047329020581856
 21
124.2566290704501029
 31
0.0
  0
LINE
  5
2CFEF
  8
0
 10
3069.4047329020581856
 20
124.2964965486500972
 30
0.0
 11
3069.3660473302579703
 21
124.291557648350107
 31
0.0
  0
LINE
  5
2CFF0
  8
0
 10
3069.2991312180579371
 20
124.2652180073501
 30
0.0
 11
3069.2384070340581275
 21
124.2620715808501046
 31
0.0
  0
LINE
  5
2CFF1
  8
0
 10
3069.1829858319579216
 20
124.2729538684501023
 30
0.0
 11
3069.2532791444577924
 21
124.2742213388500971
 31
0.0
  0
LINE
  5
2CFF2
  8
0
 10
3069.2532791444577924
 20
124.286367929950103
 30
0.0
 11
3069.1829858319579216
 21
124.2876354003500978
 31
0.0
  0
LINE
  5
2CFF3
  8
0
 10
3069.2384070340581275
 20
124.2985176879500955
 30
0.0
 11
3069.2991312180579371
 21
124.2953712614501001
 31
0.0
  0
LINE
  5
2CFF4
  8
0
 10
3069.4047329020581856
 20
124.3039601983500972
 30
0.0
 11
3069.3660473302579703
 21
124.3088990986501017
 31
0.0
  0
LINE
  5
2CFF5
  8
0
 10
3069.4998459478579207
 20
124.3134066897500958
 30
0.0
 11
3069.5154296000578142
 21
124.3076895003500937
 31
0.0
  0
LINE
  5
2CFF6
  8
0
 10
3069.0901004914580881
 20
127.0948092558500946
 30
0.0
 11
3069.0901108256580301
 21
124.2802946344501009
 31
0.0
  0
LINE
  5
2CFF7
  8
0
 10
3069.1829858319579216
 20
124.2729538684501023
 30
0.0
 11
3069.1829858319579216
 21
124.2907264313130042
 31
0.0
  0
LINE
  5
2CFF8
  8
0
 10
3069.2384070340581275
 20
124.2999853629108031
 30
0.0
 11
3069.2384070340581275
 21
124.2985176879500955
 31
0.0
  0
LINE
  5
2CFF9
  8
0
 10
3069.2532791444577924
 20
124.2742213388500971
 30
0.0
 11
3069.2532791444577924
 21
124.286367929950103
 31
0.0
  0
LINE
  5
2CFFA
  8
0
 10
3069.2991312180579371
 20
124.2652180073501
 30
0.0
 11
3069.2991312180579371
 21
124.3056755156582938
 31
0.0
  0
LINE
  5
2CFFB
  8
0
 10
3069.3660473302579703
 20
124.291557648350107
 30
0.0
 11
3069.3660473302579703
 21
124.2516901701500984
 31
0.0
  0
LINE
  5
2CFFC
  8
0
 10
3069.3660473302579703
 20
124.3088990986501017
 30
0.0
 11
3069.3660473302579703
 21
124.3098709699239066
 31
0.0
  0
LINE
  5
2CFFD
  8
0
 10
3069.4047329020581856
 20
124.2566290704501029
 30
0.0
 11
3069.4047329020581856
 21
124.2964965486500972
 31
0.0
  0
LINE
  5
2CFFE
  8
0
 10
3069.4998459478579207
 20
124.3142433139995973
 30
0.0
 11
3069.4998459478579207
 21
124.3134066897500958
 31
0.0
  0
LINE
  5
2CFFF
  8
0
 10
3069.5154296000578142
 20
124.2927672466501008
 30
0.0
 11
3069.5154296000578142
 21
124.2528997684501064
 31
0.0
  0
LINE
  5
2D000
  8
0
 10
3069.5154296000578142
 20
124.3076895003500937
 30
0.0
 11
3069.5154296000578142
 21
124.3144910332704001
 31
0.0
  0
LINE
  5
2D001
  8
0
 10
3070.0901020423580121
 20
127.0948092558500946
 30
0.0
 11
3070.0900917090821167
 21
124.2805460607089998
 31
0.0
  0
LINE
  5
2D002
  8
0
 10
3069.5154296000578142
 20
124.2528997684501064
 30
0.0
 11
3069.4998459478579207
 21
124.2471825790501043
 31
0.0
  0
ARC
  5
2D003
  8
0
 10
3069.5879422975490343
 20
129.0128242737781079
 30
0.0
 40
4.7672594616055326
 50
267.3275774045960134
 51
270.0259477876163032
  0
ARC
  5
2D004
  8
0
 10
3069.5900092009578657
 20
129.359483941850101
 30
0.0
 40
5.0732378300000001
 50
269.1576877655780891
 51
270.0010397680057963
  0
ARC
  5
2D005
  8
0
 10
3069.5895239956580554
 20
128.4191564248500868
 30
0.0
 40
4.1270543526000001
 50
268.9712943223997854
 51
270.0080142405449237
  0
ARC
  5
2D006
  8
0
 10
3069.4913364501580872
 20
126.7580989807501055
 30
0.0
 40
2.4697213422000002
 50
265.5364617876091984
 51
267.0921333182121771
  0
ARC
  5
2D007
  8
0
 10
3069.4993627154581191
 20
125.8842715727500945
 30
0.0
 40
1.5871416515000001
 50
265.1177413349956282
 51
266.5685079670014943
  0
ARC
  5
2D008
  8
0
 10
3069.5901012669578449
 20
127.0948098516500977
 30
0.0
 40
1.375
 50
291.3235105727238192
 51
248.676489422801211
  0
ARC
  5
2D009
  8
0
 10
3069.5901012669078227
 20
127.0948059483875028
 30
0.0
 40
0.5000007754609403
 50
0.0003790067126498
 51
179.9996209932872944
  0
ARC
  5
2D00A
  8
0
 10
3069.5804815490141664
 20
129.4834958152164006
 30
0.0
 40
5.24387667100049
 50
267.072578834880801
 51
270.1051072668615802
  0
ARC
  5
2D00B
  8
0
 10
3069.4207438090529649
 20
126.4179549352383987
 30
0.0
 40
2.1741803070124162
 50
263.2812715358389823
 51
267.1508288517435972
  0
ARC
  5
2D00C
  8
0
 10
3069.2232775067441253
 20
124.737555463976193
 30
0.0
 40
0.4822186506887264
 50
256.8482440735500063
 51
263.2231977502000859
  0
ARC
  5
2D00D
  8
0
 10
3069.126198359153932
 20
124.332012490411401
 30
0.0
 40
0.0652633300860929
 50
240.2245131145851929
 51
258.832062438314324
  0
ARC
  5
2D00E
  8
0
 10
3069.0989297475762214
 20
124.2838267824694043
 30
0.0
 40
0.0099009609856889
 50
212.9078191280389944
 51
238.7163002479919101
  0
ARC
  5
2D00F
  8
0
 10
3069.0936586559059833
 20
124.2802922861046966
 30
0.0
 40
0.0035568957769936
 50
149.8494605469857106
 51
211.2380301333404873
  0
ARC
  5
2D010
  8
0
 10
3069.0993938808510393
 20
124.2763819113388024
 30
0.0
 40
0.0104922259953943
 50
118.9425275388251038
 51
147.1143022089302974
  0
ARC
  5
2D011
  8
0
 10
3069.124907288256054
 20
124.2298849030571972
 30
0.0
 40
0.0635290123730646
 50
103.9077260814624992
 51
118.7851774825653024
  0
ARC
  5
2D012
  8
0
 10
3069.2252715114559578
 20
123.8221653020809043
 30
0.0
 40
0.4834197202392069
 50
95.9741248498296926
 51
103.8393275614049998
  0
ARC
  5
2D013
  8
0
 10
3069.4377127750180989
 20
121.9312205726666036
 30
0.0
 40
2.3862493994151182
 50
92.5243078261494674
 51
96.3217855765278443
  0
ARC
  5
2D014
  8
0
 10
3069.5835734586380568
 20
118.8988239769077069
 30
0.0
 40
5.4221412536136366
 50
89.931020617818902
 51
92.6528301544578454
  0
ARC
  5
2D015
  8
0
 10
3069.4735655400918404
 20
126.5171146838380025
 30
0.0
 40
2.2689322152012719
 50
264.6538366580726915
 51
267.2742508440824736
  0
ARC
  5
2D016
  8
0
 10
3069.3416549469720849
 20
125.1163412625509039
 30
0.0
 40
0.8619621371892471
 50
260.9659500235442806
 51
264.7085274747262815
  0
ARC
  5
2D017
  8
0
 10
3069.2387218136577758
 20
124.4821812340314011
 30
0.0
 40
0.2195158825560639
 50
253.4672061250863067
 51
261.5087460525494976
  0
ARC
  5
2D018
  8
0
 10
3069.1903891496331198
 20
124.3188504226917956
 30
0.0
 40
0.0491841231452986
 50
242.4907375365671953
 51
253.2998808374134114
  0
ARC
  5
2D019
  8
0
 10
3069.1730048500771773
 20
124.2859406351308991
 30
0.0
 40
0.0119675587567484
 50
220.3840761682434959
 51
243.5344733942195035
  0
ARC
  5
2D01A
  8
0
 10
3069.1663037870112021
 20
124.2802713796964014
 30
0.0
 40
0.0031901635173334
 50
155.059802074619796
 51
220.8025094154654937
  0
ARC
  5
2D01B
  8
0
 10
3069.170150878323966
 20
124.2777997655007027
 30
0.0
 40
0.0077454858762558
 50
121.7531284881942071
 51
150.4765620716304113
  0
ARC
  5
2D01C
  8
0
 10
3069.1887608288789124
 20
124.2464583086339047
 30
0.0
 40
0.0441946102444632
 50
106.5323756998942031
 51
120.885401698027394
  0
ARC
  5
2D01D
  8
0
 10
3069.2369917185092163
 20
124.0843552168438038
 30
0.0
 40
0.2133206833470248
 50
99.2255190761257353
 51
106.5617585067498965
  0
ARC
  5
2D01E
  8
0
 10
3069.3122972267560726
 20
123.6524640944342934
 30
0.0
 40
0.6517181968719702
 50
96.7967591452245131
 51
99.6730356734197329
  0
ARC
  5
2D01F
  8
0
 10
3069.3886171169160662
 20
123.0164114771621939
 30
0.0
 40
1.29233315718814
 50
94.7502395425586457
 51
96.8192858356578085
  0
ARC
  5
2D020
  8
0
 10
3069.5051381069688432
 20
121.5556762527394028
 30
0.0
 40
2.7577046223866679
 50
92.3716399044047307
 51
94.6495519830179717
  0
ARC
  5
2D021
  8
0
 10
3069.5796890442588847
 20
119.7817285398606941
 30
0.0
 40
4.5332179627534757
 50
90.7308648018152439
 51
92.385279533082965
  0
ARC
  5
2D022
  8
0
 10
3069.5899582168149209
 20
119.1199029885987954
 30
0.0
 40
5.195120981120791
 50
89.9984223338309448
 51
90.7510068731507999
  0
ARC
  5
2D023
  8
0
 10
3069.5721693458672235
 20
127.5818701299589009
 30
0.0
 40
3.3294538691140589
 50
267.1174101760238955
 51
269.0235319450677025
  0
ARC
  5
2D024
  8
0
 10
3069.5696685878970129
 20
128.3077476420602068
 30
0.0
 40
4.0611653293112706
 50
267.1260632440370273
 51
269.0148788887281057
  0
ARC
  5
2D025
  8
0
 10
3069.4673279574149092
 20
125.7195930223511056
 30
0.0
 40
1.424472433750152
 50
263.2188942893054104
 51
267.4814621700812154
  0
ARC
  5
2D026
  8
0
 10
3069.3260774298901197
 20
124.523708545425194
 30
0.0
 40
0.2598912399570565
 50
253.7331955448557039
 51
264.0487264399664014
  0
ARC
  5
2D027
  8
0
 10
3069.3244191330259127
 20
124.0453260805020932
 30
0.0
 40
0.2513206540631897
 50
95.7748809886051617
 51
106.4431970265817995
  0
ARC
  5
2D028
  8
0
 10
3069.2709768026861639
 20
124.5745079698967999
 30
0.0
 40
0.3141294112767016
 50
253.7331955864918029
 51
264.0487265139448141
  0
ARC
  5
2D029
  8
0
 10
3069.2709767998048846
 20
123.9860813135804989
 30
0.0
 40
0.3141293963799023
 50
95.9512732407794857
 51
106.2668046587605062
  0
ARC
  5
2D02A
  8
0
 10
3069.4400863290397865
 20
125.2017504465398048
 30
0.0
 40
0.9020525245568903
 50
262.5321069400807801
 51
265.1795453216683995
  0
ARC
  5
2D02B
  8
0
 10
3069.5829097355349404
 20
127.4631948934136005
 30
0.0
 40
3.1682542760015049
 50
266.7694124647658214
 51
270.1300541919446232
  0
ARC
  5
2D02C
  8
0
 10
3069.5721693323548607
 20
120.9787195399105002
 30
0.0
 40
3.3294534678728529
 50
90.9764679400907568
 51
92.8825899388420453
  0
ARC
  5
2D02D
  8
0
 10
3069.5684270228011883
 20
120.2896949459015019
 30
0.0
 40
4.0242961572709222
 50
90.9764679877785341
 51
92.8825898794655274
  0
LINE
  5
2D02E
  8
0
 10
3069.8141552035581299
 20
124.2516901701500984
 30
0.0
 11
3069.7754696317579146
 21
124.2566290704501029
 31
0.0
  0
LINE
  5
2D02F
  8
0
 10
3069.7754696317579146
 20
124.2964965486500972
 30
0.0
 11
3069.8141552035581299
 21
124.291557648350107
 31
0.0
  0
LINE
  5
2D030
  8
0
 10
3069.8810713157581631
 20
124.2652180073501
 30
0.0
 11
3069.9417954997579727
 21
124.2620715808501046
 31
0.0
  0
LINE
  5
2D031
  8
0
 10
3069.9972167018581786
 20
124.2729538684501023
 30
0.0
 11
3069.926923389357853
 21
124.2742213388500971
 31
0.0
  0
LINE
  5
2D032
  8
0
 10
3069.926923389357853
 20
124.286367929950103
 30
0.0
 11
3069.9972167018581786
 21
124.2876354003500978
 31
0.0
  0
LINE
  5
2D033
  8
0
 10
3069.9417954997579727
 20
124.2985176879500955
 30
0.0
 11
3069.8810713157581631
 21
124.2953712614501001
 31
0.0
  0
LINE
  5
2D034
  8
0
 10
3069.7754696317579146
 20
124.3039601983500972
 30
0.0
 11
3069.8141552035581299
 21
124.3088990986501017
 31
0.0
  0
LINE
  5
2D035
  8
0
 10
3069.6803565859581795
 20
124.3134066897500958
 30
0.0
 11
3069.6647729337578312
 21
124.3076895003500937
 31
0.0
  0
LINE
  5
2D036
  8
0
 10
3069.9972167018581786
 20
124.2729538684501023
 30
0.0
 11
3069.9972167018581786
 21
124.2907264313130042
 31
0.0
  0
LINE
  5
2D037
  8
0
 10
3069.9417954997579727
 20
124.2999853629108031
 30
0.0
 11
3069.9417954997579727
 21
124.2985176879500955
 31
0.0
  0
LINE
  5
2D038
  8
0
 10
3069.926923389357853
 20
124.2742213388500971
 30
0.0
 11
3069.926923389357853
 21
124.286367929950103
 31
0.0
  0
LINE
  5
2D039
  8
0
 10
3069.8810713157581631
 20
124.2652180073501
 30
0.0
 11
3069.8810713157581631
 21
124.3056755156582938
 31
0.0
  0
LINE
  5
2D03A
  8
0
 10
3069.8141552035581299
 20
124.291557648350107
 30
0.0
 11
3069.8141552035581299
 21
124.2516901701500984
 31
0.0
  0
LINE
  5
2D03B
  8
0
 10
3069.8141552035581299
 20
124.3088990986501017
 30
0.0
 11
3069.8141552035581299
 21
124.3098709699239066
 31
0.0
  0
LINE
  5
2D03C
  8
0
 10
3069.7754696317579146
 20
124.2566290704501029
 30
0.0
 11
3069.7754696317579146
 21
124.2964965486500972
 31
0.0
  0
LINE
  5
2D03D
  8
0
 10
3069.6803565859581795
 20
124.3142433139995973
 30
0.0
 11
3069.6803565859581795
 21
124.3134066897500958
 31
0.0
  0
LINE
  5
2D03E
  8
0
 10
3069.6647729337578312
 20
124.2927672466501008
 30
0.0
 11
3069.6647729337578312
 21
124.2528997684501064
 31
0.0
  0
LINE
  5
2D03F
  8
0
 10
3069.6647729337578312
 20
124.3076895003500937
 30
0.0
 11
3069.6647729337578312
 21
124.3144910332704001
 31
0.0
  0
LINE
  5
2D040
  8
0
 10
3069.6647729337578312
 20
124.2528997684501064
 30
0.0
 11
3069.6803565859581795
 21
124.2471825790501043
 31
0.0
  0
ARC
  5
2D041
  8
0
 10
3069.5922602362670659
 20
129.0128242737781079
 30
0.0
 40
4.7672594616055326
 50
269.9740522123836968
 51
272.6724225954038729
  0
ARC
  5
2D042
  8
0
 10
3069.5901933328577798
 20
129.359483941850101
 30
0.0
 40
5.0732378300000001
 50
269.99896023199409
 51
270.8423122344219109
  0
ARC
  5
2D043
  8
0
 10
3069.5906785381580448
 20
128.4191564248500868
 30
0.0
 40
4.1270543526000001
 50
269.9919857594550763
 51
271.0287056776002146
  0
ARC
  5
2D044
  8
0
 10
3069.6888660836580129
 20
126.7580989807501055
 30
0.0
 40
2.4697213422000002
 50
272.9078666817878229
 51
274.4635382123909153
  0
ARC
  5
2D045
  8
0
 10
3069.6808398183579811
 20
125.8842715727500945
 30
0.0
 40
1.5871416515000001
 50
273.4314920329985057
 51
274.8822586650043718
  0
ARC
  5
2D046
  8
0
 10
3069.5997209848028433
 20
129.4834958152164006
 30
0.0
 40
5.24387667100049
 50
269.8948927331384198
 51
272.9274211651190853
  0
ARC
  5
2D047
  8
0
 10
3069.7594587247640447
 20
126.4179549352383987
 30
0.0
 40
2.1741803070124162
 50
272.8491711482562891
 51
276.7187284641610177
  0
ARC
  5
2D048
  8
0
 10
3069.9569250270728844
 20
124.737555463976193
 30
0.0
 40
0.4822186506887264
 50
276.7768022497999141
 51
283.15175592644988
  0
ARC
  5
2D049
  8
0
 10
3070.0540041746621682
 20
124.332012490411401
 30
0.0
 40
0.0652633300860929
 50
281.167937561685676
 51
299.7754868854148071
  0
ARC
  5
2D04A
  8
0
 10
3070.0812727862398788
 20
124.2838267824694043
 30
0.0
 40
0.0099009609856889
 50
301.2836997520082036
 51
327.0921808719609771
  0
ARC
  5
2D04B
  8
0
 10
3070.0865438779101169
 20
124.2802922861046966
 30
0.0
 40
0.0035568957769936
 50
328.7619698666595127
 51
30.1505394530143285
  0
ARC
  5
2D04C
  8
0
 10
3070.0808086529650609
 20
124.2763819113388024
 30
0.0
 40
0.0104922259953943
 50
32.8856977910697097
 51
61.0574724611749531
  0
ARC
  5
2D04D
  8
0
 10
3070.0552952455609557
 20
124.2298849030571972
 30
0.0
 40
0.0635290123730646
 50
61.2148225174346834
 51
76.0922739185374866
  0
ARC
  5
2D04E
  8
0
 10
3069.9549310223601424
 20
123.8221653020809043
 30
0.0
 40
0.4834197202392069
 50
76.1606724385949718
 51
84.0258751501703358
  0
ARC
  5
2D04F
  8
0
 10
3069.7424897587980013
 20
121.9312205726666036
 30
0.0
 40
2.3862493994151182
 50
83.6782144234721699
 51
87.4756921738505611
  0
ARC
  5
2D050
  8
0
 10
3069.5966290751780434
 20
118.8988239769077069
 30
0.0
 40
5.4221412536136366
 50
87.3471698455421546
 51
90.0689793821811122
  0
ARC
  5
2D051
  8
0
 10
3069.7066369937238051
 20
126.5171146838380025
 30
0.0
 40
2.2689322152012719
 50
272.7257491559175264
 51
275.3461633419273085
  0
ARC
  5
2D052
  8
0
 10
3069.8385475868449248
 20
125.1163412625509039
 30
0.0
 40
0.8619621371892471
 50
275.2914725252737185
 51
279.0340499764556057
  0
ARC
  5
2D053
  8
0
 10
3069.9414807201578697
 20
124.4821812340314011
 30
0.0
 40
0.2195158825560639
 50
278.4912539474503888
 51
286.5327938749135797
  0
ARC
  5
2D054
  8
0
 10
3069.9898133841838899
 20
124.3188504226917956
 30
0.0
 40
0.0491841231452986
 50
286.7001191625865886
 51
297.5092624634327763
  0
ARC
  5
2D055
  8
0
 10
3070.0071976837389229
 20
124.2859406351308991
 30
0.0
 40
0.0119675587567484
 50
296.4655266057803829
 51
319.6159238317563904
  0
ARC
  5
2D056
  8
0
 10
3070.0138987468058076
 20
124.2802713796964014
 30
0.0
 40
0.0031901635173334
 50
319.1974905845344779
 51
24.9401979253801507
  0
ARC
  5
2D057
  8
0
 10
3070.0100516554930437
 20
124.2777997655007027
 30
0.0
 40
0.0077454858762558
 50
29.5234379283695887
 51
58.2468715118057716
  0
ARC
  5
2D058
  8
0
 10
3069.9914417049380972
 20
124.2464583086339047
 30
0.0
 40
0.0441946102444632
 50
59.1145983019725492
 51
73.4676243001058253
  0
ARC
  5
2D059
  8
0
 10
3069.9432108153068839
 20
124.0843552168438038
 30
0.0
 40
0.2133206833470248
 50
73.4382414932501177
 51
80.7744809238742647
  0
ARC
  5
2D05A
  8
0
 10
3069.867905307060937
 20
123.6524640944342934
 30
0.0
 40
0.6517181968719702
 50
80.3269643265802671
 51
83.2032408547754869
  0
ARC
  5
2D05B
  8
0
 10
3069.7915854169009435
 20
123.0164114771621939
 30
0.0
 40
1.29233315718814
 50
83.1807141643422057
 51
85.2497604574413685
  0
ARC
  5
2D05C
  8
0
 10
3069.6750644268481665
 20
121.5556762527394028
 30
0.0
 40
2.7577046223866679
 50
85.3504480169820283
 51
87.6283600955952835
  0
ARC
  5
2D05D
  8
0
 10
3069.600513489558125
 20
119.7817285398606941
 30
0.0
 40
4.5332179627534757
 50
87.6147204669170208
 51
89.2691351981847561
  0
ARC
  5
2D05E
  8
0
 10
3069.5902443170020888
 20
119.1199029885987954
 30
0.0
 40
5.195120981120791
 50
89.2489931268491858
 51
90.0015776661690552
  0
ARC
  5
2D05F
  8
0
 10
3069.6080331879488767
 20
127.5818701299589009
 30
0.0
 40
3.3294538691140589
 50
270.9764680549321838
 51
272.8825898239761045
  0
ARC
  5
2D060
  8
0
 10
3069.6105339459190873
 20
128.3077476420602068
 30
0.0
 40
4.0611653293112706
 50
270.9851211112717806
 51
272.8739367559629727
  0
ARC
  5
2D061
  8
0
 10
3069.7128745764021005
 20
125.7195930223511056
 30
0.0
 40
1.424472433750152
 50
272.5185378299187846
 51
276.7811057106945896
  0
ARC
  5
2D062
  8
0
 10
3069.85412510392689
 20
124.523708545425194
 30
0.0
 40
0.2598912399570565
 50
275.9512735600335986
 51
286.2668044551443245
  0
ARC
  5
2D063
  8
0
 10
3069.8557834007901874
 20
124.0453260805020932
 30
0.0
 40
0.2513206540631897
 50
73.5568029734181863
 51
84.2251190113948383
  0
ARC
  5
2D064
  8
0
 10
3069.9092257311299363
 20
124.5745079698967999
 30
0.0
 40
0.3141294112767016
 50
275.9512734860551859
 51
286.2668044135082255
  0
ARC
  5
2D065
  8
0
 10
3069.909225734012125
 20
123.9860813135804989
 30
0.0
 40
0.3141293963799023
 50
73.7331953412394796
 51
84.0487267592205143
  0
ARC
  5
2D066
  8
0
 10
3069.7401162047758589
 20
125.2017504465398048
 30
0.0
 40
0.9020525245568903
 50
274.8204546783317141
 51
277.4678930599192199
  0
ARC
  5
2D067
  8
0
 10
3069.5972927982811598
 20
127.4631948934136005
 30
0.0
 40
3.1682542760015049
 50
269.8699458080553768
 51
273.2305875352341786
  0
ARC
  5
2D068
  8
0
 10
3069.6080332014607848
 20
120.9787195399105002
 30
0.0
 40
3.3294534678728529
 50
87.1174100611579263
 51
89.0235320599092432
  0
ARC
  5
2D069
  8
0
 10
3069.6117755110149119
 20
120.2896949459015019
 30
0.0
 40
4.0242961572709222
 50
87.1174101205344584
 51
89.0235320122214802
  0
ENDSEC
  0
EOF
