  0
SECTION
  2
HEADER
  9
$ACADVER
  1
AC1009
  9
$INSBASE
 10
5268.005264360855108
 20
-6.1768220533731544
 30
0.0
  9
$EXTMIN
 10
5260.4512770315814123
 20
-9.2831894152776897
 30
-0.0015258207003583
  9
$EXTMAX
 10
5268.0881618509847613
 20
-4.9475495270480669
 30
0.0000000349246037
  9
$LIMMIN
 10
0.0
 20
0.0
  9
$LIMMAX
 10
11.6929133858000007
 20
8.2677165353999982
  9
$ORTHOMODE
 70
     0
  9
$REGENMODE
 70
     1
  9
$FILLMODE
 70
     1
  9
$QTEXTMODE
 70
     0
  9
$MIRRTEXT
 70
     0
  9
$DRAGMODE
 70
     2
  9
$LTSCALE
 40
0.6431102362
  9
$OSMODE
 70
  4095
  9
$ATTMODE
 70
     1
  9
$TEXTSIZE
 40
0.2
  9
$TRACEWID
 40
0.05
  9
$TEXTSTYLE
  7
STANDARD
  9
$CLAYER
  8
0
  9
$CELTYPE
  6
BYLAYER
  9
$CECOLOR
 62
   256
  9
$DIMSCALE
 40
1.0
  9
$DIMASZ
 40
0.1875
  9
$DIMEXO
 40
0.0625
  9
$DIMDLI
 40
0.4443307087
  9
$DIMRND
 40
0.0
  9
$DIMDLE
 40
0.0
  9
$DIMEXE
 40
0.125
  9
$DIMTP
 40
0.01
  9
$DIMTM
 40
0.01
  9
$DIMTXT
 40
2.0
  9
$DIMCEN
 40
0.1052362205
  9
$DIMTSZ
 40
0.0
  9
$DIMTOL
 70
     1
  9
$DIMLIM
 70
     0
  9
$DIMTIH
 70
     1
  9
$DIMTOH
 70
     1
  9
$DIMSE1
 70
     0
  9
$DIMSE2
 70
     0
  9
$DIMTAD
 70
     0
  9
$DIMZIN
 70
     0
  9
$DIMBLK
  1

  9
$DIMASO
 70
     1
  9
$DIMSHO
 70
     1
  9
$DIMPOST
  1
\X
  9
$DIMAPOST
  1

  9
$DIMALT
 70
     1
  9
$DIMALTD
 70
     2
  9
$DIMALTF
 40
25.3999999999999986
  9
$DIMLFAC
 40
1.0
  9
$DIMTOFL
 70
     0
  9
$DIMTVP
 40
0.0
  9
$DIMTIX
 70
     0
  9
$DIMSOXD
 70
     0
  9
$DIMSAH
 70
     0
  9
$DIMBLK1
  1

  9
$DIMBLK2
  1

  9
$DIMSTYLE
  2
STANDARD
  9
$DIMCLRD
 70
     0
  9
$DIMCLRE
 70
     0
  9
$DIMCLRT
 70
     0
  9
$DIMTFAC
 40
1.0
  9
$DIMGAP
 40
0.09
  9
$LUNITS
 70
     2
  9
$LUPREC
 70
     4
  9
$SKETCHINC
 40
0.1
  9
$FILLETRAD
 40
0.0
  9
$AUNITS
 70
     0
  9
$AUPREC
 70
     0
  9
$MENU
  1
.
  9
$ELEVATION
 40
0.0
  9
$PELEVATION
 40
0.0
  9
$THICKNESS
 40
0.0
  9
$LIMCHECK
 70
     0
  9
$BLIPMODE
 70
     0
  9
$CHAMFERA
 40
0.0
  9
$CHAMFERB
 40
0.0
  9
$SKPOLY
 70
     0
  9
$TDCREATE
 40
2458060.468368056230247
  9
$TDUPDATE
 40
2460112.485335648059845
  9
$TDINDWG
 40
0.5978311343
  9
$TDUSRTIMER
 40
0.5978311343
  9
$USRTIMER
 70
     1
  9
$ANGBASE
 50
0.0
  9
$ANGDIR
 70
     0
  9
$PDMODE
 70
     0
  9
$PDSIZE
 40
0.3125
  9
$PLINEWID
 40
0.0
  9
$COORDS
 70
     1
  9
$SPLFRAME
 70
     0
  9
$SPLINETYPE
 70
     6
  9
$SPLINESEGS
 70
     8
  9
$ATTDIA
 70
     1
  9
$ATTREQ
 70
     1
  9
$HANDLING
 70
     1
  9
$HANDSEED
  5
22299
  9
$SURFTAB1
 70
     6
  9
$SURFTAB2
 70
     6
  9
$SURFTYPE
 70
     6
  9
$SURFU
 70
     6
  9
$SURFV
 70
     6
  9
$UCSNAME
  2

  9
$UCSORG
 10
0.0
 20
0.0
 30
0.0
  9
$UCSXDIR
 10
1.0
 20
0.0
 30
0.0
  9
$UCSYDIR
 10
0.0
 20
1.0
 30
0.0
  9
$PUCSNAME
  2

  9
$PUCSORG
 10
0.0
 20
0.0
 30
0.0
  9
$PUCSXDIR
 10
1.0
 20
0.0
 30
0.0
  9
$PUCSYDIR
 10
0.0
 20
1.0
 30
0.0
  9
$USERI1
 70
     0
  9
$USERI2
 70
     0
  9
$USERI3
 70
     0
  9
$USERI4
 70
     0
  9
$USERI5
 70
     0
  9
$USERR1
 40
0.0
  9
$USERR2
 40
0.0
  9
$USERR3
 40
0.0
  9
$USERR4
 40
0.0
  9
$USERR5
 40
0.0
  9
$WORLDVIEW
 70
     1
  9
$SHADEDGE
 70
     3
  9
$SHADEDIF
 70
    70
  9
$TILEMODE
 70
     1
  9
$MAXACTVP
 70
    64
  9
$PLIMCHECK
 70
     0
  9
$PEXTMIN
 10
1.0000000000000000E+20
 20
1.0000000000000000E+20
 30
1.0000000000000000E+20
  9
$PEXTMAX
 10
-1.0000000000000000E+20
 20
-1.0000000000000000E+20
 30
-1.0000000000000000E+20
  9
$PLIMMIN
 10
0.0
 20
0.0
  9
$PLIMMAX
 10
12.0
 20
9.0
  9
$UNITMODE
 70
     0
  9
$VISRETAIN
 70
     1
  9
$PLINEGEN
 70
     0
  9
$PSLTSCALE
 70
     1
  0
ENDSEC
  0
SECTION
  2
TABLES
  0
TABLE
  2
VPORT
 70
     1
  0
VPORT
  2
*ACTIVE
 70
     0
 10
0.0
 20
0.0
 11
1.0
 21
1.0
 12
1471.9118092850330868
 22
-127.2960259042683049
 13
0.0
 23
0.0
 14
1.0
 24
1.0
 15
0.0
 25
0.0
 16
0.0
 26
0.0
 36
5.1040778033513332
 17
3792.35791015625
 27
120.1806564331053977
 37
0.0
 40
4.37452455090434
 41
2.8398203592814371
 42
50.0
 43
0.0
 44
0.0
 50
0.0
 51
0.0
 71
     0
 72
   100
 73
     1
 74
     1
 75
     0
 76
     0
 77
     0
 78
     0
  0
ENDTAB
  0
TABLE
  2
LTYPE
 70
     2
  0
LTYPE
  2
CONTINUOUS
 70
     0
  3
Solid line
 72
    65
 73
     0
 40
0.0
  0
LTYPE
  2
PHANTOM2
 70
     0
  3
___ _ _ ___ _ _ ___ _ _ ___ _ _
 72
    65
 73
     6
 40
1.25
 49
0.625
 49
-0.125
 49
0.125
 49
-0.125
 49
0.125
 49
-0.125
  0
ENDTAB
  0
TABLE
  2
LAYER
 70
     2
  0
LAYER
  2
0
 70
     0
 62
   255
  6
CONTINUOUS
  0
LAYER
  2
DEFPOINTS
 70
     0
 62
     7
  6
CONTINUOUS
  0
ENDTAB
  0
TABLE
  2
STYLE
 70
     1
  0
STYLE
  2
STANDARD
 70
     0
 40
0.0
 41
0.8
 50
0.0
 71
     0
 42
0.2
  3
txt
  4

  0
ENDTAB
  0
TABLE
  2
VIEW
 70
     0
  0
ENDTAB
  0
TABLE
  2
UCS
 70
     0
  0
ENDTAB
  0
TABLE
  2
APPID
 70
     9
  0
APPID
  2
ACAD
 70
     0
  0
APPID
  2
ACAD_MLEADERVER
 70
     0
  0
APPID
  2
ACAD_EXEMPT_FROM_CAD_STANDARDS
 70
     0
  0
APPID
  2
ACAD_NAV_VCDISPLAY
 70
     0
  0
APPID
  2
ACAECLAYERSTANDARD
 70
     0
  0
APPID
  2
ACCMTRANSPARENCY
 70
     0
  0
APPID
  2
ACAD_DSTYLE_DIMJAG
 70
     0
  0
APPID
  2
ACAD_DSTYLE_DIMTALN
 70
     0
  0
APPID
  2
ACDBATTR
 70
     0
  0
ENDTAB
  0
TABLE
  2
DIMSTYLE
 70
     1
  0
DIMSTYLE
  2
STANDARD
 70
     0
  3

  4

  5

  6

  7

 40
1.0
 41
0.1875
 42
0.0625
 43
0.38
 44
0.125
 45
0.0
 46
0.0
 47
0.01
 48
0.01
140
0.15625
141
0.09
142
0.0
143
25.3999999999999986
144
1.0
145
0.0
146
1.0
147
0.09
 71
     1
 72
     0
 73
     1
 74
     1
 75
     0
 76
     0
 77
     0
 78
     4
170
     0
171
     2
172
     0
173
     0
174
     0
175
     0
176
     0
177
     0
178
     0
  0
ENDTAB
  0
ENDSEC
  0
SECTION
  2
BLOCKS
  0
BLOCK
  8
0
  2
$MODEL_SPACE
 70
     0
 10
0.0
 20
0.0
 30
0.0
  3
$MODEL_SPACE
  1

  0
ENDBLK
  5
21
  8
0
  0
BLOCK
 67
     1
  8
0
  2
$PAPER_SPACE
 70
     0
 10
0.0
 20
0.0
 30
0.0
  3
$PAPER_SPACE
  1

  0
ENDBLK
  5
1D
 67
     1
  8
0
  0
BLOCK
  8
0
  2
_FILLED
 70
     0
 10
0.0
 20
0.0
 30
0.0
  3
_FILLED
  1

  0
SOLID
  5
1CCA0
  8
0
  6
BYBLOCK
 62
     0
 10
0.0
 20
0.0
 30
0.0
 11
-1.0
 21
0.1666666667
 31
0.0
 12
-1.0
 22
-0.1666666667
 32
0.0
 13
-1.0
 23
-0.1666666667
 33
0.0
  0
ENDBLK
  5
1CCA1
  8
0
  6
BYBLOCK
 62
     0
  0
BLOCK
  8
0
  2
A$C54BF7565
 70
     0
 10
0.0
 20
0.0
 30
0.0
  3
A$C54BF7565
  1

  0
LINE
  5
1EDB5
  8
0
 10
4.213411105075707
 20
0.392500014379415
 30
0.0
 11
4.2134111050757026
 21
29.1282889381617487
 31
0.0
  0
LINE
  5
1EDB6
  8
0
 10
4.6059111050757053
 20
29.5207889381617505
 30
0.0
 11
70.7849254185449297
 21
29.5207889381617505
 31
0.0
  0
ARC
  5
1EDB7
  8
0
 10
4.6059111050757009
 20
29.1282889381617487
 30
0.0
 40
0.3925
 50
89.9999999999993889
 51
180.0
  0
LINE
  5
1EDB8
  8
0
 10
5.89937377115979
 20
28.8903825271539816
 30
0.0
 11
69.4914627524608335
 21
28.8903825271539816
 31
0.0
  0
LINE
  5
1EDB9
  8
0
 10
4.8893737711618419
 20
1.6404064253871229
 30
0.0
 11
4.8893737711597574
 21
27.8803825271538983
 31
0.0
  0
ARC
  5
1EDBA
  8
0
 10
5.8993737711597944
 20
27.8803825271539587
 30
0.0
 40
1.01
 50
90.0000000000001847
 51
180.0000000000036096
  0
LINE
  5
1EDBB
  8
0
 10
10.9121358131603206
 20
28.1376674354441683
 30
0.0
 11
64.4787007104603163
 21
28.1376674354441683
 31
0.0
  0
LINE
  5
1EDBC
  8
0
 10
8.9771358131603112
 20
26.2026674354441695
 30
0.0
 11
8.9771358131603094
 21
3.3181215170969902
 31
0.0
  0
ARC
  5
1EDBD
  8
0
 10
10.9121358131603099
 20
26.2026674354441802
 30
0.0
 40
1.9350000000000001
 50
89.999999999999801
 51
180.000000000000199
  0
LINE
  5
1EDBE
  8
0
 10
5.1851959221613591
 20
28.5945603761523515
 30
0.0
 11
9.5438841915643415
 21
27.5709190570401397
 31
0.0
  0
CIRCLE
  5
1EDBF
  8
0
 10
17.9746459467603117
 20
14.7603944762705801
 30
0.0
 40
2.6574803149999968
  0
CIRCLE
  5
1EDC0
  8
0
 10
17.9746459467603117
 20
14.7603944762705801
 30
0.0
 40
1.318897637799999
  0
LINE
  5
1EDC1
  8
0
 10
19.4313388601603094
 20
16.6895283345705785
 30
0.0
 11
16.5179530334603086
 21
16.6895283345705785
 31
0.0
  0
LINE
  5
1EDC2
  8
0
 10
16.5179530334603086
 20
12.8312606180704591
 30
0.0
 11
16.5179530334603086
 21
16.6895283345705785
 31
0.0
  0
LINE
  5
1EDC3
  8
0
 10
19.4313388601603094
 20
12.8312606180707007
 30
0.0
 11
19.4313388601603094
 21
16.6895283345705785
 31
0.0
  0
LINE
  5
1EDC4
  8
0
 10
16.5179530334603086
 20
12.8312606180704591
 30
0.0
 11
19.4313388601603094
 21
12.8312606180707007
 31
0.0
  0
LINE
  5
1EDC5
  8
0
 10
71.1774254185449422
 20
0.392500014379415
 30
0.0
 11
71.177425418544928
 21
29.1282889381617487
 31
0.0
  0
ARC
  5
1EDC6
  8
0
 10
70.7849254185449297
 20
29.1282889381617487
 30
0.0
 40
0.3925
 50
0.0
 51
90.0000000000003979
  0
LINE
  5
1EDC7
  8
0
 10
70.5014627524587922
 20
1.6404064253871229
 30
0.0
 11
70.5014627524608812
 21
27.8803825271538983
 31
0.0
  0
ARC
  5
1EDC8
  8
0
 10
69.4914627524608477
 20
27.8803825271539587
 30
0.0
 40
1.01
 50
359.9999999999964189
 51
89.999999999999801
  0
LINE
  5
1EDC9
  8
0
 10
66.4137007104603185
 20
26.2026674354441695
 30
0.0
 11
66.4137007104603185
 21
3.3181215170969902
 31
0.0
  0
ARC
  5
1EDCA
  8
0
 10
64.4787007104603163
 20
26.2026674354441802
 30
0.0
 40
1.9350000000000001
 50
359.9999999999997726
 51
90.0
  0
LINE
  5
1EDCB
  8
0
 10
70.2056406014592795
 20
28.5945603761523515
 30
0.0
 11
65.8469523320562757
 21
27.5709190570401397
 31
0.0
  0
LINE
  5
1EDCC
  8
0
 10
6.0587804917603156
 20
16.9648612744813292
 30
0.0
 11
6.0587804917603156
 21
12.5707899059285495
 31
0.0
  0
LINE
  5
1EDCD
  8
0
 10
6.1845708572603106
 20
16.9745707898439697
 30
0.0
 11
6.1845708572603106
 21
12.5516456001736803
 31
0.0
  0
ARC
  5
1EDCE
  8
0
 10
6.6768621544985933
 20
16.9224693827637793
 30
0.0
 40
0.6195337071513586
 50
164.1442345569018073
 51
176.0764429610183868
  0
ARC
  5
1EDCF
  8
0
 10
6.2840565643031701
 20
17.0322553910392891
 30
0.0
 40
0.2116849357968146
 50
148.9114272159978043
 51
163.6808251279447859
  0
ARC
  5
1EDD0
  8
0
 10
6.1492013395549563
 20
17.1135685847582408
 30
0.0
 40
0.0542118678941835
 50
122.0236997237583978
 51
148.9114272159970938
  0
ARC
  5
1EDD1
  8
0
 10
6.1294117326997544
 20
17.1440896121663009
 30
0.0
 40
0.0178513052483979
 50
68.3637245332240724
 51
120.1174353847827945
  0
ARC
  5
1EDD2
  8
0
 10
6.1093204837146011
 20
17.1172519626224791
 30
0.0
 40
0.0509679580751473
 50
18.2421840615057
 51
58.4438507226990467
  0
ARC
  5
1EDD3
  8
0
 10
5.8217205392181093
 20
17.0102690391100708
 30
0.0
 40
0.3577903413166022
 50
5.3853596804652684
 51
20.0965078311244412
  0
ARC
  5
1EDD4
  8
0
 10
3.097786928403635
 20
16.7137066941642907
 30
0.0
 40
3.0977871295269188
 50
4.8305879622378782
 51
6.1178368155844636
  0
ARC
  5
1EDD5
  8
0
 10
6.6288147452080004
 20
12.5871305066994204
 30
0.0
 40
0.5702684151671137
 50
181.6419910366743125
 51
196.0954335816371099
  0
ARC
  5
1EDD6
  8
0
 10
6.2840565643031701
 20
12.4885112934841995
 30
0.0
 40
0.2116849357968146
 50
196.3191748720554131
 51
211.0885727840025083
  0
ARC
  5
1EDD7
  8
0
 10
6.1492013395549563
 20
12.4071980997652496
 30
0.0
 40
0.0542118678941835
 50
211.0885727840025936
 51
237.9763002762416022
  0
ARC
  5
1EDD8
  8
0
 10
6.1294117326997544
 20
12.3766770723571895
 30
0.0
 40
0.0178513052483979
 50
239.8825646152172055
 51
291.636275466775885
  0
ARC
  5
1EDD9
  8
0
 10
6.1093204837146011
 20
12.4035147219010096
 30
0.0
 40
0.0509679580751473
 50
301.5561492773010173
 51
341.7578159384942751
  0
ARC
  5
1EDDA
  8
0
 10
5.8217205392181093
 20
12.5104976454134196
 30
0.0
 40
0.3577903413166022
 50
339.9034921688755162
 51
354.6146403195347148
  0
ARC
  5
1EDDB
  8
0
 10
4.494339004003983
 20
12.6641567549704206
 30
0.0
 40
1.6939723957951669
 50
353.6539827235096141
 51
356.1916950896656999
  0
LINE
  5
1EDDC
  8
0
 10
4.6059111050757053
 20
0.0000000143794168
 30
0.0
 11
70.7849254185449297
 21
0.0000000143794168
 31
0.0
  0
ARC
  5
1EDDD
  8
0
 10
4.6059111050757009
 20
0.392500014379415
 30
0.0
 40
0.3925
 50
180.0
 51
270.0000000000003979
  0
LINE
  5
1EDDE
  8
0
 10
5.89937377115979
 20
0.6304064253871929
 30
0.0
 11
69.4914627524608335
 21
0.6304064253871929
 31
0.0
  0
ARC
  5
1EDDF
  8
0
 10
5.8993737711597944
 20
1.640406425387205
 30
0.0
 40
1.01
 50
179.9999999999967031
 51
269.9999999999997726
  0
LINE
  5
1EDE0
  8
0
 10
10.9121358131603206
 20
1.383121517096995
 30
0.0
 11
64.4787007104603163
 21
1.383121517096995
 31
0.0
  0
ARC
  5
1EDE1
  8
0
 10
10.9121358131603099
 20
3.3181215170969902
 30
0.0
 40
1.9350000000000001
 50
180.0
 51
270.0
  0
LINE
  5
1EDE2
  8
0
 10
5.1851959221613591
 20
0.9262285763888158
 30
0.0
 11
9.5438841915643415
 21
1.9498698955010241
 31
0.0
  0
ARC
  5
1EDE3
  8
0
 10
70.7849254185449297
 20
0.392500014379415
 30
0.0
 40
0.3925
 50
269.9999999999993747
 51
0.0
  0
ARC
  5
1EDE4
  8
0
 10
69.4914627524608477
 20
1.640406425387205
 30
0.0
 40
1.01
 50
270.0000000000002274
 51
0.0000000000032569
  0
ARC
  5
1EDE5
  8
0
 10
64.4787007104603163
 20
3.3181215170969902
 30
0.0
 40
1.9350000000000001
 50
269.9999999999997726
 51
0.0
  0
LINE
  5
1EDE6
  8
0
 10
70.2056406014592795
 20
0.9262285763888158
 30
0.0
 11
65.8469523320562757
 21
1.9498698955010241
 31
0.0
  0
LINE
  5
1EDE7
  8
0
 10
37.6954182618103175
 20
14.7603944762705801
 30
0.0
 11
52.5300195105287386
 21
42.8960013024525324
 31
0.0
  0
ENDBLK
  5
1EDEB
  8
0
  0
ENDSEC
  0
SECTION
  2
ENTITIES
  0
ATTDEF
  5
3930
  8
DEFPOINTS
 10
5268.0059626655247484
 20
-6.173182358015878
 30
0.0
 40
0.001
  1
P21803-CR
  3

  2
MODELNUMBER
 70
     0
1001
ACDBATTR
1070
     0
1070
     1
  0
ATTDEF
  5
3931
  8
DEFPOINTS
 10
5268.0059626655247484
 20
-6.174849024682544
 30
0.0
 40
0.001
  1
ONE
  3

  2
TRADENAME
 70
     0
1001
ACDBATTR
1070
     0
1070
     1
  0
ATTDEF
  5
3932
  8
DEFPOINTS
 10
5268.0059626655247484
 20
-6.1765156913492092
 30
0.0
 40
0.001
  1
BATHROOM SINK FAUCET
  3

  2
PRODUCT
 70
     0
1001
ACDBATTR
1070
     0
1070
     1
  0
LINE
  5
21C24
  8
0
 10
5268.005264360855108
 20
-7.3018220533731499
 30
0.0
 11
5268.005264360855108
 21
-5.051822053373157
 31
0.0
  0
LINE
  5
21C25
  8
0
 10
5268.005264360855108
 20
-5.051822053373157
 30
0.0
 11
5267.6152643608547805
 21
-5.051822053373157
 31
0.0
  0
ARC
  5
21C26
  8
0
 10
5267.6152643608547805
 20
-5.0618220533731551
 30
0.0
 40
0.0100000000000007
 50
90.0
 51
180.0000022918262914
  0
LINE
  5
21C27
  8
0
 10
5267.6052643608563812
 20
-5.0618220537731551
 30
0.0
 11
5267.6052643608563812
 21
-7.2918220533731519
 31
0.0
  0
LINE
  5
21C28
  8
0
 10
5267.6052643608563812
 20
-5.770822053373152
 30
0.0
 11
5266.5152643608553262
 21
-5.770822053373152
 31
0.0
  0
LINE
  5
21C29
  8
0
 10
5265.7186986899178009
 20
-5.770822053373152
 30
0.0
 11
5263.0066043945516867
 21
-5.770822053373152
 31
0.0
  0
LINE
  5
21C2A
  8
0
 10
5267.6052643608563812
 20
-6.5828220533731558
 30
0.0
 11
5266.5152643608553262
 21
-6.5828220533731558
 31
0.0
  0
LINE
  5
21C2B
  8
0
 10
5265.7186986899178009
 20
-6.5828220533731558
 30
0.0
 11
5263.0066043945516867
 21
-6.5828220533731558
 31
0.0
  0
LINE
  5
21C2C
  8
0
 10
5266.5152643608553262
 20
-5.0201166869731528
 30
0.0
 11
5266.5152643608553262
 21
-7.333527419773155
 31
0.0
  0
LINE
  5
21C2D
  8
0
 10
5267.6052643608563812
 20
-5.8968220533731559
 30
0.0
 11
5266.5302643608547442
 21
-5.8968220533731559
 31
0.0
  0
ARC
  5
21C2E
  8
0
 10
5266.5302643608547442
 20
-5.9118220533731574
 30
0.0
 40
0.0150000000000006
 50
90.0
 51
179.9999999999965041
  0
ARC
  5
21C2F
  8
0
 10
5263.0066043945516867
 20
-8.1768220533647291
 30
0.0
 40
2.4059999999915789
 50
89.9999999998957776
 51
174.9999999990089066
  0
ARC
  5
21C30
  8
0
 10
5263.0066043945516867
 20
-8.1768220533647291
 30
0.0
 40
1.593999999991579
 50
89.9999999998957776
 51
174.9999999990089066
  0
LINE
  5
21C31
  8
0
 10
5260.6097599509557767
 20
-7.9671253362731562
 30
0.0
 11
5260.5016808708560347
 21
-9.2024748747731522
 31
0.0
  0
LINE
  5
21C32
  8
0
 10
5261.4186700458058112
 20
-8.0378957993772815
 30
0.0
 11
5261.3105909657060693
 21
-9.2732453378772774
 31
0.0
  0
LINE
  5
21C33
  8
0
 10
5260.5107712640547106
 20
-9.2133083794731547
 30
0.0
 11
5261.2997574576538682
 21
-9.2823357271731552
 31
0.0
  0
ARC
  5
21C34
  8
0
 10
5260.5116428178716887
 20
-9.2033464321449685
 30
0.0
 40
0.0100000000312891
 50
175.0000003358213974
 51
265.0000207800889029
  0
ARC
  5
21C35
  8
0
 10
5261.3006290186804108
 20
-9.2723737804095432
 30
0.0
 40
0.010000000097049
 50
264.9999793586347892
 51
354.999999840829787
  0
ARC
  5
21C36
  8
0
 10
5266.4852643608546714
 20
-5.0201166869731528
 30
0.0
 40
0.0299999999999976
 50
0.0
 51
86.6486645278900909
  0
LINE
  5
21C37
  8
0
 10
5266.4870181156547915
 20
-4.9901679917731547
 30
0.0
 11
5265.7769885395564415
 21
-4.9485896284731581
 31
0.0
  0
ARC
  5
21C38
  8
0
 10
5265.7752347848472709
 20
-4.9785383236696097
 30
0.0
 40
0.0299999999924038
 50
86.6486645735645737
 51
177.1345336238483128
  0
LINE
  5
21C39
  8
0
 10
5266.4869491975550773
 20
-6.065229325373152
 30
0.0
 11
5265.7485714169552011
 21
-6.0236955752731509
 31
0.0
  0
ARC
  5
21C3A
  8
0
 10
5265.7468574810436621
 20
-6.0549594696926761
 30
0.0
 40
0.0313108395061734
 50
86.8620962081832033
 51
177.3051430341234038
  0
ARC
  5
21C3B
  8
0
 10
5266.4852643608383005
 20
-6.0951819767803812
 30
0.0
 40
0.0300000000181626
 50
359.9999999403021889
 51
86.7805049572831564
  0
LINE
  5
21C3C
  8
0
 10
5268.005264360855108
 20
-7.3018220533731499
 30
0.0
 11
5267.6152643608547805
 21
-7.3018220533731499
 31
0.0
  0
ARC
  5
21C3D
  8
0
 10
5267.6152643608547805
 20
-7.2918220533731519
 30
0.0
 40
0.0100000000000007
 50
179.9999977081737086
 51
270.0
  0
LINE
  5
21C3E
  8
0
 10
5267.6052643608563812
 20
-6.4568220533731511
 30
0.0
 11
5266.5302643608547442
 21
-6.4568220533731511
 31
0.0
  0
ARC
  5
21C3F
  8
0
 10
5266.5302643608547442
 20
-6.4418220533731514
 30
0.0
 40
0.0150000000000006
 50
180.0000000000032117
 51
270.0
  0
ARC
  5
21C40
  8
0
 10
5266.4852643608546714
 20
-7.333527419773155
 30
0.0
 40
0.0299999999999976
 50
273.3513354721098949
 51
0.0
  0
LINE
  5
21C41
  8
0
 10
5266.4870181156547915
 20
-7.3634761149731531
 30
0.0
 11
5265.7769885395564415
 21
-7.4050544782731498
 31
0.0
  0
ARC
  5
21C42
  8
0
 10
5265.7752347848472709
 20
-7.3751057830766911
 30
0.0
 40
0.0299999999924038
 50
182.865466376151403
 51
273.351335426435412
  0
LINE
  5
21C43
  8
0
 10
5266.4869491975550773
 20
-6.288414781373155
 30
0.0
 11
5265.7485714169552011
 21
-6.3299485314731561
 31
0.0
  0
ARC
  5
21C44
  8
0
 10
5266.4852643608383005
 20
-6.2584621299659267
 30
0.0
 40
0.0300000000181626
 50
273.2194950427169147
 51
0.0000000596977391
  0
ARC
  5
21C45
  8
0
 10
5289.7152643044437355
 20
-6.1768220533731721
 30
0.0
 40
23.9999999435882714
 50
177.1345336114509053
 51
182.8654663885488958
  0
LINE
  5
21C46
  8
0
 10
5266.4852640853550838
 20
-5.9278006194731532
 30
0.0
 11
5265.7465678573553305
 21
-5.9510035424731518
 31
0.0
  0
ARC
  5
21C47
  8
0
 10
5266.4853394434949223
 20
-5.957920263996356
 30
0.0
 40
0.0301197387945722
 50
6.5542565886905608
 51
90.1433514397472209
  0
ARC
  5
21C48
  8
0
 10
5265.7464605526520245
 20
-5.9816318855731154
 30
0.0
 40
0.0306285310674196
 50
89.7992682337909685
 51
172.5475389866923024
  0
LINE
  5
21C49
  8
0
 10
5266.4852640853550838
 20
-6.4258434872731547
 30
0.0
 11
5265.7465678573553305
 21
-6.4026405642731561
 31
0.0
  0
ARC
  5
21C4A
  8
0
 10
5266.4853394434949223
 20
-6.395723842749951
 30
0.0
 40
0.0301197387945722
 50
269.8566485602527791
 51
353.4457434113091949
  0
ARC
  5
21C4B
  8
0
 10
5265.7464605526520245
 20
-6.3720122211731933
 30
0.0
 40
0.0306285310674196
 50
187.4524610133076976
 51
270.2007317662090031
  0
ARC
  5
21C4C
  8
0
 10
5265.7468574810436621
 20
-6.2986846370536318
 30
0.0
 40
0.0313108395061734
 50
182.6948569658765109
 51
273.1379037918168251
  0
LINE
  5
21C4D
  8
0
 10
5265.7452722947546135
 20
-6.0550906488731542
 30
0.0
 11
5265.7452722947546135
 21
-6.2985534577731519
 31
0.0
  0
ARC
  5
21C4E
  8
0
 10
5265.7751286770317165
 20
-6.2985534577731519
 30
0.0
 40
0.0298563822764777
 50
180.0000000000017906
 51
272.5010489543186054
  0
ARC
  5
21C4F
  8
0
 10
5265.7752594885778308
 20
-6.0552295563447336
 30
0.0
 40
0.0299875155476694
 50
87.4648250656339457
 51
179.7345948745195869
  0
ENDSEC
  0
EOF
