  0
SECTION
  2
HEADER
  9
$ACADVER
  1
AC1009
  9
$INSBASE
 10
4364.0495091733037043
 20
135.4147667760134084
 30
0.0
  9
$EXTMIN
 10
4358.6433983913229895
 20
126.7020246540102022
 30
-0.0000000349181948
  9
$EXTMAX
 10
4369.3111451610411677
 20
135.4225656982042949
 30
0.0000000814935746
  9
$LIMMIN
 10
0.0
 20
0.0
  9
$LIMMAX
 10
11.6929133858000007
 20
8.2677165353999982
  9
$ORTHOMODE
 70
     0
  9
$REGENMODE
 70
     1
  9
$FILLMODE
 70
     1
  9
$QTEXTMODE
 70
     0
  9
$MIRRTEXT
 70
     0
  9
$DRAGMODE
 70
     2
  9
$LTSCALE
 40
0.6431102362
  9
$OSMODE
 70
  4095
  9
$ATTMODE
 70
     1
  9
$TEXTSIZE
 40
0.2
  9
$TRACEWID
 40
0.05
  9
$TEXTSTYLE
  7
STANDARD
  9
$CLAYER
  8
0
  9
$CELTYPE
  6
BYLAYER
  9
$CECOLOR
 62
   256
  9
$DIMSCALE
 40
1.0
  9
$DIMASZ
 40
0.1875
  9
$DIMEXO
 40
0.0625
  9
$DIMDLI
 40
0.4443307087
  9
$DIMRND
 40
0.0
  9
$DIMDLE
 40
0.0
  9
$DIMEXE
 40
0.125
  9
$DIMTP
 40
0.01
  9
$DIMTM
 40
0.01
  9
$DIMTXT
 40
2.0
  9
$DIMCEN
 40
0.1052362205
  9
$DIMTSZ
 40
0.0
  9
$DIMTOL
 70
     1
  9
$DIMLIM
 70
     0
  9
$DIMTIH
 70
     1
  9
$DIMTOH
 70
     1
  9
$DIMSE1
 70
     0
  9
$DIMSE2
 70
     0
  9
$DIMTAD
 70
     0
  9
$DIMZIN
 70
     0
  9
$DIMBLK
  1

  9
$DIMASO
 70
     1
  9
$DIMSHO
 70
     1
  9
$DIMPOST
  1
\X
  9
$DIMAPOST
  1

  9
$DIMALT
 70
     1
  9
$DIMALTD
 70
     2
  9
$DIMALTF
 40
25.3999999999999986
  9
$DIMLFAC
 40
1.0
  9
$DIMTOFL
 70
     0
  9
$DIMTVP
 40
0.0
  9
$DIMTIX
 70
     0
  9
$DIMSOXD
 70
     0
  9
$DIMSAH
 70
     0
  9
$DIMBLK1
  1

  9
$DIMBLK2
  1

  9
$DIMSTYLE
  2
STANDARD
  9
$DIMCLRD
 70
     0
  9
$DIMCLRE
 70
     0
  9
$DIMCLRT
 70
     0
  9
$DIMTFAC
 40
1.0
  9
$DIMGAP
 40
0.09
  9
$LUNITS
 70
     2
  9
$LUPREC
 70
     4
  9
$SKETCHINC
 40
0.1
  9
$FILLETRAD
 40
0.0
  9
$AUNITS
 70
     0
  9
$AUPREC
 70
     0
  9
$MENU
  1
.
  9
$ELEVATION
 40
0.0
  9
$PELEVATION
 40
0.0
  9
$THICKNESS
 40
0.0
  9
$LIMCHECK
 70
     0
  9
$BLIPMODE
 70
     0
  9
$CHAMFERA
 40
0.0
  9
$CHAMFERB
 40
0.0
  9
$SKPOLY
 70
     0
  9
$TDCREATE
 40
2458060.468368056230247
  9
$TDUPDATE
 40
2460104.6630092589184642
  9
$TDINDWG
 40
0.3968241898
  9
$TDUSRTIMER
 40
0.3968241898
  9
$USRTIMER
 70
     1
  9
$ANGBASE
 50
0.0
  9
$ANGDIR
 70
     0
  9
$PDMODE
 70
     0
  9
$PDSIZE
 40
0.3125
  9
$PLINEWID
 40
0.0
  9
$COORDS
 70
     1
  9
$SPLFRAME
 70
     0
  9
$SPLINETYPE
 70
     6
  9
$SPLINESEGS
 70
     8
  9
$ATTDIA
 70
     1
  9
$ATTREQ
 70
     1
  9
$HANDLING
 70
     1
  9
$HANDSEED
  5
A0B4
  9
$SURFTAB1
 70
     6
  9
$SURFTAB2
 70
     6
  9
$SURFTYPE
 70
     6
  9
$SURFU
 70
     6
  9
$SURFV
 70
     6
  9
$UCSNAME
  2

  9
$UCSORG
 10
0.0
 20
0.0
 30
0.0
  9
$UCSXDIR
 10
1.0
 20
0.0
 30
0.0
  9
$UCSYDIR
 10
0.0
 20
1.0
 30
0.0
  9
$PUCSNAME
  2

  9
$PUCSORG
 10
0.0
 20
0.0
 30
0.0
  9
$PUCSXDIR
 10
1.0
 20
0.0
 30
0.0
  9
$PUCSYDIR
 10
0.0
 20
1.0
 30
0.0
  9
$USERI1
 70
     0
  9
$USERI2
 70
     0
  9
$USERI3
 70
     0
  9
$USERI4
 70
     0
  9
$USERI5
 70
     0
  9
$USERR1
 40
0.0
  9
$USERR2
 40
0.0
  9
$USERR3
 40
0.0
  9
$USERR4
 40
0.0
  9
$USERR5
 40
0.0
  9
$WORLDVIEW
 70
     1
  9
$SHADEDGE
 70
     3
  9
$SHADEDIF
 70
    70
  9
$TILEMODE
 70
     1
  9
$MAXACTVP
 70
    64
  9
$PLIMCHECK
 70
     0
  9
$PEXTMIN
 10
1.0000000000000000E+20
 20
1.0000000000000000E+20
 30
1.0000000000000000E+20
  9
$PEXTMAX
 10
-1.0000000000000000E+20
 20
-1.0000000000000000E+20
 30
-1.0000000000000000E+20
  9
$PLIMMIN
 10
0.0
 20
0.0
  9
$PLIMMAX
 10
12.0
 20
9.0
  9
$UNITMODE
 70
     0
  9
$VISRETAIN
 70
     1
  9
$PLINEGEN
 70
     0
  9
$PSLTSCALE
 70
     1
  0
ENDSEC
  0
SECTION
  2
TABLES
  0
TABLE
  2
VPORT
 70
     1
  0
VPORT
  2
*ACTIVE
 70
     0
 10
0.0
 20
0.0
 11
1.0
 21
1.0
 12
560.4332043933691239
 22
5.067032979357335
 13
0.0
 23
0.0
 14
1.0
 24
1.0
 15
0.0
 25
0.0
 16
0.0
 26
0.0
 36
17.1152628219792007
 17
3803.5440673828129547
 27
125.9952621967499056
 37
0.0
 40
8.7896602598680644
 41
1.4761904761904761
 42
50.0
 43
0.0
 44
0.0
 50
0.0
 51
0.0
 71
     0
 72
   100
 73
     1
 74
     1
 75
     0
 76
     0
 77
     0
 78
     0
  0
ENDTAB
  0
TABLE
  2
LTYPE
 70
     3
  0
LTYPE
  2
CONTINUOUS
 70
     0
  3
Solid line
 72
    65
 73
     0
 40
0.0
  0
LTYPE
  2
PHANTOM2
 70
     0
  3
___ _ _ ___ _ _ ___ _ _ ___ _ _
 72
    65
 73
     6
 40
1.25
 49
0.625
 49
-0.125
 49
0.125
 49
-0.125
 49
0.125
 49
-0.125
  0
ENDTAB
  0
TABLE
  2
LAYER
 70
     2
  0
LAYER
  2
0
 70
     0
 62
   255
  6
CONTINUOUS
  0
LAYER
  2
DEFPOINTS
 70
     0
 62
     7
  6
CONTINUOUS
  0
ENDTAB
  0
TABLE
  2
STYLE
 70
     1
  0
STYLE
  2
STANDARD
 70
     0
 40
0.0
 41
0.8
 50
0.0
 71
     0
 42
0.2
  3
txt
  4

  0
ENDTAB
  0
TABLE
  2
VIEW
 70
     0
  0
ENDTAB
  0
TABLE
  2
UCS
 70
     0
  0
ENDTAB
  0
TABLE
  2
APPID
 70
     9
  0
APPID
  2
ACAD
 70
     0
  0
APPID
  2
ACAD_MLEADERVER
 70
     0
  0
APPID
  2
ACAD_EXEMPT_FROM_CAD_STANDARDS
 70
     0
  0
APPID
  2
ACAD_NAV_VCDISPLAY
 70
     0
  0
APPID
  2
ACAECLAYERSTANDARD
 70
     0
  0
APPID
  2
ACCMTRANSPARENCY
 70
     0
  0
APPID
  2
ACAD_DSTYLE_DIMJAG
 70
     0
  0
APPID
  2
ACAD_DSTYLE_DIMTALN
 70
     0
  0
APPID
  2
ACDBATTR
 70
     0
  0
ENDTAB
  0
TABLE
  2
DIMSTYLE
 70
     2
  0
DIMSTYLE
  2
STANDARD
 70
     0
  3

  4

  5

  6

  7

 40
1.0
 41
0.1875
 42
0.0625
 43
0.38
 44
0.125
 45
0.0
 46
0.0
 47
0.01
 48
0.01
140
0.15625
141
0.09
142
0.0
143
25.3999999999999986
144
1.0
145
0.0
146
1.0
147
0.09
 71
     1
 72
     0
 73
     1
 74
     1
 75
     0
 76
     0
 77
     0
 78
     4
170
     0
171
     2
172
     0
173
     0
174
     0
175
     0
176
     0
177
     0
178
     0
  0
ENDTAB
  0
ENDSEC
  0
SECTION
  2
BLOCKS
  0
BLOCK
  8
0
  2
$MODEL_SPACE
 70
     0
 10
0.0
 20
0.0
 30
0.0
  3
$MODEL_SPACE
  1

  0
ENDBLK
  5
21
  8
0
  0
BLOCK
 67
     1
  8
0
  2
$PAPER_SPACE
 70
     0
 10
0.0
 20
0.0
 30
0.0
  3
$PAPER_SPACE
  1

  0
ENDBLK
  5
1D
 67
     1
  8
0
  0
ENDSEC
  0
SECTION
  2
ENTITIES
  0
ATTDEF
  5
3930
  8
DEFPOINTS
 10
4364.0466611315132468
 20
135.4197983420743014
 30
0.0
 40
0.001
  1
P21676-00
  3

  2
MODELNUMBER
 70
     0
1001
ACDBATTR
1070
     0
1070
     1
  0
ATTDEF
  5
3931
  8
DEFPOINTS
 10
4364.0466611315132468
 20
135.4181316754076931
 30
0.0
 40
0.001
  1
LAURA KIRAR
  3

  2
TRADENAME
 70
     0
1001
ACDBATTR
1070
     0
1070
     1
  0
ATTDEF
  5
3932
  8
DEFPOINTS
 10
4364.0466611315132468
 20
135.4164650087409996
 30
0.0
 40
0.001
  1
SHOWERHEAD
  3

  2
PRODUCT
 70
     0
1001
ACDBATTR
1070
     0
1070
     1
  0
LINE
  5
9DBB
  8
0
 10
4359.0794091733532696
 20
126.7587667760134025
 30
0.0
 11
4369.01960917325232
 21
126.7587667760134025
 31
0.0
  0
LINE
  5
9DBC
  8
0
 10
4359.049509173352817
 20
126.7886667760134003
 30
0.0
 11
4359.049509173352817
 21
126.8747667760134021
 31
0.0
  0
LINE
  5
9DBD
  8
0
 10
4358.9185091733534136
 20
127.5927667760134057
 30
0.0
 11
4358.9185091733534136
 21
126.884766776013393
 31
0.0
  0
LINE
  5
9DBE
  8
0
 10
4358.9285091733527224
 20
126.8747667760134021
 30
0.0
 11
4369.1705091732537767
 21
126.8747667760134021
 31
0.0
  0
LINE
  5
9DBF
  8
0
 10
4358.9285091733527224
 20
127.6027667760133966
 30
0.0
 11
4369.1705091732537767
 21
127.6027667760133966
 31
0.0
  0
LINE
  5
9DC0
  8
0
 10
4359.0835091733533773
 20
127.7147667760134055
 30
0.0
 11
4369.0155091732540313
 21
127.7147667760134055
 31
0.0
  0
LINE
  5
9DC1
  8
0
 10
4359.0585091733537411
 20
127.6897667760133999
 30
0.0
 11
4359.0585091733537411
 21
127.6127667760134017
 31
0.0
  0
ARC
  5
9DC2
  8
0
 10
4359.0835091733533773
 20
127.6897667760133999
 30
0.0
 40
0.025
 50
90.0
 51
180.0
  0
ARC
  5
9DC3
  8
0
 10
4358.9285091733527224
 20
127.5927667760134057
 30
0.0
 40
0.01
 50
90.0
 51
180.0
  0
ARC
  5
9DC4
  8
0
 10
4359.0485091733526133
 20
127.6127667760134017
 30
0.0
 40
0.01
 50
270.0
 51
0.0000000000048853
  0
ARC
  5
9DC5
  8
0
 10
4358.9285091733527224
 20
126.884766776013393
 30
0.0
 40
0.01
 50
180.0
 51
270.0
  0
ARC
  5
9DC6
  8
0
 10
4359.0794091733532696
 20
126.7886667760134003
 30
0.0
 40
0.0299
 50
180.0
 51
270.0
  0
LINE
  5
9DC7
  8
0
 10
4359.3927843730525638
 20
127.7147667760134055
 30
0.0
 11
4363.131673594853055
 21
128.0348662767133874
 31
0.0
  0
LINE
  5
9DC8
  8
0
 10
4363.1645091733544177
 20
128.2859951225134125
 30
0.0
 11
4364.9345091733539448
 21
128.2859951225134125
 31
0.0
  0
LINE
  5
9DC9
  8
0
 10
4363.131673594853055
 20
128.0348662767133874
 30
0.0
 11
4364.9673447517534441
 21
128.0348662767133874
 31
0.0
  0
LINE
  5
9DCA
  8
0
 10
4363.5745091733533627
 20
129.4995541776133905
 30
0.0
 11
4364.5245091732540459
 21
129.4995541776133905
 31
0.0
  0
LINE
  5
9DCB
  8
0
 10
4363.5545091733529262
 20
129.3739862627307957
 30
0.0
 11
4363.5545091733529262
 21
129.4795541776134087
 31
0.0
  0
ARC
  5
9DCC
  8
0
 10
4364.0495091733537265
 20
128.0095541776134098
 30
0.0
 40
0.5279999999999897
 50
129.4534798087073
 51
148.4284852386431055
  0
ARC
  5
9DCD
  8
0
 10
4363.6695091732681249
 20
128.4712943642437892
 30
0.0
 40
0.0700000000118499
 50
309.4534798087073
 51
67.4596894945705685
  0
ARC
  5
9DCE
  8
0
 10
4363.7845091735516689
 20
128.7483773844033976
 30
0.0
 40
0.2300000001979475
 50
214.3011527415389139
 51
247.4596894945705969
  0
ARC
  5
9DCF
  8
0
 10
4363.5745091733533627
 20
129.4795541776134087
 30
0.0
 40
0.02
 50
90.0
 51
179.9999999999951115
  0
LINE
  5
9DD0
  8
0
 10
4363.3674568895812627
 20
126.7188575921277049
 30
0.0
 11
4363.3732991906526877
 21
126.7587667760134025
 31
0.0
  0
LINE
  5
9DD1
  8
0
 10
4363.2586363608270403
 20
126.7188575921358051
 30
0.0
 11
4363.2560810488530478
 21
126.7363131143171984
 31
0.0
  0
LINE
  5
9DD2
  8
0
 10
4363.253525736850861
 20
126.7188575921196048
 30
0.0
 11
4363.2593680379541183
 21
126.7587667760134025
 31
0.0
  0
LINE
  5
9DD3
  8
0
 10
4363.1142922912831636
 20
126.7189937122658989
 30
0.0
 11
4363.1087205559533686
 21
126.7587667760134025
 31
0.0
  0
ARC
  5
9DD4
  8
0
 10
4363.1720017347870453
 20
127.8357891612021007
 30
0.0
 40
1.127907705811491
 50
267.6366947587712275
 51
272.0227010924372166
  0
LINE
  5
9DD5
  8
0
 10
4363.2230658941907677
 20
126.7186343057951063
 30
0.0
 11
4363.2290581835532066
 21
126.7587667760134025
 31
0.0
  0
ARC
  5
9DD6
  8
0
 10
4363.2113952712352329
 20
126.7203768785649061
 30
0.0
 40
0.0118
 50
272.0227010924372166
 51
351.5077484969694979
  0
ARC
  5
9DD7
  8
0
 10
4363.1259781823900994
 20
126.7206307672524019
 30
0.0
 40
0.0118
 50
187.9745644459719074
 51
267.6366947587712275
  0
LINE
  5
9DD8
  8
0
 10
4363.2418501773181561
 20
126.7087667760134053
 30
0.0
 11
4363.2135037111202109
 21
126.7087667760134053
 31
0.0
  0
ARC
  5
9DD9
  8
0
 10
4363.2418501773181561
 20
126.7205667760133991
 30
0.0
 40
0.0118
 50
270.0
 51
351.6716331379629992
  0
LINE
  5
9DDA
  8
0
 10
4363.2703119203633833
 20
126.7087667760134053
 30
0.0
 11
4363.3557813300467387
 21
126.7087667760134053
 31
0.0
  0
ARC
  5
9DDB
  8
0
 10
4363.2703119203633833
 20
126.7205667760133991
 30
0.0
 40
0.0118
 50
188.3283667823693861
 51
270.0
  0
ARC
  5
9DDC
  8
0
 10
4363.3557813300467387
 20
126.7205667760133991
 30
0.0
 40
0.0118
 50
270.0
 51
351.6716331777338951
  0
ARC
  5
9DDD
  8
0
 10
4362.9541860793224259
 20
127.3888352568909994
 30
0.0
 40
0.6816564464321906
 50
265.8292948018684001
 51
273.1339253057573728
  0
ARC
  5
9DDE
  8
0
 10
4362.951562539274164
 20
127.1030721556112013
 30
0.0
 40
0.3952441679791805
 50
265.5747400099047013
 51
273.3996059677235166
  0
ARC
  5
9DDF
  8
0
 10
4362.9444937132211635
 20
126.3133261504560068
 30
0.0
 40
0.3963730786955256
 50
85.5859002930752553
 51
93.3884456845393061
  0
LINE
  5
9DE0
  8
0
 10
4363.0024730137238294
 20
126.7182063670877028
 30
0.0
 11
4363.008641745953355
 21
126.7587667760134025
 31
0.0
  0
LINE
  5
9DE1
  8
0
 10
4362.8937725635869356
 20
126.7191896467879957
 30
0.0
 11
4362.8884833853526288
 21
126.7587667760134025
 31
0.0
  0
ARC
  5
9DE2
  8
0
 10
4362.9054685788823917
 20
126.7207527290715063
 30
0.0
 40
0.0118
 50
187.6120354488502926
 51
265.8292948018685138
  0
ARC
  5
9DE3
  8
0
 10
4362.9908071615973313
 20
126.7199805976713947
 30
0.0
 40
0.0118
 50
273.133925305757316
 51
351.352295884130001
  0
LINE
  5
9DE4
  8
0
 10
4362.8200239733578201
 20
126.7087667760134053
 30
0.0
 11
4362.7278132709489
 21
126.7087667760134053
 31
0.0
  0
LINE
  5
9DE5
  8
0
 10
4362.8341711875527835
 20
126.7587667760134025
 30
0.0
 11
4362.8278406615208951
 21
126.7155224918865031
 31
0.0
  0
LINE
  5
9DE6
  8
0
 10
4362.7136660566538922
 20
126.7587667760134025
 30
0.0
 11
4362.719996582787644
 21
126.7155224918687964
 31
0.0
  0
ARC
  5
9DE7
  8
0
 10
4362.8200239733578201
 20
126.7166667760133976
 30
0.0
 40
0.0079
 50
270.0
 51
351.6716331777354867
  0
ARC
  5
9DE8
  8
0
 10
4362.7278132709489
 20
126.7166667760133976
 30
0.0
 40
0.0079
 50
188.3283669518974932
 51
270.0
  0
LINE
  5
9DE9
  8
0
 10
4362.6309943414516965
 20
126.7188575921196048
 30
0.0
 11
4362.6368366425531349
 21
126.7587667760134025
 31
0.0
  0
LINE
  5
9DEA
  8
0
 10
4362.5221738127547724
 20
126.7188575921196048
 30
0.0
 11
4362.516331511653334
 21
126.7587667760134025
 31
0.0
  0
LINE
  5
9DEB
  8
0
 10
4362.6193187819180821
 20
126.7087667760134053
 30
0.0
 11
4362.5338493722892963
 21
126.7087667760134053
 31
0.0
  0
ARC
  5
9DEC
  8
0
 10
4362.6193187819180821
 20
126.7205667760133991
 30
0.0
 40
0.0118
 50
270.0
 51
351.6716331379661824
  0
ARC
  5
9DED
  8
0
 10
4362.5338493722892963
 20
126.7205667760133991
 30
0.0
 40
0.0118
 50
188.3283668620402125
 51
270.0
  0
ARC
  5
9DEE
  8
0
 10
4362.3609661166738078
 20
128.2264896656668896
 30
0.0
 40
1.5184824075415291
 50
267.8777226039546235
 51
271.1570412136808841
  0
LINE
  5
9DEF
  8
0
 10
4362.4030658221272461
 20
126.7184052799922966
 30
0.0
 11
4362.4089743371532677
 21
126.7587667760134025
 31
0.0
  0
LINE
  5
9DF0
  8
0
 10
4362.2934775786043247
 20
126.7192529357522943
 30
0.0
 11
4362.2881118242539742
 21
126.7587667760134025
 31
0.0
  0
ARC
  5
9DF1
  8
0
 10
4362.3051702639677387
 20
126.7208407357977933
 30
0.0
 40
0.0118
 50
187.733138620202709
 51
267.8777226039546235
  0
ARC
  5
9DF2
  8
0
 10
4362.3913902625963601
 20
126.7201144638861052
 30
0.0
 40
0.0118
 50
271.1570412136288155
 51
351.6716331379661824
  0
ARC
  5
9DF3
  8
0
 10
4361.9373279305509641
 20
127.522460824681005
 30
0.0
 40
0.8152425431003367
 50
265.8480295790694754
 51
271.9355504058765973
  0
ARC
  5
9DF4
  8
0
 10
4361.9138786953635645
 20
126.2655890378203054
 30
0.0
 40
0.4440642455869252
 50
85.5188062013524615
 51
92.4809206928354257
  0
ARC
  5
9DF5
  8
0
 10
4361.929396261133661
 20
127.1544683816661063
 30
0.0
 40
0.4465845656909827
 50
265.5384757077292761
 51
272.4612511864680187
  0
LINE
  5
9DF6
  8
0
 10
4361.9761149737487358
 20
126.7176044688957006
 30
0.0
 11
4361.9827296701532759
 21
126.7587667760134025
 31
0.0
  0
LINE
  5
9DF7
  8
0
 10
4361.8674481782609291
 20
126.7196625472124936
 30
0.0
 11
4361.8625576295307837
 21
126.7587667760134025
 31
0.0
  0
ARC
  5
9DF8
  8
0
 10
4361.8791569643099137
 20
126.7211269000589056
 30
0.0
 40
0.0118
 50
187.128652024853011
 51
265.8480295790694754
  0
ARC
  5
9DF9
  8
0
 10
4361.9644644454638183
 20
126.7194766843507949
 30
0.0
 40
0.0118
 50
271.935550405876711
 51
350.8707385890796786
  0
ARC
  5
9DFA
  8
0
 10
4361.6568659270269563
 20
127.522460824681005
 30
0.0
 40
0.8152425431003367
 50
265.8480295790694754
 51
271.9355504058765973
  0
ARC
  5
9DFB
  8
0
 10
4361.6334166918422852
 20
126.2655890378203054
 30
0.0
 40
0.4440642455869252
 50
85.5188062013524615
 51
92.4809206928354257
  0
ARC
  5
9DFC
  8
0
 10
4361.6489342576105628
 20
127.1544683816661063
 30
0.0
 40
0.4465845656909827
 50
265.5384757077292761
 51
272.4612511864680187
  0
LINE
  5
9DFD
  8
0
 10
4361.6956529702247281
 20
126.7176044688957006
 30
0.0
 11
4361.7022676666310872
 21
126.7587667760134025
 31
0.0
  0
LINE
  5
9DFE
  8
0
 10
4361.5869861747387404
 20
126.7196625472124936
 30
0.0
 11
4361.582095626006776
 21
126.7587667760134025
 31
0.0
  0
ARC
  5
9DFF
  8
0
 10
4361.598694960787725
 20
126.7211269000589056
 30
0.0
 40
0.0118
 50
187.128652024853011
 51
265.8480295790694754
  0
ARC
  5
9E00
  8
0
 10
4361.6840024419416295
 20
126.7194766843507949
 30
0.0
 40
0.0118
 50
271.935550405876711
 51
350.8707385890796786
  0
ARC
  5
9E01
  8
0
 10
4361.0560863146829433
 20
127.522460824681005
 30
0.0
 40
0.8152425431003367
 50
265.8480295790694754
 51
271.9355504058765973
  0
ARC
  5
9E02
  8
0
 10
4361.0326370794991817
 20
126.2655890378203054
 30
0.0
 40
0.4440642455869252
 50
85.5188062013524615
 51
92.4809206928354257
  0
ARC
  5
9E03
  8
0
 10
4361.0481546452683688
 20
127.1544683816661063
 30
0.0
 40
0.4465845656909827
 50
265.5384757077292761
 51
272.4612511864680187
  0
LINE
  5
9E04
  8
0
 10
4361.094873357880715
 20
126.7176044688957006
 30
0.0
 11
4361.1014880542870742
 21
126.7587667760134025
 31
0.0
  0
LINE
  5
9E05
  8
0
 10
4360.9862065623947274
 20
126.7196625472124936
 30
0.0
 11
4360.981316013662763
 21
126.7587667760134025
 31
0.0
  0
ARC
  5
9E06
  8
0
 10
4360.997915348443712
 20
126.7211269000589056
 30
0.0
 40
0.0118
 50
187.128652024853011
 51
265.8480295790694754
  0
ARC
  5
9E07
  8
0
 10
4361.0832228295976165
 20
126.7194766843507949
 30
0.0
 40
0.0118
 50
271.935550405876711
 51
350.8707385890796786
  0
ARC
  5
9E08
  8
0
 10
4360.3792884221147688
 20
127.522460824681005
 30
0.0
 40
0.8152425431003367
 50
265.8480295790694754
 51
271.9355504058765973
  0
ARC
  5
9E09
  8
0
 10
4360.3558391869291881
 20
126.2655890378203054
 30
0.0
 40
0.4440642455869252
 50
85.5188062013524615
 51
92.4809206928354257
  0
ARC
  5
9E0A
  8
0
 10
4360.3713567526992847
 20
127.1544683816661063
 30
0.0
 40
0.4465845656909827
 50
265.5384757077292761
 51
272.4612511864680187
  0
LINE
  5
9E0B
  8
0
 10
4360.41807546531345
 20
126.7176044688957006
 30
0.0
 11
4360.4246901617179901
 21
126.7587667760134025
 31
0.0
  0
LINE
  5
9E0C
  8
0
 10
4360.3094086698247338
 20
126.7196625472124936
 30
0.0
 11
4360.3045181210936789
 21
126.7587667760134025
 31
0.0
  0
ARC
  5
9E0D
  8
0
 10
4360.3211174558737184
 20
126.7211269000589056
 30
0.0
 40
0.0118
 50
187.128652024853011
 51
265.8480295790694754
  0
ARC
  5
9E0E
  8
0
 10
4360.4064249370294419
 20
126.7194766843507949
 30
0.0
 40
0.0118
 50
271.935550405876711
 51
350.8707385890796786
  0
LINE
  5
9E0F
  8
0
 10
4361.7973868241597302
 20
126.7087667760134053
 30
0.0
 11
4361.8871044376046484
 21
126.7087667760134053
 31
0.0
  0
LINE
  5
9E10
  8
0
 10
4361.5410627757455586
 20
126.7087667760134053
 30
0.0
 11
4361.4555933661531526
 21
126.7087667760134053
 31
0.0
  0
LINE
  5
9E11
  8
0
 10
4361.1450050364428535
 20
126.7087667760134053
 30
0.0
 11
4361.0881764003706849
 21
126.7087667760134053
 31
0.0
  0
LINE
  5
9E12
  8
0
 10
4360.8050286803827476
 20
126.7087667760134053
 30
0.0
 11
4360.7195806952504427
 21
126.7087667760134053
 31
0.0
  0
LINE
  5
9E13
  8
0
 10
4360.6890691068847445
 20
126.7087667760134053
 30
0.0
 11
4360.6036202318000505
 21
126.7087667760134053
 31
0.0
  0
LINE
  5
9E14
  8
0
 10
4361.7857112646261157
 20
126.7188575921277049
 30
0.0
 11
4361.7798689635537812
 21
126.7587667760134025
 31
0.0
  0
LINE
  5
9E15
  8
0
 10
4361.552738335280992
 20
126.7188575921277049
 30
0.0
 11
4361.5585806363533266
 21
126.7587667760134025
 31
0.0
  0
LINE
  5
9E16
  8
0
 10
4361.4439178066222667
 20
126.7188575921013012
 30
0.0
 11
4361.4380755054526162
 21
126.7587667760134025
 31
0.0
  0
LINE
  5
9E17
  8
0
 10
4361.1566565651937708
 20
126.7187007969695003
 30
0.0
 11
4361.1630730860533731
 21
126.7587667760134025
 31
0.0
  0
LINE
  5
9E18
  8
0
 10
4360.816676946034022
 20
126.7186805344300069
 30
0.0
 11
4360.8231682416535477
 21
126.7587667760134025
 31
0.0
  0
LINE
  5
9E19
  8
0
 10
4360.7078754630992989
 20
126.7190742813625945
 30
0.0
 11
4360.7028144070536655
 21
126.7587667760134025
 31
0.0
  0
LINE
  5
9E1A
  8
0
 10
4360.7007162517247707
 20
126.7186736259699984
 30
0.0
 11
4360.7047568712678185
 21
126.7435325541982962
 31
0.0
  0
LINE
  5
9E1B
  8
0
 10
4360.5919141121021312
 20
126.7190812587149935
 30
0.0
 11
4360.5868779836537215
 21
126.7587667760134025
 31
0.0
  0
ARC
  5
9E1C
  8
0
 10
4361.7973868241597302
 20
126.7205667760133991
 30
0.0
 40
0.0118
 50
188.3283668222699987
 51
270.0
  0
ARC
  5
9E1D
  8
0
 10
4361.5410627757455586
 20
126.7205667760133991
 30
0.0
 40
0.0118
 50
270.0
 51
351.6716331777178084
  0
ARC
  5
9E1E
  8
0
 10
4361.4555933661531526
 20
126.7205667760133991
 30
0.0
 40
0.0118
 50
188.3283669519086914
 51
270.0
  0
ARC
  5
9E1F
  8
0
 10
4361.1450050364428535
 20
126.7205667760133991
 30
0.0
 40
0.0118
 50
270.0
 51
350.9014071288140144
  0
ARC
  5
9E20
  8
0
 10
4360.8050286803827476
 20
126.7205667760133991
 30
0.0
 40
0.0118
 50
270.0
 51
350.8017532279075112
  0
ARC
  5
9E21
  8
0
 10
4360.7195806952504427
 20
126.7205667760133991
 30
0.0
 40
0.0118
 50
187.2663819801852014
 51
270.0
  0
ARC
  5
9E22
  8
0
 10
4360.6890691068847445
 20
126.7205667760133991
 30
0.0
 40
0.0118
 50
270.0
 51
350.7677700884456726
  0
ARC
  5
9E23
  8
0
 10
4360.6036202318000505
 20
126.7205667760133991
 30
0.0
 40
0.0118
 50
187.2322299297333075
 51
270.0
  0
LINE
  5
9E24
  8
0
 10
4359.836404474007395
 20
126.7072766336683003
 30
0.0
 11
4359.7510602874872347
 21
126.7102569183589935
 31
0.0
  0
LINE
  5
9E25
  8
0
 10
4359.8960314782480054
 20
126.7103104531209965
 30
0.0
 11
4359.9813732030606843
 21
126.7072303038537058
 31
0.0
  0
LINE
  5
9E26
  8
0
 10
4359.9934174818272368
 20
126.7169619251817068
 30
0.0
 11
4360.0008320376537085
 21
126.7587667760134025
 31
0.0
  0
LINE
  5
9E27
  8
0
 10
4359.8847259617832606
 20
126.7208296996089985
 30
0.0
 11
4359.880608985345134
 21
126.7587667760134025
 31
0.0
  0
LINE
  5
9E28
  8
0
 10
4359.8484325136887492
 20
126.7169950051658986
 30
0.0
 11
4359.8558921693529555
 21
126.7587667760134025
 31
0.0
  0
LINE
  5
9E29
  8
0
 10
4359.7397394668387278
 20
126.7207906500161982
 30
0.0
 11
4359.73566408345323
 21
126.7587667760134025
 31
0.0
  0
ARC
  5
9E2A
  8
0
 10
4359.8368162880724412
 20
126.7190694454269959
 30
0.0
 40
0.0118
 50
267.999999982737279
 51
349.87478219589849
  0
ARC
  5
9E2B
  8
0
 10
4359.7514721015513715
 20
126.7220497301177033
 30
0.0
 40
0.0118
 50
186.1252178522364886
 51
267.999999982737279
  0
ARC
  5
9E2C
  8
0
 10
4359.8964570861444372
 20
126.7221027751110967
 30
0.0
 40
0.0118
 50
186.1935681357595058
 51
267.9329807970333945
  0
ARC
  5
9E2D
  8
0
 10
4359.9817988109580256
 20
126.7190226258438059
 30
0.0
 40
0.0118
 50
267.9329807970333945
 51
349.9425441455964005
  0
LINE
  5
9E2E
  8
0
 10
4363.0603666191127559
 20
134.9767667760133918
 30
0.0
 11
4365.0386517274937432
 21
134.9767667760133918
 31
0.0
  0
LINE
  5
9E2F
  8
0
 10
4362.9027154711739058
 20
135.1247667760133879
 30
0.0
 11
4365.1963028754344123
 21
135.1247667760133879
 31
0.0
  0
LINE
  5
9E30
  8
0
 10
4363.0066329578094155
 20
135.0893529513718079
 30
0.0
 11
4363.018886234663114
 21
135.0121806006550003
 31
0.0
  0
LINE
  5
9E31
  8
0
 10
4362.8656682527753219
 20
135.4147667760134084
 30
0.0
 11
4365.2333500938311772
 21
135.4147667760134084
 31
0.0
  0
LINE
  5
9E32
  8
0
 10
4362.8506821100536399
 20
135.3991221626986032
 30
0.0
 11
4362.8607542715526506
 21
135.1649618587319992
 31
0.0
  0
ARC
  5
9E33
  8
0
 10
4362.8656682527753219
 20
135.3997667760133936
 30
0.0
 40
0.015
 50
90.0
 51
182.4629999921421017
  0
ARC
  5
9E34
  8
0
 10
4362.9027154711739058
 20
135.1667667760133895
 30
0.0
 40
0.042
 50
182.4629999921266972
 51
270.0
  0
ARC
  5
9E35
  8
0
 10
4362.9651525733597737
 20
135.0827667760133863
 30
0.0
 40
0.042
 50
9.0220000239471538
 51
90.0
  0
ARC
  5
9E36
  8
0
 10
4363.0603666191127559
 20
135.0187667760133934
 30
0.0
 40
0.042
 50
189.0220000239471005
 51
270.0
  0
LINE
  5
9E37
  8
0
 10
4363.6435091733528679
 20
134.9767667760133918
 30
0.0
 11
4363.6435091733528679
 21
129.4995541776133905
 31
0.0
  0
LINE
  5
9E38
  8
0
 10
4369.0495091732536821
 20
126.7886667760134003
 30
0.0
 11
4369.0495091732536821
 21
126.8747667760134021
 31
0.0
  0
LINE
  5
9E39
  8
0
 10
4369.1805091732530855
 20
127.5927667760134057
 30
0.0
 11
4369.1805091732530855
 21
126.884766776013393
 31
0.0
  0
LINE
  5
9E3A
  8
0
 10
4369.040509173252758
 20
127.6897667760133999
 30
0.0
 11
4369.040509173252758
 21
127.6127667760134017
 31
0.0
  0
ARC
  5
9E3B
  8
0
 10
4369.0155091732540313
 20
127.6897667760133999
 30
0.0
 40
0.025
 50
0.0
 51
90.0
  0
ARC
  5
9E3C
  8
0
 10
4369.1705091732537767
 20
127.5927667760134057
 30
0.0
 40
0.01
 50
0.0
 51
90.0
  0
ARC
  5
9E3D
  8
0
 10
4369.0505091732538858
 20
127.6127667760134017
 30
0.0
 40
0.01
 50
179.9999999999951115
 51
270.0
  0
ARC
  5
9E3E
  8
0
 10
4369.1705091732537767
 20
126.884766776013393
 30
0.0
 40
0.01
 50
270.0
 51
0.0
  0
ARC
  5
9E3F
  8
0
 10
4369.01960917325232
 20
126.7886667760134003
 30
0.0
 40
0.0299
 50
270.0
 51
0.0
  0
LINE
  5
9E40
  8
0
 10
4368.7062339735530259
 20
127.7147667760134055
 30
0.0
 11
4364.9673447517534441
 21
128.0348662767133874
 31
0.0
  0
LINE
  5
9E41
  8
0
 10
4364.5445091732526635
 20
129.3739862626308081
 30
0.0
 11
4364.5445091732526635
 21
129.4795541776134087
 31
0.0
  0
ARC
  5
9E42
  8
0
 10
4364.0495091732536821
 20
128.0095541776134098
 30
0.0
 40
0.5279999999999897
 50
31.5715147613568483
 51
50.5465201912926787
  0
ARC
  5
9E43
  8
0
 10
4364.4295091733383742
 20
128.4712943642437892
 30
0.0
 40
0.0700000000118499
 50
112.5403105054294031
 51
230.5465201912927
  0
ARC
  5
9E44
  8
0
 10
4364.3145091730548302
 20
128.7483773844033976
 30
0.0
 40
0.2300000001979475
 50
292.5403105054293746
 51
325.6988473026638076
  0
ARC
  5
9E45
  8
0
 10
4364.5245091732540459
 20
129.4795541776134087
 30
0.0
 40
0.02
 50
0.0000000000048853
 51
90.0
  0
LINE
  5
9E46
  8
0
 10
4364.7315614570261459
 20
126.7188575921277049
 30
0.0
 11
4364.7257191559538114
 21
126.7587667760134025
 31
0.0
  0
LINE
  5
9E47
  8
0
 10
4364.8403819857803683
 20
126.7188575921358051
 30
0.0
 11
4364.8429372977543608
 21
126.7363131143171984
 31
0.0
  0
LINE
  5
9E48
  8
0
 10
4364.8454926097547286
 20
126.7188575921196048
 30
0.0
 11
4364.8396503086532903
 21
126.7587667760134025
 31
0.0
  0
LINE
  5
9E49
  8
0
 10
4364.984726055324245
 20
126.7189937122658989
 30
0.0
 11
4364.99029779065404
 21
126.7587667760134025
 31
0.0
  0
ARC
  5
9E4A
  8
0
 10
4364.9270166118194538
 20
127.8357891612021007
 30
0.0
 40
1.127907705811491
 50
267.9772989075627834
 51
272.3633052412287725
  0
LINE
  5
9E4B
  8
0
 10
4364.8759524524157314
 20
126.7186343057951063
 30
0.0
 11
4364.8699601630532925
 21
126.7587667760134025
 31
0.0
  0
ARC
  5
9E4C
  8
0
 10
4364.8876230753712662
 20
126.7203768785649061
 30
0.0
 40
0.0118
 50
188.4922515030305021
 51
267.9772989075627834
  0
ARC
  5
9E4D
  8
0
 10
4364.9730401642173092
 20
126.7206307672524019
 30
0.0
 40
0.0118
 50
272.3633052412287725
 51
352.0254355540280926
  0
LINE
  5
9E4E
  8
0
 10
4364.8571681692892525
 20
126.7087667760134053
 30
0.0
 11
4364.8855146354881072
 21
126.7087667760134053
 31
0.0
  0
ARC
  5
9E4F
  8
0
 10
4364.8571681692892525
 20
126.7205667760133991
 30
0.0
 40
0.0118
 50
188.3283668620370008
 51
270.0
  0
LINE
  5
9E50
  8
0
 10
4364.8287064262431159
 20
126.7087667760134053
 30
0.0
 11
4364.7432370165597604
 21
126.7087667760134053
 31
0.0
  0
ARC
  5
9E51
  8
0
 10
4364.8287064262431159
 20
126.7205667760133991
 30
0.0
 40
0.0118
 50
270.0
 51
351.6716332176305855
  0
ARC
  5
9E52
  8
0
 10
4364.7432370165597604
 20
126.7205667760133991
 30
0.0
 40
0.0118
 50
188.3283668222659912
 51
270.0
  0
ARC
  5
9E53
  8
0
 10
4365.1448322672849827
 20
127.3888352568909994
 30
0.0
 40
0.6816564464321906
 50
266.8660746942426272
 51
274.1707051981315999
  0
ARC
  5
9E54
  8
0
 10
4365.1474558073323351
 20
127.1030721556112013
 30
0.0
 40
0.3952441679791805
 50
266.6003940322764834
 51
274.4252599900952987
  0
ARC
  5
9E55
  8
0
 10
4365.1545246333862451
 20
126.3133261504560068
 30
0.0
 40
0.3963730786955256
 50
86.6115543154606939
 51
94.4140997069247447
  0
LINE
  5
9E56
  8
0
 10
4365.0965453328835792
 20
126.7182063670877028
 30
0.0
 11
4365.0903766006540536
 21
126.7587667760134025
 31
0.0
  0
LINE
  5
9E57
  8
0
 10
4365.205245783018654
 20
126.7191896467879957
 30
0.0
 11
4365.2105349612538703
 21
126.7587667760134025
 31
0.0
  0
ARC
  5
9E58
  8
0
 10
4365.1935497677241074
 20
126.7207527290715063
 30
0.0
 40
0.0118
 50
274.1707051981315999
 51
352.3879645511497074
  0
ARC
  5
9E59
  8
0
 10
4365.1082111850100773
 20
126.7199805976713947
 30
0.0
 40
0.0118
 50
188.647704115869999
 51
266.866074694242684
  0
LINE
  5
9E5A
  8
0
 10
4365.278994373248679
 20
126.7087667760134053
 30
0.0
 11
4365.3712050756566896
 21
126.7087667760134053
 31
0.0
  0
LINE
  5
9E5B
  8
0
 10
4365.2648471590528061
 20
126.7587667760134025
 30
0.0
 11
4365.271177685085604
 21
126.7155224918865031
 31
0.0
  0
LINE
  5
9E5C
  8
0
 10
4365.3853522899544259
 20
126.7587667760134025
 30
0.0
 11
4365.3790217638179456
 21
126.7155224918687964
 31
0.0
  0
ARC
  5
9E5D
  8
0
 10
4365.278994373248679
 20
126.7166667760133976
 30
0.0
 40
0.0079
 50
188.3283668222643996
 51
270.0
  0
ARC
  5
9E5E
  8
0
 10
4365.3712050756566896
 20
126.7166667760133976
 30
0.0
 40
0.0079
 50
270.0
 51
351.6716330481024784
  0
LINE
  5
9E5F
  8
0
 10
4365.4680240051548026
 20
126.7188575921196048
 30
0.0
 11
4365.4621817040533642
 21
126.7587667760134025
 31
0.0
  0
LINE
  5
9E60
  8
0
 10
4365.5768445338508172
 20
126.7188575921196048
 30
0.0
 11
4365.5826868349540746
 21
126.7587667760134025
 31
0.0
  0
LINE
  5
9E61
  8
0
 10
4365.479699564690236
 20
126.7087667760134053
 30
0.0
 11
4365.5651689743181123
 21
126.7087667760134053
 31
0.0
  0
ARC
  5
9E62
  8
0
 10
4365.479699564690236
 20
126.7205667760133991
 30
0.0
 40
0.0118
 50
188.3283668620337892
 51
270.0
  0
ARC
  5
9E63
  8
0
 10
4365.5651689743181123
 20
126.7205667760133991
 30
0.0
 40
0.0118
 50
270.0
 51
351.6716331379598159
  0
ARC
  5
9E64
  8
0
 10
4365.7380522299326913
 20
128.2264896656668896
 30
0.0
 40
1.5184824075415291
 50
268.8429587863191159
 51
272.1222773960453765
  0
LINE
  5
9E65
  8
0
 10
4365.695952524479253
 20
126.7184052799922966
 30
0.0
 11
4365.6900440094532314
 21
126.7587667760134025
 31
0.0
  0
LINE
  5
9E66
  8
0
 10
4365.8055407680030839
 20
126.7192529357522943
 30
0.0
 11
4365.8109065223534344
 21
126.7587667760134025
 31
0.0
  0
ARC
  5
9E67
  8
0
 10
4365.7938480826378509
 20
126.7208407357977933
 30
0.0
 40
0.0118
 50
272.1222773960453765
 51
352.2668613797973194
  0
ARC
  5
9E68
  8
0
 10
4365.707628084011958
 20
126.7201144638861052
 30
0.0
 40
0.0118
 50
188.3283668620337892
 51
268.8429587863711845
  0
ARC
  5
9E69
  8
0
 10
4366.1616904160564445
 20
127.522460824681005
 30
0.0
 40
0.8152425431003367
 50
268.064449594123289
 51
274.1519704209305246
  0
ARC
  5
9E6A
  8
0
 10
4366.1851396512420251
 20
126.2655890378203054
 30
0.0
 40
0.4440642455869252
 50
87.5190793071645885
 51
94.4811937986475385
  0
ARC
  5
9E6B
  8
0
 10
4366.1696220854728381
 20
127.1544683816661063
 30
0.0
 40
0.4465845656909827
 50
267.5387488135319245
 51
274.4615242922707239
  0
LINE
  5
9E6C
  8
0
 10
4366.1229033728586728
 20
126.7176044688957006
 30
0.0
 11
4366.1162886764541327
 21
126.7587667760134025
 31
0.0
  0
LINE
  5
9E6D
  8
0
 10
4366.2315701683446605
 20
126.7196625472124936
 30
0.0
 11
4366.2364607170757154
 21
126.7587667760134025
 31
0.0
  0
ARC
  5
9E6E
  8
0
 10
4366.2198613822965854
 20
126.7211269000589056
 30
0.0
 40
0.0118
 50
274.1519704209305246
 51
352.871347975146989
  0
ARC
  5
9E6F
  8
0
 10
4366.1345539011417713
 20
126.7194766843507949
 30
0.0
 40
0.0118
 50
189.129261410920293
 51
268.064449594123289
  0
ARC
  5
9E70
  8
0
 10
4366.4421524195786333
 20
127.522460824681005
 30
0.0
 40
0.8152425431003367
 50
268.064449594123289
 51
274.1519704209305246
  0
ARC
  5
9E71
  8
0
 10
4366.4656016547651234
 20
126.2655890378203054
 30
0.0
 40
0.4440642455869252
 50
87.5190793071645885
 51
94.4811937986475385
  0
ARC
  5
9E72
  8
0
 10
4366.4500840889941173
 20
127.1544683816661063
 30
0.0
 40
0.4465845656909827
 50
267.5387488135319245
 51
274.4615242922707239
  0
LINE
  5
9E73
  8
0
 10
4366.4033653763808616
 20
126.7176044688957006
 30
0.0
 11
4366.3967506799763214
 21
126.7587667760134025
 31
0.0
  0
LINE
  5
9E74
  8
0
 10
4366.5120321718677587
 20
126.7196625472124936
 30
0.0
 11
4366.5169227205997231
 21
126.7587667760134025
 31
0.0
  0
ARC
  5
9E75
  8
0
 10
4366.5003233858196836
 20
126.7211269000589056
 30
0.0
 40
0.0118
 50
274.1519704209305246
 51
352.871347975146989
  0
ARC
  5
9E76
  8
0
 10
4366.4150159046648696
 20
126.7194766843507949
 30
0.0
 40
0.0118
 50
189.129261410920293
 51
268.064449594123289
  0
ARC
  5
9E77
  8
0
 10
4367.0429320319226463
 20
127.522460824681005
 30
0.0
 40
0.8152425431003367
 50
268.064449594123289
 51
274.1519704209305246
  0
ARC
  5
9E78
  8
0
 10
4367.0663812671091364
 20
126.2655890378203054
 30
0.0
 40
0.4440642455869252
 50
87.5190793071645885
 51
94.4811937986475385
  0
ARC
  5
9E79
  8
0
 10
4367.0508637013390398
 20
127.1544683816661063
 30
0.0
 40
0.4465845656909827
 50
267.5387488135319245
 51
274.4615242922707239
  0
LINE
  5
9E7A
  8
0
 10
4367.0041449887248746
 20
126.7176044688957006
 30
0.0
 11
4366.9975302923203344
 21
126.7587667760134025
 31
0.0
  0
LINE
  5
9E7B
  8
0
 10
4367.1128117842117717
 20
126.7196625472124936
 30
0.0
 11
4367.1177023329428266
 21
126.7587667760134025
 31
0.0
  0
ARC
  5
9E7C
  8
0
 10
4367.1011029981627871
 20
126.7211269000589056
 30
0.0
 40
0.0118
 50
274.1519704209305246
 51
352.871347975146989
  0
ARC
  5
9E7D
  8
0
 10
4367.0157955170088826
 20
126.7194766843507949
 30
0.0
 40
0.0118
 50
189.129261410920293
 51
268.064449594123289
  0
ARC
  5
9E7E
  8
0
 10
4367.7197299244926398
 20
127.522460824681005
 30
0.0
 40
0.8152425431003367
 50
268.064449594123289
 51
274.1519704209305246
  0
ARC
  5
9E7F
  8
0
 10
4367.7431791596782205
 20
126.2655890378203054
 30
0.0
 40
0.4440642455869252
 50
87.5190793071645885
 51
94.4811937986475385
  0
ARC
  5
9E80
  8
0
 10
4367.7276615939090334
 20
127.1544683816661063
 30
0.0
 40
0.4465845656909827
 50
267.5387488135319245
 51
274.4615242922707239
  0
LINE
  5
9E81
  8
0
 10
4367.6809428812948681
 20
126.7176044688957006
 30
0.0
 11
4367.6743281848894185
 21
126.7587667760134025
 31
0.0
  0
LINE
  5
9E82
  8
0
 10
4367.7896096767817653
 20
126.7196625472124936
 30
0.0
 11
4367.7945002255128202
 21
126.7587667760134025
 31
0.0
  0
ARC
  5
9E83
  8
0
 10
4367.7779008907318712
 20
126.7211269000589056
 30
0.0
 40
0.0118
 50
274.1519704209305246
 51
352.871347975146989
  0
ARC
  5
9E84
  8
0
 10
4367.6925934095779667
 20
126.7194766843507949
 30
0.0
 40
0.0118
 50
189.129261410920293
 51
268.064449594123289
  0
LINE
  5
9E85
  8
0
 10
4366.3016315224458594
 20
126.7087667760134053
 30
0.0
 11
4366.2119139090009412
 21
126.7087667760134053
 31
0.0
  0
LINE
  5
9E86
  8
0
 10
4366.557955570860031
 20
126.7087667760134053
 30
0.0
 11
4366.6434249804551655
 21
126.7087667760134053
 31
0.0
  0
LINE
  5
9E87
  8
0
 10
4366.9540133101618267
 20
126.7087667760134053
 30
0.0
 11
4367.0108419462349048
 21
126.7087667760134053
 31
0.0
  0
LINE
  5
9E88
  8
0
 10
4367.2939896662246611
 20
126.7087667760134053
 30
0.0
 11
4367.3794376513569659
 21
126.7087667760134053
 31
0.0
  0
LINE
  5
9E89
  8
0
 10
4367.4099492397208451
 20
126.7087667760134053
 30
0.0
 11
4367.4953981148073581
 21
126.7087667760134053
 31
0.0
  0
LINE
  5
9E8A
  8
0
 10
4366.3133070819812929
 20
126.7188575921277049
 30
0.0
 11
4366.3191493830536274
 21
126.7587667760134025
 31
0.0
  0
LINE
  5
9E8B
  8
0
 10
4366.5462800113264166
 20
126.7188575921277049
 30
0.0
 11
4366.5404377102531726
 21
126.7587667760134025
 31
0.0
  0
LINE
  5
9E8C
  8
0
 10
4366.6551005399851419
 20
126.7188575921013012
 30
0.0
 11
4366.6609428411538829
 21
126.7587667760134025
 31
0.0
  0
LINE
  5
9E8D
  8
0
 10
4366.9423617814136378
 20
126.7187007969695003
 30
0.0
 11
4366.9359452605540355
 21
126.7587667760134025
 31
0.0
  0
LINE
  5
9E8E
  8
0
 10
4367.2823414005733866
 20
126.7186805344300069
 30
0.0
 11
4367.2758501049529514
 21
126.7587667760134025
 31
0.0
  0
LINE
  5
9E8F
  8
0
 10
4367.3911428835081097
 20
126.7190742813625945
 30
0.0
 11
4367.3962039395537431
 21
126.7587667760134025
 31
0.0
  0
LINE
  5
9E90
  8
0
 10
4367.3983020948826379
 20
126.7186736259699984
 30
0.0
 11
4367.3942614753386806
 21
126.7435325541982962
 31
0.0
  0
LINE
  5
9E91
  8
0
 10
4367.5071042345043679
 20
126.7190812587149935
 30
0.0
 11
4367.5121403629527777
 21
126.7587667760134025
 31
0.0
  0
ARC
  5
9E92
  8
0
 10
4366.3016315224458594
 20
126.7205667760133991
 30
0.0
 40
0.0118
 50
270.0
 51
351.671633177729916
  0
ARC
  5
9E93
  8
0
 10
4366.557955570860031
 20
126.7205667760133991
 30
0.0
 40
0.0118
 50
188.3283668222821916
 51
270.0
  0
ARC
  5
9E94
  8
0
 10
4366.6434249804551655
 20
126.7205667760133991
 30
0.0
 40
0.0118
 50
270.0
 51
351.6716330480912234
  0
ARC
  5
9E95
  8
0
 10
4366.9540133101618267
 20
126.7205667760133991
 30
0.0
 40
0.0118
 50
189.098592871186014
 51
270.0
  0
ARC
  5
9E96
  8
0
 10
4367.2939896662246611
 20
126.7205667760133991
 30
0.0
 40
0.0118
 50
189.1982467720924888
 51
270.0
  0
ARC
  5
9E97
  8
0
 10
4367.3794376513569659
 20
126.7205667760133991
 30
0.0
 40
0.0118
 50
270.0
 51
352.7336180198147986
  0
ARC
  5
9E98
  8
0
 10
4367.4099492397208451
 20
126.7205667760133991
 30
0.0
 40
0.0118
 50
189.232229911554299
 51
270.0
  0
ARC
  5
9E99
  8
0
 10
4367.4953981148073581
 20
126.7205667760133991
 30
0.0
 40
0.0118
 50
270.0
 51
352.7677700702665788
  0
LINE
  5
9E9A
  8
0
 10
4368.2626138726000136
 20
126.7072766336683003
 30
0.0
 11
4368.3479580591201739
 21
126.7102569183589935
 31
0.0
  0
LINE
  5
9E9B
  8
0
 10
4368.2029868683575842
 20
126.7103104531209965
 30
0.0
 11
4368.1176451435458148
 21
126.7072303038537058
 31
0.0
  0
LINE
  5
9E9C
  8
0
 10
4368.1056008647801718
 20
126.7169619251817068
 30
0.0
 11
4368.0981863089527906
 21
126.7587667760134025
 31
0.0
  0
LINE
  5
9E9D
  8
0
 10
4368.2142923848232385
 20
126.7208296996089985
 30
0.0
 11
4368.2184093612622746
 21
126.7587667760134025
 31
0.0
  0
LINE
  5
9E9E
  8
0
 10
4368.2505858329168404
 20
126.7169950051658986
 30
0.0
 11
4368.2431261772544531
 21
126.7587667760134025
 31
0.0
  0
LINE
  5
9E9F
  8
0
 10
4368.3592788797677713
 20
126.7207906500161982
 30
0.0
 11
4368.3633542631532691
 21
126.7587667760134025
 31
0.0
  0
ARC
  5
9EA0
  8
0
 10
4368.2622020585358769
 20
126.7190694454269959
 30
0.0
 40
0.0118
 50
190.12521780410151
 51
272.0000000172626073
  0
ARC
  5
9EA1
  8
0
 10
4368.3475462450560372
 20
126.7220497301177033
 30
0.0
 40
0.0118
 50
272.0000000172626073
 51
353.8747821477625735
  0
ARC
  5
9EA2
  8
0
 10
4368.2025612604629714
 20
126.7221027751110967
 30
0.0
 40
0.0118
 50
272.0670192029666055
 51
353.8064318642403805
  0
ARC
  5
9EA3
  8
0
 10
4368.117219535649383
 20
126.7190226258438059
 30
0.0
 40
0.0118
 50
190.05745585440269
 51
272.0670192029666055
  0
LINE
  5
9EA4
  8
0
 10
4365.0923853887970836
 20
135.0893529513718079
 30
0.0
 11
4365.0801321119442946
 21
135.0121806006550003
 31
0.0
  0
LINE
  5
9EA5
  8
0
 10
4365.2483362365528592
 20
135.3991221626986032
 30
0.0
 11
4365.2464805971922033
 21
135.3559817625861115
 31
0.0
  0
LINE
  5
9EA6
  8
0
 10
4365.2389781105903239
 20
135.181561947816391
 30
0.0
 11
4365.2382640750538485
 21
135.1649618587319992
 31
0.0
  0
ARC
  5
9EA7
  8
0
 10
4365.2333500938311772
 20
135.3997667760133936
 30
0.0
 40
0.015
 50
357.5370000078578983
 51
90.0
  0
ARC
  5
9EA8
  8
0
 10
4365.1963028754344123
 20
135.1667667760133895
 30
0.0
 40
0.042
 50
270.0
 51
357.537000007872507
  0
ARC
  5
9EA9
  8
0
 10
4365.1338657732467254
 20
135.0827667760133863
 30
0.0
 40
0.042
 50
90.0
 51
170.9779999760528142
  0
ARC
  5
9EAA
  8
0
 10
4365.0386517274937432
 20
135.0187667760133934
 30
0.0
 40
0.042
 50
270.0
 51
350.9779999760528995
  0
LINE
  5
9EAB
  8
0
 10
4364.4555091732527217
 20
134.9767667760133918
 30
0.0
 11
4364.4555091732527217
 21
129.4995541776133905
 31
0.0
  0
ARC
  5
9EAC
  8
0
 10
4366.3948881051383069
 20
135.2192129469748068
 30
0.0
 40
1.156523027541537
 50
173.2083868495460024
 51
181.8656131661905135
  0
LINE
  5
9EAD
  8
0
 10
4363.9951403673640016
 20
126.7185743865213965
 30
0.0
 11
4363.9892566078542586
 21
126.7587667760134025
 31
0.0
  0
ARC
  5
9EAE
  8
0
 10
4364.0434385363378169
 20
127.2114806369755939
 30
0.0
 40
0.5043604264734129
 50
265.7360377075949032
 51
270.6971761002105268
  0
ARC
  5
9EAF
  8
0
 10
4364.0495091733037043
 20
127.096338232057505
 30
0.0
 40
0.3885133072013946
 50
266.0196982980226039
 51
273.9803017019775098
  0
ARC
  5
9EB0
  8
0
 10
4364.0495091733037043
 20
126.3402977927782018
 30
0.0
 40
0.3694498212117264
 50
85.8139588998540574
 51
94.1860411001459426
  0
ARC
  5
9EB1
  8
0
 10
4364.006815926897616
 20
126.7202835704072044
 30
0.0
 40
0.0118
 50
188.3283668223079133
 51
265.7360377075424935
  0
LINE
  5
9EB2
  8
0
 10
4364.103877979243407
 20
126.7185743865213965
 30
0.0
 11
4364.1097617387522405
 21
126.7587667760134025
 31
0.0
  0
ARC
  5
9EB3
  8
0
 10
4364.0555798102677727
 20
127.2114806369755939
 30
0.0
 40
0.5043604264734129
 50
269.3028238997894732
 51
274.2639622924050968
  0
ARC
  5
9EB4
  8
0
 10
4364.0922024197079736
 20
126.7202835704072044
 30
0.0
 40
0.0118
 50
274.2639622924575065
 51
351.6716331776920015
  0
LINE
  5
9EB5
  8
0
 10
4363.1495091733531808
 20
128.2709951225133977
 30
0.0
 11
4363.1495091733531808
 21
128.0348662767133874
 31
0.0
  0
LINE
  5
9EB6
  8
0
 10
4363.1702843500534073
 20
128.2709951225133977
 30
0.0
 11
4363.1702843500534073
 21
128.0348662767133874
 31
0.0
  0
LINE
  5
9EB7
  8
0
 10
4363.445340086653232
 20
128.2709951225133977
 30
0.0
 11
4363.445340086653232
 21
128.0348662767133874
 31
0.0
  0
LINE
  5
9EB8
  8
0
 10
4363.7754270688537872
 20
128.2709951225133977
 30
0.0
 11
4363.7754270688537872
 21
128.0348662767133874
 31
0.0
  0
ARC
  5
9EB9
  8
0
 10
4363.1645091733544177
 20
128.2709951225133977
 30
0.0
 40
0.015
 50
90.0
 51
180.0000000000098055
  0
ARC
  5
9EBA
  8
0
 10
4363.1852843500537347
 20
128.2709951225133977
 30
0.0
 40
0.015
 50
90.0
 51
180.0000000000171099
  0
ARC
  5
9EBB
  8
0
 10
4363.4303400866538141
 20
128.2709951225133977
 30
0.0
 40
0.015
 50
0.0
 51
90.0
  0
ARC
  5
9EBC
  8
0
 10
4363.7904270688532051
 20
128.2709951225133977
 30
0.0
 40
0.015
 50
90.0
 51
180.0
  0
LINE
  5
9EBD
  8
0
 10
4364.9495091733533627
 20
128.2709951225133977
 30
0.0
 11
4364.9495091733533627
 21
128.0348662767133874
 31
0.0
  0
LINE
  5
9EBE
  8
0
 10
4364.9287339966540458
 20
128.2709951225133977
 30
0.0
 11
4364.9287339966540458
 21
128.0348662767133874
 31
0.0
  0
LINE
  5
9EBF
  8
0
 10
4364.653678260054221
 20
128.2709951225133977
 30
0.0
 11
4364.653678260054221
 21
128.0348662767133874
 31
0.0
  0
LINE
  5
9EC0
  8
0
 10
4364.3235912778527563
 20
128.2709951225133977
 30
0.0
 11
4364.3235912778527563
 21
128.0348662767133874
 31
0.0
  0
ARC
  5
9EC1
  8
0
 10
4364.9345091733539448
 20
128.2709951225133977
 30
0.0
 40
0.015
 50
359.9999999999894271
 51
90.0
  0
ARC
  5
9EC2
  8
0
 10
4364.9137339966537183
 20
128.2709951225133977
 30
0.0
 40
0.015
 50
359.9999999999828901
 51
90.0
  0
ARC
  5
9EC3
  8
0
 10
4364.668678260053639
 20
128.2709951225133977
 30
0.0
 40
0.015
 50
90.0
 51
180.0
  0
ARC
  5
9EC4
  8
0
 10
4364.3085912778533384
 20
128.2709951225133977
 30
0.0
 40
0.015
 50
0.0
 51
90.0
  0
LINE
  5
9EC5
  8
0
 10
4363.5815776181607362
 20
126.7087667760134053
 30
0.0
 11
4363.6670470277322238
 21
126.7087667760134053
 31
0.0
  0
LINE
  5
9EC6
  8
0
 10
4363.6787225872622002
 20
126.7188575920875024
 30
0.0
 11
4363.6845648884800539
 21
126.7587667760134025
 31
0.0
  0
LINE
  5
9EC7
  8
0
 10
4363.5699020586262122
 20
126.7188575921277049
 30
0.0
 11
4363.5640597575529682
 21
126.7587667760134025
 31
0.0
  0
ARC
  5
9EC8
  8
0
 10
4363.5815776181607362
 20
126.7205667760133991
 30
0.0
 40
0.0118
 50
188.3283668222991025
 51
270.0
  0
ARC
  5
9EC9
  8
0
 10
4363.6670470277322238
 20
126.7205667760133991
 30
0.0
 40
0.0118
 50
270.0
 51
351.6716329806084786
  0
LINE
  5
9ECA
  8
0
 10
4364.5174407285467169
 20
126.7087667760134053
 30
0.0
 11
4364.4319713189752292
 21
126.7087667760134053
 31
0.0
  0
LINE
  5
9ECB
  8
0
 10
4364.4202957594470718
 20
126.7188575920875024
 30
0.0
 11
4364.4144534582273991
 21
126.7587667760134025
 31
0.0
  0
LINE
  5
9ECC
  8
0
 10
4364.5291162880812408
 20
126.7188575921277049
 30
0.0
 11
4364.5349585891526658
 21
126.7587667760134025
 31
0.0
  0
ARC
  5
9ECD
  8
0
 10
4364.5174407285467169
 20
126.7205667760133991
 30
0.0
 40
0.0118
 50
270.0
 51
351.6716331777009259
  0
ARC
  5
9ECE
  8
0
 10
4364.4319713189752292
 20
126.7205667760133991
 30
0.0
 40
0.0118
 50
188.3283670193914929
 51
270.0
  0
LINE
  5
9ECF
  8
0
 10
4363.5945091733537993
 20
129.3251220924960023
 30
0.0
 11
4363.5945091733537993
 21
128.6187625703742015
 31
0.0
  0
LINE
  5
9ED0
  8
0
 10
4364.5045091733527443
 20
129.3251220924960023
 30
0.0
 11
4364.5045091733527443
 21
128.6187625705208006
 31
0.0
  0
LINE
  5
9ED1
  8
0
 10
4364.5413752158119678
 20
129.3664202200720865
 30
0.0
 11
4364.5076431307952589
 21
129.3326881350546955
 31
0.0
  0
LINE
  5
9ED2
  8
0
 10
4363.5576431307936218
 20
129.3664202201721025
 30
0.0
 11
4363.5913752159121941
 21
129.3326881350546955
 31
0.0
  0
ARC
  5
9ED3
  8
0
 10
4363.5652091733536508
 20
129.3739862627307957
 30
0.0
 40
0.0107
 50
179.9999999999527915
 51
225.0000000000489138
  0
ARC
  5
9ED4
  8
0
 10
4363.5838091733539841
 20
129.3251220924960023
 30
0.0
 40
0.0107
 50
359.9999999999902229
 51
45.0000000000489422
  0
ARC
  5
9ED5
  8
0
 10
4364.5338091732537578
 20
129.3739862626308081
 30
0.0
 40
0.0107
 50
314.9999999999275246
 51
0.0000000000667662
  0
ARC
  5
9ED6
  8
0
 10
4364.5152091733543784
 20
129.3251220924960023
 30
0.0
 40
0.0107
 50
134.999999999934289
 51
180.0000000000472085
  0
CIRCLE
  5
9ED8
  8
0
 10
4364.0495091733537265
 20
135.2697667760133982
 30
0.0
 40
0.0410000000000004
  0
CIRCLE
  5
9ED9
  8
0
 10
4364.0495091733537265
 20
135.2697667760133982
 30
0.0
 40
0.0881854380711731
  0
LINE
  5
A02B
  8
0
 10
4363.6963425066533091
 20
128.5359470689134014
 30
0.0
 11
4364.40267583995319
 21
128.5359470689134014
 31
0.0
  0
LINE
  5
A02C
  8
0
 10
4364.3850275679697006
 20
128.417244509613397
 30
0.0
 11
4363.7139907786367985
 21
128.4172445096135107
 31
0.0
  0
ENDSEC
  0
EOF
