  0
SECTION
  2
HEADER
  9
$ACADVER
  1
AC1009
  9
$INSBASE
 10
4410.1497407508068136
 20
143.4248303717087083
 30
0.0
  9
$EXTMIN
 10
4406.9756932110285561
 20
126.8167551353862024
 30
0.0
  9
$EXTMAX
 10
4410.1561847439616031
 20
160.0167551353862052
 30
0.0
  9
$LIMMIN
 10
0.0
 20
0.0
  9
$LIMMAX
 10
11.6929133858000007
 20
8.2677165353999982
  9
$ORTHOMODE
 70
     0
  9
$REGENMODE
 70
     1
  9
$FILLMODE
 70
     1
  9
$QTEXTMODE
 70
     0
  9
$MIRRTEXT
 70
     0
  9
$DRAGMODE
 70
     2
  9
$LTSCALE
 40
0.6431102362
  9
$OSMODE
 70
  4095
  9
$ATTMODE
 70
     1
  9
$TEXTSIZE
 40
0.2
  9
$TRACEWID
 40
0.05
  9
$TEXTSTYLE
  7
STANDARD
  9
$CLAYER
  8
0
  9
$CELTYPE
  6
BYLAYER
  9
$CECOLOR
 62
   256
  9
$DIMSCALE
 40
1.0
  9
$DIMASZ
 40
0.1875
  9
$DIMEXO
 40
0.0625
  9
$DIMDLI
 40
0.4443307087
  9
$DIMRND
 40
0.0
  9
$DIMDLE
 40
0.0
  9
$DIMEXE
 40
0.125
  9
$DIMTP
 40
0.01
  9
$DIMTM
 40
0.01
  9
$DIMTXT
 40
2.0
  9
$DIMCEN
 40
0.1052362205
  9
$DIMTSZ
 40
0.0
  9
$DIMTOL
 70
     1
  9
$DIMLIM
 70
     0
  9
$DIMTIH
 70
     1
  9
$DIMTOH
 70
     1
  9
$DIMSE1
 70
     0
  9
$DIMSE2
 70
     0
  9
$DIMTAD
 70
     0
  9
$DIMZIN
 70
     0
  9
$DIMBLK
  1

  9
$DIMASO
 70
     1
  9
$DIMSHO
 70
     1
  9
$DIMPOST
  1
\X
  9
$DIMAPOST
  1

  9
$DIMALT
 70
     1
  9
$DIMALTD
 70
     2
  9
$DIMALTF
 40
25.3999999999999986
  9
$DIMLFAC
 40
1.0
  9
$DIMTOFL
 70
     0
  9
$DIMTVP
 40
0.0
  9
$DIMTIX
 70
     0
  9
$DIMSOXD
 70
     0
  9
$DIMSAH
 70
     0
  9
$DIMBLK1
  1

  9
$DIMBLK2
  1

  9
$DIMSTYLE
  2
STANDARD
  9
$DIMCLRD
 70
     0
  9
$DIMCLRE
 70
     0
  9
$DIMCLRT
 70
     0
  9
$DIMTFAC
 40
1.0
  9
$DIMGAP
 40
0.09
  9
$LUNITS
 70
     2
  9
$LUPREC
 70
     4
  9
$SKETCHINC
 40
0.1
  9
$FILLETRAD
 40
0.0
  9
$AUNITS
 70
     0
  9
$AUPREC
 70
     0
  9
$MENU
  1
.
  9
$ELEVATION
 40
0.0
  9
$PELEVATION
 40
0.0
  9
$THICKNESS
 40
0.0
  9
$LIMCHECK
 70
     0
  9
$BLIPMODE
 70
     0
  9
$CHAMFERA
 40
0.0
  9
$CHAMFERB
 40
0.0
  9
$SKPOLY
 70
     0
  9
$TDCREATE
 40
2458060.468368056230247
  9
$TDUPDATE
 40
2459506.7840046300552785
  9
$TDINDWG
 40
0.3979005787
  9
$TDUSRTIMER
 40
0.3979005787
  9
$USRTIMER
 70
     1
  9
$ANGBASE
 50
0.0
  9
$ANGDIR
 70
     0
  9
$PDMODE
 70
     0
  9
$PDSIZE
 40
0.3125
  9
$PLINEWID
 40
0.0
  9
$COORDS
 70
     1
  9
$SPLFRAME
 70
     0
  9
$SPLINETYPE
 70
     6
  9
$SPLINESEGS
 70
     8
  9
$ATTDIA
 70
     1
  9
$ATTREQ
 70
     1
  9
$HANDLING
 70
     1
  9
$HANDSEED
  5
A23F
  9
$SURFTAB1
 70
     6
  9
$SURFTAB2
 70
     6
  9
$SURFTYPE
 70
     6
  9
$SURFU
 70
     6
  9
$SURFV
 70
     6
  9
$UCSNAME
  2

  9
$UCSORG
 10
0.0
 20
0.0
 30
0.0
  9
$UCSXDIR
 10
1.0
 20
0.0
 30
0.0
  9
$UCSYDIR
 10
0.0
 20
1.0
 30
0.0
  9
$PUCSNAME
  2

  9
$PUCSORG
 10
0.0
 20
0.0
 30
0.0
  9
$PUCSXDIR
 10
1.0
 20
0.0
 30
0.0
  9
$PUCSYDIR
 10
0.0
 20
1.0
 30
0.0
  9
$USERI1
 70
     0
  9
$USERI2
 70
     0
  9
$USERI3
 70
     0
  9
$USERI4
 70
     0
  9
$USERI5
 70
     0
  9
$USERR1
 40
0.0
  9
$USERR2
 40
0.0
  9
$USERR3
 40
0.0
  9
$USERR4
 40
0.0
  9
$USERR5
 40
0.0
  9
$WORLDVIEW
 70
     1
  9
$SHADEDGE
 70
     3
  9
$SHADEDIF
 70
    70
  9
$TILEMODE
 70
     1
  9
$MAXACTVP
 70
    64
  9
$PLIMCHECK
 70
     0
  9
$PEXTMIN
 10
1.0000000000000000E+20
 20
1.0000000000000000E+20
 30
1.0000000000000000E+20
  9
$PEXTMAX
 10
-1.0000000000000000E+20
 20
-1.0000000000000000E+20
 30
-1.0000000000000000E+20
  9
$PLIMMIN
 10
0.0
 20
0.0
  9
$PLIMMAX
 10
12.0
 20
9.0
  9
$UNITMODE
 70
     0
  9
$VISRETAIN
 70
     1
  9
$PLINEGEN
 70
     0
  9
$PSLTSCALE
 70
     1
  0
ENDSEC
  0
SECTION
  2
TABLES
  0
TABLE
  2
VPORT
 70
     1
  0
VPORT
  2
*ACTIVE
 70
     0
 10
0.0
 20
0.0
 11
1.0
 21
1.0
 12
605.0218715946839438
 22
17.4214929386363089
 13
0.0
 23
0.0
 14
1.0
 24
1.0
 15
0.0
 25
0.0
 16
0.0
 26
0.0
 36
17.1152628219792007
 17
3803.5440673828129547
 27
125.9952621967499056
 37
0.0
 40
33.4986506746626702
 41
2.8393393393393391
 42
50.0
 43
0.0
 44
0.0
 50
0.0
 51
0.0
 71
     0
 72
   100
 73
     1
 74
     1
 75
     0
 76
     0
 77
     0
 78
     0
  0
ENDTAB
  0
TABLE
  2
LTYPE
 70
     2
  0
LTYPE
  2
CONTINUOUS
 70
     0
  3
Solid line
 72
    65
 73
     0
 40
0.0
  0
LTYPE
  2
PHANTOM2
 70
     0
  3
___ _ _ ___ _ _ ___ _ _ ___ _ _
 72
    65
 73
     6
 40
1.25
 49
0.625
 49
-0.125
 49
0.125
 49
-0.125
 49
0.125
 49
-0.125
  0
ENDTAB
  0
TABLE
  2
LAYER
 70
     2
  0
LAYER
  2
0
 70
     0
 62
   255
  6
CONTINUOUS
  0
LAYER
  2
DEFPOINTS
 70
     0
 62
     7
  6
CONTINUOUS
  0
ENDTAB
  0
TABLE
  2
STYLE
 70
     1
  0
STYLE
  2
STANDARD
 70
     0
 40
0.0
 41
0.8
 50
0.0
 71
     0
 42
0.2
  3
txt
  4

  0
ENDTAB
  0
TABLE
  2
VIEW
 70
     0
  0
ENDTAB
  0
TABLE
  2
UCS
 70
     0
  0
ENDTAB
  0
TABLE
  2
APPID
 70
     9
  0
APPID
  2
ACAD
 70
     0
  0
APPID
  2
ACAD_MLEADERVER
 70
     0
  0
APPID
  2
ACAD_EXEMPT_FROM_CAD_STANDARDS
 70
     0
  0
APPID
  2
ACAD_NAV_VCDISPLAY
 70
     0
  0
APPID
  2
ACAECLAYERSTANDARD
 70
     0
  0
APPID
  2
ACCMTRANSPARENCY
 70
     0
  0
APPID
  2
ACAD_DSTYLE_DIMJAG
 70
     0
  0
APPID
  2
ACAD_DSTYLE_DIMTALN
 70
     0
  0
APPID
  2
ACDBATTR
 70
     0
  0
ENDTAB
  0
TABLE
  2
DIMSTYLE
 70
     1
  0
DIMSTYLE
  2
STANDARD
 70
     0
  3

  4

  5

  6

  7

 40
1.0
 41
0.1875
 42
0.0625
 43
0.38
 44
0.125
 45
0.0
 46
0.0
 47
0.01
 48
0.01
140
0.15625
141
0.09
142
0.0
143
25.3999999999999986
144
1.0
145
0.0
146
1.0
147
0.09
 71
     1
 72
     0
 73
     1
 74
     1
 75
     0
 76
     0
 77
     0
 78
     4
170
     0
171
     2
172
     0
173
     0
174
     0
175
     0
176
     0
177
     0
178
     0
  0
ENDTAB
  0
ENDSEC
  0
SECTION
  2
BLOCKS
  0
BLOCK
  8
0
  2
$MODEL_SPACE
 70
     0
 10
0.0
 20
0.0
 30
0.0
  3
$MODEL_SPACE
  1

  0
ENDBLK
  5
21
  8
0
  0
BLOCK
 67
     1
  8
0
  2
$PAPER_SPACE
 70
     0
 10
0.0
 20
0.0
 30
0.0
  3
$PAPER_SPACE
  1

  0
ENDBLK
  5
1D
 67
     1
  8
0
  0
ENDSEC
  0
SECTION
  2
ENTITIES
  0
ATTDEF
  5
3930
  8
DEFPOINTS
 10
4410.1455180772927633
 20
143.4286523008993015
 30
0.0
 40
0.001
  1
P21664-00
  3

  2
MODELNUMBER
 70
     0
1001
ACDBATTR
1070
     0
1070
     1
  0
ATTDEF
  5
3931
  8
DEFPOINTS
 10
4410.1455180772927633
 20
143.4269856342326079
 30
0.0
 40
0.001
  1

  3

  2
TRADENAME
 70
     0
1001
ACDBATTR
1070
     0
1070
     1
  0
ATTDEF
  5
3932
  8
DEFPOINTS
 10
4410.1455180772927633
 20
143.4253189675659996
 30
0.0
 40
0.001
  1
SLIDEBAR
  3

  2
PRODUCT
 70
     0
1001
ACDBATTR
1070
     0
1070
     1
  0
LINE
  5
A0C6
  8
0
 10
4406.9906932110307025
 20
126.8167551353862024
 30
0.0
 11
4407.5166932110314519
 21
126.8167551353862024
 31
0.0
  0
ARC
  5
A0C7
  8
0
 10
4407.5166932110314519
 20
126.8317551353862029
 30
0.0
 40
0.015
 50
270.0
 51
0.0
  0
LINE
  5
A0C8
  8
0
 10
4406.9856932110324124
 20
126.9167551353861967
 30
0.0
 11
4407.5216932110306516
 21
126.9167551353861967
 31
0.0
  0
LINE
  5
A0C9
  8
0
 10
4406.9906932110307025
 20
160.0167551353862052
 30
0.0
 11
4407.5166932110314519
 21
160.0167551353862052
 31
0.0
  0
LINE
  5
A0CA
  8
0
 10
4406.9856932110324124
 20
159.9167551353862109
 30
0.0
 11
4407.5166932110314519
 21
159.9167551353862109
 31
0.0
  0
LINE
  5
A0CB
  8
0
 10
4406.9756932110312846
 20
126.9267551353862018
 30
0.0
 11
4406.9756932110312846
 21
159.9067551353861916
 31
0.0
  0
ARC
  5
A0CC
  8
0
 10
4406.9856932110324124
 20
126.9267551353862018
 30
0.0
 40
0.01
 50
180.0
 51
270.0
  0
ARC
  5
A0CD
  8
0
 10
4406.9856932110324124
 20
159.9067551353861916
 30
0.0
 40
0.01
 50
90.0
 51
180.0
  0
LINE
  5
A0CE
  8
0
 10
4406.9756932110312846
 20
159.9317551353861973
 30
0.0
 11
4406.9756932110312846
 21
160.0017551353861904
 31
0.0
  0
LINE
  5
A0CF
  8
0
 10
4406.9756932110312846
 20
126.9017551353861961
 30
0.0
 11
4406.9756932110312846
 21
126.8317551353862029
 31
0.0
  0
ARC
  5
A0D0
  8
0
 10
4406.9906932110307025
 20
160.0017551353861904
 30
0.0
 40
0.015
 50
90.0
 51
180.0
  0
ARC
  5
A0D1
  8
0
 10
4406.9906932110307025
 20
159.9317551353861973
 30
0.0
 40
0.015
 50
179.9999999999861018
 51
270.0
  0
ARC
  5
A0D2
  8
0
 10
4406.9906932110307025
 20
126.8317551353862029
 30
0.0
 40
0.015
 50
180.0000000000065086
 51
270.0
  0
ARC
  5
A0D3
  8
0
 10
4406.9906932110307025
 20
126.9017551353861961
 30
0.0
 40
0.015
 50
90.0
 51
179.9999999999893987
  0
LINE
  5
A0D4
  8
0
 10
4407.5316932110308699
 20
160.0017551353861904
 30
0.0
 11
4407.5316932110308699
 21
144.8956448348558865
 31
0.0
  0
LINE
  5
A0D5
  8
0
 10
4407.5316932110308699
 20
143.7072985067165121
 30
0.0
 11
4407.5316932110308699
 21
126.8317551353862029
 31
0.0
  0
ARC
  5
A0D6
  8
0
 10
4407.5216932110306516
 20
126.9267551353862018
 30
0.0
 40
0.01
 50
270.0
 51
0.0
  0
ARC
  5
A0D7
  8
0
 10
4407.5166932110314519
 20
126.9017551353861961
 30
0.0
 40
0.015
 50
0.0000000000138418
 51
90.0
  0
ARC
  5
A0D8
  8
0
 10
4407.5166932110314519
 20
160.0017551353861904
 30
0.0
 40
0.015
 50
0.0000000000268693
 51
90.0
  0
ARC
  5
A0D9
  8
0
 10
4407.5166932110314519
 20
159.9317551353861973
 30
0.0
 40
0.015
 50
270.0
 51
0.0000000000138418
  0
CIRCLE
  5
A0DA
  8
0
 10
4407.7087404552312364
 20
144.3014716707862135
 30
0.0
 40
0.6199898995785631
  0
LINE
  5
A0DB
  8
0
 10
4407.3937404551306827
 20
144.7897471878177953
 30
0.0
 11
4407.3937404551306827
 21
143.8131961537546033
 31
0.0
  0
LINE
  5
A0DC
  8
0
 10
4408.0237404551307918
 20
143.8131961536153085
 30
0.0
 11
4408.0237404551307918
 21
144.7897471879570901
 31
0.0
  0
ARC
  5
A0DD
  8
0
 10
4408.0487404551313375
 20
143.8131961536153085
 30
0.0
 40
0.025
 50
180.0000000000243858
 51
304.8505818302318744
  0
ARC
  5
A0DE
  8
0
 10
4408.0487404551313375
 20
144.7897471879570901
 30
0.0
 40
0.025
 50
55.1494181697666903
 51
179.9999999999836859
  0
ARC
  5
A0DF
  8
0
 10
4407.3687404551310465
 20
144.7897471878177953
 30
0.0
 40
0.025
 50
0.0000000000284978
 51
124.8505818537181966
  0
ARC
  5
A0E0
  8
0
 10
4407.3687404551310465
 20
143.8131961537546033
 30
0.0
 40
0.025
 50
235.1494181462817892
 51
359.9999999999715214
  0
CIRCLE
  5
A0E1
  8
0
 10
4407.7087404552312364
 20
144.3014716707862135
 30
0.0
 40
0.1699999999049728
  0
LINE
  5
A0E2
  8
0
 10
4410.1497407508068136
 20
129.3157048340320046
 30
0.0
 11
4410.1497407508068136
 21
127.6176035263404032
 31
0.0
  0
LINE
  5
A0E3
  8
0
 10
4409.7498131576412561
 20
129.14757237368201
 30
0.0
 11
4408.042988380292627
 21
129.0655635543645872
 31
0.0
  0
LINE
  5
A0E4
  8
0
 10
4407.5447398484166115
 20
129.2188475228755919
 30
0.0
 11
4407.5447398484166115
 21
127.7144608374968016
 31
0.0
  0
LINE
  5
A0E5
  8
0
 10
4407.557165204661942
 20
129.2285489478786076
 30
0.0
 11
4407.5946105997409177
 21
129.2191875991335905
 31
0.0
  0
ARC
  5
A0E6
  8
0
 10
4407.9947240493193021
 20
130.7183369107094961
 30
0.0
 40
1.653477914303084
 50
267.9892025045613764
 51
271.672677503470311
  0
ARC
  5
A0E7
  8
0
 10
4407.9662526047013671
 20
129.9074030259859001
 30
0.0
 40
0.8420443750950442
 50
260.3360141287569718
 51
267.9892025045613764
  0
ARC
  5
A0E8
  8
0
 10
4407.8926006417259487
 20
129.474884518492189
 30
0.0
 40
0.4032997215954655
 50
243.8999224388452944
 51
260.3360141287569718
  0
ARC
  5
A0E9
  8
0
 10
4407.8277970751805697
 20
129.3426044344435866
 30
0.0
 40
0.2559989311259776
 50
225.8514890720391008
 51
243.8999224388452944
  0
ARC
  5
A0EA
  8
0
 10
4407.8313904160486345
 20
129.3463061979396969
 30
0.0
 40
0.2611579185824449
 50
211.9366449380189863
 51
225.8514890720391008
  0
LINE
  5
A0EB
  8
0
 10
4410.1388353933498365
 20
129.325663766097108
 30
0.0
 11
4410.0526596348308885
 21
129.3178296062679919
 31
0.0
  0
ARC
  5
A0EC
  8
0
 10
4409.7266348352668501
 20
129.7683155698778137
 30
0.0
 40
0.6211757804771297
 50
272.1384098542205834
 51
281.2364839429258723
  0
ARC
  5
A0ED
  8
0
 10
4409.8024711523275982
 20
129.3888530630783009
 30
0.0
 40
0.2342101162051445
 50
281.1286085511184183
 51
307.5079062535272101
  0
ARC
  5
A0EE
  8
0
 10
4409.7499463526810359
 20
129.4572851604771131
 30
0.0
 40
0.3204760221726835
 50
307.5079062535272101
 51
321.4693675063144269
  0
ARC
  5
A0EF
  8
0
 10
4409.6920513995019064
 20
129.5033874443950026
 30
0.0
 40
0.3944844418697705
 50
321.4693675063144269
 51
329.887492847570627
  0
ARC
  5
A0F0
  8
0
 10
4407.5547398484168298
 20
129.2188475228755919
 30
0.0
 40
0.01
 50
75.9637565680808393
 51
180.0000000000023874
  0
ARC
  5
A0F1
  8
0
 10
4410.1397407508056858
 20
129.3157048340320046
 30
0.0
 40
0.01
 50
359.9999999999951115
 51
95.1944288837634076
  0
ARC
  5
A0F2
  8
0
 10
4410.0549230284714213
 20
129.2929322761052049
 30
0.0
 40
0.025
 50
95.1944288838157462
 51
149.8874928473647117
  0
ARC
  5
A0F3
  8
0
 10
4407.5885472091304109
 20
129.1949340366261083
 30
0.0
 40
0.025
 50
31.9366449380598283
 51
75.9637565680802425
  0
ARC
  5
A0F4
  8
0
 10
4407.504740455130559
 20
129.1016551353862098
 30
0.0
 40
0.0399999999999846
 50
0.3155732085520462
 51
47.6375021558798224
  0
LINE
  5
A0F5
  8
0
 10
4409.7498131576412561
 20
127.7857359866903977
 30
0.0
 11
4408.042988380292627
 21
127.8677448060078063
 31
0.0
  0
LINE
  5
A0F6
  8
0
 10
4407.557165204661942
 20
127.7047594124938001
 30
0.0
 11
4407.5946105997409177
 21
127.714120761238803
 31
0.0
  0
ARC
  5
A0F7
  8
0
 10
4407.9947240493193021
 20
126.2149714496628974
 30
0.0
 40
1.653477914303084
 50
88.3273224965296464
 51
92.0107974954385668
  0
ARC
  5
A0F8
  8
0
 10
4407.9662526047013671
 20
127.0259053343864935
 30
0.0
 40
0.8420443750950442
 50
92.0107974954385668
 51
99.6639858712430566
  0
ARC
  5
A0F9
  8
0
 10
4407.8926006417259487
 20
127.4584238418802045
 30
0.0
 40
0.4032997215954655
 50
99.6639858712430566
 51
116.1000775611546061
  0
ARC
  5
A0FA
  8
0
 10
4407.8277970751805697
 20
127.5907039259288069
 30
0.0
 40
0.2559989311259776
 50
116.1000775611546061
 51
134.1485109279608992
  0
ARC
  5
A0FB
  8
0
 10
4407.8313904160486345
 20
127.5870021624326967
 30
0.0
 40
0.2611579185824449
 50
134.1485109279608992
 51
148.0633550619809
  0
LINE
  5
A0FC
  8
0
 10
4410.1388353933498365
 20
127.6076445942753992
 30
0.0
 11
4410.0526596348308885
 21
127.6154787541044016
 31
0.0
  0
ARC
  5
A0FD
  8
0
 10
4409.7266348352668501
 20
127.1649927904946935
 30
0.0
 40
0.6211757804771297
 50
78.7635160570741135
 51
87.8615901457794024
  0
ARC
  5
A0FE
  8
0
 10
4409.8024711523275982
 20
127.5444552972942063
 30
0.0
 40
0.2342101162051445
 50
52.4920937464728397
 51
78.8713914488816954
  0
ARC
  5
A0FF
  8
0
 10
4409.7499463526810359
 20
127.4760231998952946
 30
0.0
 40
0.3204760221726835
 50
38.5306324936856512
 51
52.4920937464728397
  0
ARC
  5
A100
  8
0
 10
4409.6920513995019064
 20
127.4299209159774051
 30
0.0
 40
0.3944844418697705
 50
30.1125071524287797
 51
38.5306324936856512
  0
ARC
  5
A101
  8
0
 10
4407.5547398484168298
 20
127.7144608374968016
 30
0.0
 40
0.01
 50
179.9999999999974989
 51
284.0362434319191038
  0
ARC
  5
A102
  8
0
 10
4410.1397407508056858
 20
127.6176035263404032
 30
0.0
 40
0.01
 50
264.8055711162365924
 51
0.0000000000048853
  0
ARC
  5
A103
  8
0
 10
4410.0549230284714213
 20
127.6403760842672028
 30
0.0
 40
0.025
 50
210.1125071526352883
 51
264.8055711161842964
  0
ARC
  5
A104
  8
0
 10
4407.5885472091304109
 20
127.7383743237462994
 30
0.0
 40
0.025
 50
284.0362434319196723
 51
328.0633550619401717
  0
ARC
  5
A105
  8
0
 10
4407.504740455130559
 20
128.2701271228370103
 30
0.0
 40
0.0399999999999846
 50
312.3624978441201847
 51
359.6844267914478905
  0
LINE
  5
A106
  8
0
 10
4408.0234215575310373
 20
127.5060252140861934
 30
0.0
 11
4408.7104294315322477
 21
127.5060252140861934
 31
0.0
  0
LINE
  5
A107
  8
0
 10
4408.0037365181306086
 20
127.5257102534861957
 30
0.0
 11
4408.0234215575310373
 21
127.5060252140861934
 31
0.0
  0
LINE
  5
A108
  8
0
 10
4408.0037365181306086
 20
127.585982339218603
 30
0.0
 11
4408.0037365181306086
 21
127.5883531434304956
 31
0.0
  0
LINE
  5
A109
  8
0
 10
4408.0037365181306086
 20
127.6450381424401002
 30
0.0
 11
4408.0037365181306086
 21
127.647410301472604
 31
0.0
  0
LINE
  5
A10A
  8
0
 10
4408.0037365181306086
 20
127.704092309797602
 30
0.0
 11
4408.0037365181306086
 21
127.7064675552916952
 31
0.0
  0
LINE
  5
A10B
  8
0
 10
4408.0037365181306086
 20
127.7631452163045935
 30
0.0
 11
4408.0037365181306086
 21
127.7678675120021978
 31
0.0
  0
LINE
  5
A10C
  8
0
 10
4408.0037365181306086
 20
127.8185145682972035
 30
0.0
 11
4408.0037365181306086
 21
127.8684248020420995
 31
0.0
  0
LINE
  5
A10D
  8
0
 10
4408.0037365181306086
 20
127.5292951408129056
 30
0.0
 11
4408.0037365181306086
 21
127.5257102534861957
 31
0.0
  0
LINE
  5
A10E
  8
0
 10
4407.9576748434310502
 20
127.5532996533454053
 30
0.0
 11
4408.0037365181306086
 21
127.5292951408129056
 31
0.0
  0
LINE
  5
A10F
  8
0
 10
4408.0037365181306086
 20
127.585982339218603
 30
0.0
 11
4407.9576748434310502
 21
127.5619780735516002
 31
0.0
  0
LINE
  5
A110
  8
0
 10
4407.9576748434310502
 20
127.5619780735516002
 30
0.0
 11
4407.9576748434310502
 21
127.5532996533454053
 31
0.0
  0
LINE
  5
A111
  8
0
 10
4407.9576748434310502
 20
127.6123580017659975
 30
0.0
 11
4407.9576748434310502
 21
127.6210335789939023
 31
0.0
  0
LINE
  5
A112
  8
0
 10
4407.9576748434310502
 20
127.6714155303836975
 30
0.0
 11
4407.9576748434310502
 21
127.6800873314733025
 31
0.0
  0
LINE
  5
A113
  8
0
 10
4407.9576748434310502
 20
127.7304732001722982
 30
0.0
 11
4407.9576748434310502
 21
127.7391397799855071
 31
0.0
  0
LINE
  5
A114
  8
0
 10
4407.9576748434310502
 20
127.6123580017659975
 30
0.0
 11
4408.0037365181306086
 21
127.5883531434304956
 31
0.0
  0
LINE
  5
A115
  8
0
 10
4408.0037365181306086
 20
127.6450381424401002
 30
0.0
 11
4407.9576748434310502
 21
127.6210335789939023
 31
0.0
  0
LINE
  5
A116
  8
0
 10
4407.9576748434310502
 20
127.6714155303836975
 30
0.0
 11
4408.0037365181306086
 21
127.647410301472604
 31
0.0
  0
LINE
  5
A117
  8
0
 10
4408.0037365181306086
 20
127.704092309797602
 30
0.0
 11
4407.9576748434310502
 21
127.6800873314733025
 31
0.0
  0
LINE
  5
A118
  8
0
 10
4407.9576748434310502
 20
127.7304732001722982
 30
0.0
 11
4408.0037365181306086
 21
127.7064675552916952
 31
0.0
  0
LINE
  5
A119
  8
0
 10
4408.0037365181306086
 20
127.7631452163045935
 30
0.0
 11
4407.9576748434310502
 21
127.7391397799855071
 31
0.0
  0
LINE
  5
A11A
  8
0
 10
4407.9635721575314165
 20
127.7889189682695985
 30
0.0
 11
4408.0037365181306086
 21
127.7678675120021978
 31
0.0
  0
LINE
  5
A11B
  8
0
 10
4407.9635721575314165
 20
127.7975998979800067
 30
0.0
 11
4408.0037365181306086
 21
127.8185145682972035
 31
0.0
  0
LINE
  5
A11C
  8
0
 10
4407.9635721575314165
 20
127.7889189682695985
 30
0.0
 11
4407.9635721575314165
 21
127.7975998979800067
 31
0.0
  0
LINE
  5
A11D
  8
0
 10
4408.7301144709299479
 20
127.6158967340334982
 30
0.0
 11
4408.7301144709299479
 21
127.6182675382455045
 31
0.0
  0
LINE
  5
A11E
  8
0
 10
4408.7301144709299479
 20
127.6749525372550949
 30
0.0
 11
4408.7301144709299479
 21
127.6773246962874993
 31
0.0
  0
LINE
  5
A11F
  8
0
 10
4408.7301144709299479
 20
127.7340067046125966
 30
0.0
 11
4408.7301144709299479
 21
127.7363819501067042
 31
0.0
  0
LINE
  5
A120
  8
0
 10
4408.7301144709299479
 20
127.793059611119503
 30
0.0
 11
4408.7301144709299479
 21
127.834730052435404
 31
0.0
  0
LINE
  5
A121
  8
0
 10
4408.7301144709299479
 20
127.5592095356279003
 30
0.0
 11
4408.7301144709299479
 21
127.5257102534861957
 31
0.0
  0
LINE
  5
A122
  8
0
 10
4408.7761761456313252
 20
127.5832140481603005
 30
0.0
 11
4408.7301144709299479
 21
127.5592095356279003
 31
0.0
  0
LINE
  5
A123
  8
0
 10
4408.7301144709299479
 20
127.6158967340334982
 30
0.0
 11
4408.7761761456313252
 21
127.5918924683664955
 31
0.0
  0
LINE
  5
A124
  8
0
 10
4408.7761761456313252
 20
127.5918924683664955
 30
0.0
 11
4408.7761761456313252
 21
127.5832140481603005
 31
0.0
  0
LINE
  5
A125
  8
0
 10
4408.7761761456313252
 20
127.642272396580907
 30
0.0
 11
4408.7761761456313252
 21
127.650947973808897
 31
0.0
  0
LINE
  5
A126
  8
0
 10
4408.7761761456313252
 20
127.7013299251986069
 30
0.0
 11
4408.7761761456313252
 21
127.7100017262882972
 31
0.0
  0
LINE
  5
A127
  8
0
 10
4408.7761761456313252
 20
127.7603875949872929
 30
0.0
 11
4408.7761761456313252
 21
127.7690541748004023
 31
0.0
  0
LINE
  5
A128
  8
0
 10
4408.7761761456313252
 20
127.642272396580907
 30
0.0
 11
4408.7301144709299479
 21
127.6182675382455045
 31
0.0
  0
LINE
  5
A129
  8
0
 10
4408.7301144709299479
 20
127.6749525372550949
 30
0.0
 11
4408.7761761456313252
 21
127.650947973808897
 31
0.0
  0
LINE
  5
A12A
  8
0
 10
4408.7761761456313252
 20
127.7013299251986069
 30
0.0
 11
4408.7301144709299479
 21
127.6773246962874993
 31
0.0
  0
LINE
  5
A12B
  8
0
 10
4408.7301144709299479
 20
127.7340067046125966
 30
0.0
 11
4408.7761761456313252
 21
127.7100017262882972
 31
0.0
  0
LINE
  5
A12C
  8
0
 10
4408.7761761456313252
 20
127.7603875949872929
 30
0.0
 11
4408.7301144709299479
 21
127.7363819501067042
 31
0.0
  0
LINE
  5
A12D
  8
0
 10
4408.7301144709299479
 20
127.793059611119503
 30
0.0
 11
4408.7761761456313252
 21
127.7690541748004023
 31
0.0
  0
LINE
  5
A12E
  8
0
 10
4408.7104294315322477
 20
127.5060252140861934
 30
0.0
 11
4408.7301144709299479
 21
127.5257102534861957
 31
0.0
  0
LINE
  5
A12F
  8
0
 10
4408.0037365181306086
 20
127.7655063641533957
 30
0.0
 11
4408.7301144709299479
 21
127.793059611119503
 31
0.0
  0
LINE
  5
A130
  8
0
 10
4408.7761761456313252
 20
127.7647208848939044
 30
0.0
 11
4407.9576748434310502
 21
127.7348064900788955
 31
0.0
  0
LINE
  5
A131
  8
0
 10
4408.0037365181306086
 20
127.7052799325446983
 30
0.0
 11
4408.7301144709299479
 21
127.7351943273595936
 31
0.0
  0
LINE
  5
A132
  8
0
 10
4408.7761761456313252
 20
127.7056658257433952
 30
0.0
 11
4407.9576748434310502
 21
127.6757514309285
 31
0.0
  0
LINE
  5
A133
  8
0
 10
4408.0037365181306086
 20
127.6462242219564018
 30
0.0
 11
4408.7301144709299479
 21
127.6761386167712971
 31
0.0
  0
LINE
  5
A134
  8
0
 10
4408.7761761456313252
 20
127.646610185194902
 30
0.0
 11
4407.9576748434310502
 21
127.6166957903798931
 31
0.0
  0
LINE
  5
A135
  8
0
 10
4408.0037365181306086
 20
127.5871677413245067
 30
0.0
 11
4408.7301144709299479
 21
127.6170821361395014
 31
0.0
  0
LINE
  5
A136
  8
0
 10
4408.7761761456313252
 20
127.587553258263398
 30
0.0
 11
4407.9576748434310502
 21
127.5576388634485028
 31
0.0
  0
LINE
  5
A137
  8
0
 10
4408.0037365181306086
 20
127.5292951408129056
 30
0.0
 11
4408.7301144709299479
 21
127.5592095356279003
 31
0.0
  0
LINE
  5
A138
  8
0
 10
4407.9635721575314165
 20
127.7932594331248026
 30
0.0
 11
4408.7301144709299479
 21
127.8138948317775032
 31
0.0
  0
LINE
  5
A139
  8
0
 10
4410.1497407508068136
 20
157.533955909385412
 30
0.0
 11
4410.1497407508068136
 21
159.2320572170769992
 31
0.0
  0
LINE
  5
A13A
  8
0
 10
4409.7498131576412561
 20
157.7020883697354066
 30
0.0
 11
4408.042988380292627
 21
157.784097189052801
 31
0.0
  0
LINE
  5
A13B
  8
0
 10
4407.5447398484166115
 20
157.6308132205417962
 30
0.0
 11
4407.5447398484166115
 21
159.1351999059205866
 31
0.0
  0
LINE
  5
A13C
  8
0
 10
4407.557165204661942
 20
157.621111795538809
 30
0.0
 11
4407.5946105997409177
 21
157.6304731442837976
 31
0.0
  0
ARC
  5
A13D
  8
0
 10
4407.9947240493193021
 20
156.1313238327078921
 30
0.0
 40
1.653477914303084
 50
88.3273224965296464
 51
92.0107974954385668
  0
ARC
  5
A13E
  8
0
 10
4407.9662526047013671
 20
156.9422577174314881
 30
0.0
 40
0.8420443750950442
 50
92.0107974954385668
 51
99.6639858712430566
  0
ARC
  5
A13F
  8
0
 10
4407.8926006417259487
 20
157.3747762249251991
 30
0.0
 40
0.4032997215954655
 50
99.6639858712430566
 51
116.1000775611546061
  0
ARC
  5
A140
  8
0
 10
4407.8277970751805697
 20
157.5070563089738869
 30
0.0
 40
0.2559989311259776
 50
116.1000775611546061
 51
134.1485109279608992
  0
ARC
  5
A141
  8
0
 10
4407.8313904160486345
 20
157.5033545454776913
 30
0.0
 40
0.2611579185824449
 50
134.1485109279608992
 51
148.0633550619809
  0
LINE
  5
A142
  8
0
 10
4410.1388353933498365
 20
157.5239969773203939
 30
0.0
 11
4410.0526596348308885
 21
157.5318311371495099
 31
0.0
  0
ARC
  5
A143
  8
0
 10
4409.7266348352668501
 20
157.0813451735396882
 30
0.0
 40
0.6211757804771297
 50
78.7635160570741135
 51
87.8615901457794024
  0
ARC
  5
A144
  8
0
 10
4409.8024711523275982
 20
157.4608076803392009
 30
0.0
 40
0.2342101162051445
 50
52.4920937464728397
 51
78.8713914488816954
  0
ARC
  5
A145
  8
0
 10
4409.7499463526810359
 20
157.3923755829403035
 30
0.0
 40
0.3204760221726835
 50
38.5306324936856512
 51
52.4920937464728397
  0
ARC
  5
A146
  8
0
 10
4409.6920513995019064
 20
157.346273299022414
 30
0.0
 40
0.3944844418697705
 50
30.1125071524287797
 51
38.5306324936856512
  0
ARC
  5
A147
  8
0
 10
4407.5547398484168298
 20
157.6308132205417962
 30
0.0
 40
0.01
 50
179.9999999999974989
 51
284.0362434319191038
  0
ARC
  5
A148
  8
0
 10
4410.1397407508056858
 20
157.533955909385412
 30
0.0
 40
0.01
 50
264.8055711162365924
 51
0.0000000000048853
  0
ARC
  5
A149
  8
0
 10
4410.0549230284714213
 20
157.5567284673122117
 30
0.0
 40
0.025
 50
210.1125071526352883
 51
264.8055711161842964
  0
ARC
  5
A14A
  8
0
 10
4407.5885472091304109
 20
157.6547267067913083
 30
0.0
 40
0.025
 50
284.0362434319196723
 51
328.0633550619401717
  0
ARC
  5
A14B
  8
0
 10
4407.504740455130559
 20
157.7480056080312067
 30
0.0
 40
0.0399999999999846
 50
312.3624978441201847
 51
359.6844267914478905
  0
LINE
  5
A14C
  8
0
 10
4409.7498131576412561
 20
159.06392475672709
 30
0.0
 11
4408.042988380292627
 21
158.9819159374096103
 31
0.0
  0
LINE
  5
A14D
  8
0
 10
4407.557165204661942
 20
159.1449013309236022
 30
0.0
 11
4407.5946105997409177
 21
159.1355399821786136
 31
0.0
  0
ARC
  5
A14E
  8
0
 10
4407.9947240493193021
 20
160.6346892937546045
 30
0.0
 40
1.653477914303084
 50
267.9892025045613764
 51
271.672677503470311
  0
ARC
  5
A14F
  8
0
 10
4407.9662526047013671
 20
159.8237554090308947
 30
0.0
 40
0.8420443750950442
 50
260.3360141287569718
 51
267.9892025045613764
  0
ARC
  5
A150
  8
0
 10
4407.8926006417259487
 20
159.3912369015372121
 30
0.0
 40
0.4032997215954655
 50
243.8999224388452944
 51
260.3360141287569718
  0
ARC
  5
A151
  8
0
 10
4407.8277970751805697
 20
159.2589568174886097
 30
0.0
 40
0.2559989311259776
 50
225.8514890720391008
 51
243.8999224388452944
  0
ARC
  5
A152
  8
0
 10
4407.8313904160486345
 20
159.2626585809846915
 30
0.0
 40
0.2611579185824449
 50
211.9366449380189863
 51
225.8514890720391008
  0
LINE
  5
A153
  8
0
 10
4410.1388353933498365
 20
159.2420161491421027
 30
0.0
 11
4410.0526596348308885
 21
159.2341819893129866
 31
0.0
  0
ARC
  5
A154
  8
0
 10
4409.7266348352668501
 20
159.6846679529228084
 30
0.0
 40
0.6211757804771297
 50
272.1384098542205834
 51
281.2364839429258723
  0
ARC
  5
A155
  8
0
 10
4409.8024711523275982
 20
159.3052054461232956
 30
0.0
 40
0.2342101162051445
 50
281.1286085511184183
 51
307.5079062535272101
  0
ARC
  5
A156
  8
0
 10
4409.7499463526810359
 20
159.3736375435221078
 30
0.0
 40
0.3204760221726835
 50
307.5079062535272101
 51
321.4693675063144269
  0
ARC
  5
A157
  8
0
 10
4409.6920513995019064
 20
159.4197398274399973
 30
0.0
 40
0.3944844418697705
 50
321.4693675063144269
 51
329.887492847570627
  0
ARC
  5
A158
  8
0
 10
4407.5547398484168298
 20
159.1351999059205866
 30
0.0
 40
0.01
 50
75.9637565680808393
 51
180.0000000000023874
  0
ARC
  5
A159
  8
0
 10
4410.1397407508056858
 20
159.2320572170769992
 30
0.0
 40
0.01
 50
359.9999999999951115
 51
95.1944288837634076
  0
ARC
  5
A15A
  8
0
 10
4410.0549230284714213
 20
159.2092846591501996
 30
0.0
 40
0.025
 50
95.1944288838157462
 51
149.8874928473647117
  0
ARC
  5
A15B
  8
0
 10
4407.5885472091304109
 20
159.111286419671103
 30
0.0
 40
0.025
 50
31.9366449380598283
 51
75.9637565680802425
  0
ARC
  5
A15C
  8
0
 10
4407.504740455130559
 20
158.5795336205804063
 30
0.0
 40
0.0399999999999846
 50
0.3155732085520462
 51
47.6375021558798224
  0
LINE
  5
A15D
  8
0
 10
4407.8834112189833832
 20
140.576930012983496
 30
0.0
 11
4408.43366155397689
 21
140.5560595559734907
 31
0.0
  0
LINE
  5
A15E
  8
0
 10
4408.4751776247276212
 20
140.5960308147662943
 30
0.0
 11
4408.4751776247276212
 21
143.5814716707861862
 31
0.0
  0
LINE
  5
A15F
  8
0
 10
4407.8449272897341871
 20
140.6169012717762996
 30
0.0
 11
4407.8449272897341871
 21
143.5814716707861862
 31
0.0
  0
ARC
  5
A160
  8
0
 10
4407.8849272897341507
 20
140.6169012717762996
 30
0.0
 40
0.04
 50
180.0
 51
267.8278683417087223
  0
ARC
  5
A161
  8
0
 10
4408.435177624726748
 20
140.5960308147662943
 30
0.0
 40
0.04
 50
267.8278683417087223
 51
0.000000000007328
  0
LINE
  5
A162
  8
0
 10
4408.435177624726748
 20
143.6214716707862067
 30
0.0
 11
4407.8849272897341507
 21
143.6214716707862067
 31
0.0
  0
ARC
  5
A163
  8
0
 10
4408.435177624726748
 20
143.5814716707861862
 30
0.0
 40
0.04
 50
0.0
 51
90.0
  0
ARC
  5
A164
  8
0
 10
4407.8849272897341507
 20
143.5814716707861862
 30
0.0
 40
0.04
 50
90.0
 51
179.9999999999951115
  0
LINE
  5
A165
  8
0
 10
4407.8834112189833832
 20
140.8289894704595042
 30
0.0
 11
4408.43366155397689
 21
140.8498599274693959
 31
0.0
  0
ARC
  5
A166
  8
0
 10
4407.8849272897341507
 20
140.7890182116667006
 30
0.0
 40
0.04
 50
92.1721316582912635
 51
180.0
  0
ARC
  5
A167
  8
0
 10
4408.435177624726748
 20
140.8098886686765923
 30
0.0
 40
0.04
 50
359.999999999992724
 51
92.1721316582912635
  0
LINE
  5
A168
  8
0
 10
4407.5787404551310829
 20
142.5414716707861942
 30
0.0
 11
4407.5787404551310829
 21
143.6952642182145041
 31
0.0
  0
LINE
  5
A169
  8
0
 10
4407.8287404551310829
 20
142.5414716707861942
 30
0.0
 11
4407.8287404551310829
 21
143.612042558734089
 31
0.0
  0
LINE
  5
A16A
  8
0
 10
4407.6387404551323925
 20
142.4814716707861919
 30
0.0
 11
4407.7687404551306827
 21
142.4814716707861919
 31
0.0
  0
ARC
  5
A16B
  8
0
 10
4407.6387404551323925
 20
142.5414716707861942
 30
0.0
 40
0.06
 50
179.9999999999984084
 51
270.0
  0
ARC
  5
A16C
  8
0
 10
4407.7687404551306827
 20
142.5414716707861942
 30
0.0
 40
0.06
 50
270.0
 51
359.9999999999951115
  0
LINE
  5
A16D
  8
0
 10
4407.8054044990767579
 20
143.4791137521879136
 30
0.0
 11
4407.7514072974909141
 21
143.6829516499695956
 31
0.0
  0
ARC
  5
A16E
  8
0
 10
4407.1288404551323765
 20
143.2998901364435085
 30
0.0
 40
0.6999
 50
0.0
 51
14.8370157853411992
  0
ARC
  5
A16F
  8
0
 10
4407.5658090650140366
 20
143.6167571147589967
 30
0.0
 40
0.2629736544740362
 50
358.9727540001406965
 51
16.44195204885904
  0
LINE
  5
A170
  8
0
 10
4407.5787404551310829
 20
142.8546668924861933
 30
0.0
 11
4407.5316932110308699
 21
142.8546668924861933
 31
0.0
  0
LINE
  5
A171
  8
0
 10
4407.5787404551310829
 20
143.2482764491861928
 30
0.0
 11
4407.5316932110308699
 21
143.2482764491861928
 31
0.0
  0
CIRCLE
  5
A172
  8
0
 10
4407.7087404552312364
 20
144.3014716707862135
 30
0.0
 40
0.1259459458009128
  0
LINE
  5
A173
  8
0
 10
4410.0332969803539527
 20
159.2218271486495951
 30
0.0
 11
4410.0332969803539527
 21
157.5441859778129015
 31
0.0
  0
LINE
  5
A174
  8
0
 10
4410.0332969803539527
 20
129.3054747656046004
 30
0.0
 11
4410.0332969803539527
 21
127.6278335947677931
 31
0.0
  0
LINE
  5
A175
  8
0
 10
4407.6097630475851474
 20
159.1245109498592001
 30
0.0
 11
4407.6097630475851474
 21
157.6415021766032112
 31
0.0
  0
LINE
  5
A176
  8
0
 10
4407.6097630475851474
 20
129.2081585668142054
 30
0.0
 11
4407.6097630475851474
 21
127.7251497935582023
 31
0.0
  0
LINE
  5
A178
  8
0
 10
4407.8449272897341871
 20
143.3352216707862112
 30
0.0
 11
4407.8287404551310829
 21
143.3352216707862112
 31
0.0
  0
LINE
  5
A179
  8
0
 10
4407.8449272897341871
 20
142.7677216707861874
 30
0.0
 11
4407.8287404551310829
 21
142.7677216707861874
 31
0.0
  0
ENDSEC
  0
EOF
