  0
SECTION
  2
HEADER
  9
$ACADVER
  1
AC1009
  9
$INSBASE
 10
468.8706112280897855
 20
83.7250411773848953
 30
0.0
  9
$EXTMIN
 10
467.8438655055995241
 20
83.7152460556139886
 30
-0.0015258207003583
  9
$EXTMAX
 10
469.887226970415611
 20
85.5959591456658444
 30
0.0000000349246037
  9
$LIMMIN
 10
0.0
 20
0.0
  9
$LIMMAX
 10
11.6929133858000007
 20
8.2677165353999982
  9
$ORTHOMODE
 70
     0
  9
$REGENMODE
 70
     1
  9
$FILLMODE
 70
     1
  9
$QTEXTMODE
 70
     0
  9
$MIRRTEXT
 70
     0
  9
$DRAGMODE
 70
     2
  9
$LTSCALE
 40
0.6431102362
  9
$OSMODE
 70
  4095
  9
$ATTMODE
 70
     1
  9
$TEXTSIZE
 40
0.2
  9
$TRACEWID
 40
0.05
  9
$TEXTSTYLE
  7
STANDARD
  9
$CLAYER
  8
0
  9
$CELTYPE
  6
BYLAYER
  9
$CECOLOR
 62
   256
  9
$DIMSCALE
 40
1.0
  9
$DIMASZ
 40
0.1875
  9
$DIMEXO
 40
0.0625
  9
$DIMDLI
 40
0.4443307087
  9
$DIMRND
 40
0.0
  9
$DIMDLE
 40
0.0
  9
$DIMEXE
 40
0.125
  9
$DIMTP
 40
0.01
  9
$DIMTM
 40
0.01
  9
$DIMTXT
 40
1.0
  9
$DIMCEN
 40
0.1052362205
  9
$DIMTSZ
 40
0.0
  9
$DIMTOL
 70
     1
  9
$DIMLIM
 70
     0
  9
$DIMTIH
 70
     0
  9
$DIMTOH
 70
     1
  9
$DIMSE1
 70
     0
  9
$DIMSE2
 70
     0
  9
$DIMTAD
 70
     0
  9
$DIMZIN
 70
     0
  9
$DIMBLK
  1

  9
$DIMASO
 70
     1
  9
$DIMSHO
 70
     1
  9
$DIMPOST
  1
\X
  9
$DIMAPOST
  1

  9
$DIMALT
 70
     1
  9
$DIMALTD
 70
     2
  9
$DIMALTF
 40
25.3999999999999986
  9
$DIMLFAC
 40
1.0
  9
$DIMTOFL
 70
     0
  9
$DIMTVP
 40
0.0
  9
$DIMTIX
 70
     0
  9
$DIMSOXD
 70
     0
  9
$DIMSAH
 70
     0
  9
$DIMBLK1
  1

  9
$DIMBLK2
  1

  9
$DIMSTYLE
  2
STANDARD
  9
$DIMCLRD
 70
     0
  9
$DIMCLRE
 70
     0
  9
$DIMCLRT
 70
     0
  9
$DIMTFAC
 40
1.0
  9
$DIMGAP
 40
0.09
  9
$LUNITS
 70
     2
  9
$LUPREC
 70
     4
  9
$SKETCHINC
 40
0.1
  9
$FILLETRAD
 40
0.0
  9
$AUNITS
 70
     0
  9
$AUPREC
 70
     0
  9
$MENU
  1
.
  9
$ELEVATION
 40
0.0
  9
$PELEVATION
 40
0.0
  9
$THICKNESS
 40
0.0
  9
$LIMCHECK
 70
     0
  9
$BLIPMODE
 70
     0
  9
$CHAMFERA
 40
0.0
  9
$CHAMFERB
 40
0.0
  9
$SKPOLY
 70
     0
  9
$TDCREATE
 40
2458172.5207638889551163
  9
$TDUPDATE
 40
2460101.6792939808219671
  9
$TDINDWG
 40
0.3300897917
  9
$TDUSRTIMER
 40
0.3300897917
  9
$USRTIMER
 70
     1
  9
$ANGBASE
 50
0.0
  9
$ANGDIR
 70
     0
  9
$PDMODE
 70
     0
  9
$PDSIZE
 40
0.3125
  9
$PLINEWID
 40
0.0
  9
$COORDS
 70
     1
  9
$SPLFRAME
 70
     0
  9
$SPLINETYPE
 70
     6
  9
$SPLINESEGS
 70
     8
  9
$ATTDIA
 70
     1
  9
$ATTREQ
 70
     1
  9
$HANDLING
 70
     1
  9
$HANDSEED
  5
114A1
  9
$SURFTAB1
 70
     6
  9
$SURFTAB2
 70
     6
  9
$SURFTYPE
 70
     6
  9
$SURFU
 70
     6
  9
$SURFV
 70
     6
  9
$UCSNAME
  2

  9
$UCSORG
 10
0.0
 20
0.0
 30
0.0
  9
$UCSXDIR
 10
1.0
 20
0.0
 30
0.0
  9
$UCSYDIR
 10
0.0
 20
1.0
 30
0.0
  9
$PUCSNAME
  2

  9
$PUCSORG
 10
0.0
 20
0.0
 30
0.0
  9
$PUCSXDIR
 10
1.0
 20
0.0
 30
0.0
  9
$PUCSYDIR
 10
0.0
 20
1.0
 30
0.0
  9
$USERI1
 70
     0
  9
$USERI2
 70
     0
  9
$USERI3
 70
     0
  9
$USERI4
 70
     0
  9
$USERI5
 70
     0
  9
$USERR1
 40
0.0
  9
$USERR2
 40
0.0
  9
$USERR3
 40
0.0
  9
$USERR4
 40
0.0
  9
$USERR5
 40
0.0
  9
$WORLDVIEW
 70
     1
  9
$SHADEDGE
 70
     3
  9
$SHADEDIF
 70
    70
  9
$TILEMODE
 70
     1
  9
$MAXACTVP
 70
    64
  9
$PLIMCHECK
 70
     0
  9
$PEXTMIN
 10
1.0000000000000000E+20
 20
1.0000000000000000E+20
 30
1.0000000000000000E+20
  9
$PEXTMAX
 10
-1.0000000000000000E+20
 20
-1.0000000000000000E+20
 30
-1.0000000000000000E+20
  9
$PLIMMIN
 10
0.0
 20
0.0
  9
$PLIMMAX
 10
12.0
 20
9.0
  9
$UNITMODE
 70
     0
  9
$VISRETAIN
 70
     1
  9
$PLINEGEN
 70
     0
  9
$PSLTSCALE
 70
     1
  0
ENDSEC
  0
SECTION
  2
TABLES
  0
TABLE
  2
VPORT
 70
     1
  0
VPORT
  2
*ACTIVE
 70
     0
 10
0.0
 20
0.0
 11
1.0
 21
1.0
 12
39.2362571299538629
 22
14.95306108842124
 13
0.0
 23
0.0
 14
1.0
 24
1.0
 15
0.0
 25
0.0
 16
0.0
 26
0.0
 36
14.6338572656650907
 17
429.6292891080536833
 27
69.7025415122186871
 37
0.0
 40
1.895161590103484
 41
1.4307692307692299
 42
50.0
 43
0.0
 44
0.0
 50
0.0
 51
0.0
 71
     0
 72
   100
 73
     1
 74
     1
 75
     0
 76
     0
 77
     0
 78
     0
  0
ENDTAB
  0
TABLE
  2
LTYPE
 70
     2
  0
LTYPE
  2
CONTINUOUS
 70
     0
  3
Solid line
 72
    65
 73
     0
 40
0.0
  0
LTYPE
  2
PHANTOM2
 70
     0
  3
___ _ _ ___ _ _ ___ _ _ ___ _ _
 72
    65
 73
     6
 40
1.25
 49
0.625
 49
-0.125
 49
0.125
 49
-0.125
 49
0.125
 49
-0.125
  0
ENDTAB
  0
TABLE
  2
LAYER
 70
     2
  0
LAYER
  2
0
 70
     0
 62
   255
  6
CONTINUOUS
  0
LAYER
  2
DEFPOINTS
 70
     0
 62
     7
  6
CONTINUOUS
  0
ENDTAB
  0
TABLE
  2
STYLE
 70
     1
  0
STYLE
  2
STANDARD
 70
     0
 40
0.0
 41
0.8
 50
0.0
 71
     0
 42
0.2
  3
txt
  4

  0
ENDTAB
  0
TABLE
  2
VIEW
 70
     0
  0
ENDTAB
  0
TABLE
  2
UCS
 70
     0
  0
ENDTAB
  0
TABLE
  2
APPID
 70
    10
  0
APPID
  2
ACAD
 70
     0
  0
APPID
  2
ACAD_MLEADERVER
 70
     0
  0
APPID
  2
ACAD_EXEMPT_FROM_CAD_STANDARDS
 70
     0
  0
APPID
  2
ACAD_DSTYLE_DIMJAG
 70
     0
  0
APPID
  2
ACAD_DSTYLE_DIMTALN
 70
     0
  0
APPID
  2
ACAD_NAV_VCDISPLAY
 70
     0
  0
APPID
  2
ACAECLAYERSTANDARD
 70
     0
  0
APPID
  2
ACCMTRANSPARENCY
 70
     0
  0
APPID
  2
DCO15
 70
     0
  0
APPID
  2
ACDBATTR
 70
     0
  0
ENDTAB
  0
TABLE
  2
DIMSTYLE
 70
     1
  0
DIMSTYLE
  2
STANDARD
 70
     0
  3

  4

  5

  6

  7

 40
1.0
 41
0.1875
 42
0.0625
 43
0.38
 44
0.125
 45
0.0
 46
0.0
 47
0.01
 48
0.01
140
0.15625
141
0.09
142
0.0
143
25.3999999999999986
144
1.0
145
0.0
146
1.0
147
0.09
 71
     1
 72
     0
 73
     1
 74
     1
 75
     0
 76
     0
 77
     0
 78
     4
170
     0
171
     2
172
     0
173
     0
174
     0
175
     0
176
     0
177
     0
178
     0
  0
ENDTAB
  0
ENDSEC
  0
SECTION
  2
BLOCKS
  0
BLOCK
  8
0
  2
$MODEL_SPACE
 70
     0
 10
0.0
 20
0.0
 30
0.0
  3
$MODEL_SPACE
  1

  0
ENDBLK
  5
21
  8
0
  0
BLOCK
 67
     1
  8
0
  2
$PAPER_SPACE
 70
     0
 10
0.0
 20
0.0
 30
0.0
  3
$PAPER_SPACE
  1

  0
ENDBLK
  5
1D
 67
     1
  8
0
  0
ENDSEC
  0
SECTION
  2
ENTITIES
  0
ATTDEF
  5
100F7
  8
DEFPOINTS
 10
468.865521572192506
 20
83.722720266633516
 30
0.0
 40
0.001
  1
P21663-00
  3

  2
MODELNUMBER
 70
     0
1001
ACDBATTR
1070
     0
1070
     1
  0
ATTDEF
  5
100F8
  8
DEFPOINTS
 10
468.865521572192506
 20
83.7210535999668366
 30
0.0
 40
0.001
  1
CONTEMPORARY
  3

  2
TRADENAME
 70
     0
1001
ACDBATTR
1070
     0
1070
     1
  0
ATTDEF
  5
100F9
  8
DEFPOINTS
 10
468.865521572192506
 20
83.7193869333001714
 30
0.0
 40
0.001
  1
HANDSHOWER TRIM
  3

  2
PRODUCT
 70
     0
1001
ACDBATTR
1070
     0
1070
     1
  0
LINE
  5
113AD
  8
0
 10
467.8861112280897032
 20
83.7250411773848953
 30
0.0
 11
469.855111228089811
 21
83.7250411773848953
 31
0.0
  0
LINE
  5
113AE
  8
0
 10
467.9661112280896873
 20
84.1693718860849032
 30
0.0
 11
469.7751112280898269
 21
84.1693718860849032
 31
0.0
  0
LINE
  5
113AF
  8
0
 10
469.855111228089811
 20
84.0893718860849049
 30
0.0
 11
469.855111228089811
 21
83.7250411773848953
 31
0.0
  0
LINE
  5
113B0
  8
0
 10
467.8861112280897032
 20
84.0893718860849049
 30
0.0
 11
467.8861112280897032
 21
83.7250411773848953
 31
0.0
  0
LINE
  5
113B1
  8
0
 10
468.681978396798911
 20
85.5700564178271748
 30
0.0
 11
468.9705856146777023
 21
85.1578475940763866
 31
0.0
  0
LINE
  5
113B2
  8
0
 10
469.0136002521580281
 20
85.0964111087033075
 30
0.0
 11
469.3218368313869746
 21
84.6561662711180247
 31
0.0
  0
ARC
  5
113B3
  8
0
 10
469.2070704241131125
 20
84.5758127910350765
 30
0.0
 40
0.1401
 50
358.2493922943376106
 51
34.9977141309732218
  0
LINE
  5
113B4
  8
0
 10
468.6123408286293284
 20
85.582336832287794
 30
0.0
 11
467.8914923428175143
 21
85.0775932885709665
 31
0.0
  0
LINE
  5
113B5
  8
0
 10
468.237470075104909
 20
84.5834782728074543
 30
0.0
 11
468.9583056901387863
 21
85.0882128041050265
 31
0.0
  0
ARC
  5
113B6
  8
0
 10
468.2087912532933274
 20
84.6244358750261654
 30
0.0
 40
0.05
 50
214.9995031934238057
 51
304.9999999915081048
  0
LINE
  5
113B7
  8
0
 10
468.2108513510897865
 20
84.5343202768848982
 30
0.0
 11
469.0136191482762911
 21
85.0964243397612279
 31
0.0
  0
LINE
  5
113B8
  8
0
 10
468.3862341598281773
 20
84.2838430456940273
 30
0.0
 11
468.2108513510897865
 21
84.5343202768848982
 31
0.0
  0
LINE
  5
113B9
  8
0
 10
468.1678334024089168
 20
84.5957574083494137
 30
0.0
 11
467.8792133137523024
 21
85.0079572196809181
 31
0.0
  0
LINE
  5
113BA
  8
0
 10
468.4041068985818015
 20
84.1953711099659046
 30
0.0
 11
469.3371156296793174
 21
84.1953711099659046
 31
0.0
  0
ARC
  5
113BB
  8
0
 10
467.9661112280896873
 20
84.0893718860849049
 30
0.0
 40
0.08
 50
90.0
 51
180.0000000000007958
  0
ARC
  5
113BC
  8
0
 10
469.7751112280898269
 20
84.0893718860849049
 30
0.0
 40
0.08
 50
359.9999999999984084
 51
90.0000000000032543
  0
ARC
  5
113BD
  8
0
 10
468.4672212051348765
 20
84.2271729652226355
 30
0.0
 40
0.0626724091215564
 50
178.2313327396761053
 51
210.4927888248178931
  0
ARC
  5
113BE
  8
0
 10
468.304572081219419
 20
84.2260323659341736
 30
0.0
 40
0.1000538343943085
 50
1.76113496039301
 51
35.2956559418911482
  0
LINE
  5
113BF
  8
0
 10
468.2592007485113186
 20
84.1693948520008064
 30
0.0
 11
468.4041068985818015
 21
84.1953711099659046
 31
0.0
  0
ARC
  5
113C0
  8
0
 10
468.641019650448527
 20
85.5413792300745257
 30
0.0
 40
0.05
 50
34.9977141309752184
 51
125.000000002367301
  0
ARC
  5
113C1
  8
0
 10
468.9296268683273183
 20
85.1291704063237233
 30
0.0
 40
0.05
 50
304.9999999915045805
 51
34.9977141309738826
  0
ARC
  5
113C2
  8
0
 10
467.920171164636713
 20
85.0366356863576982
 30
0.0
 40
0.05
 50
125.0000000023704985
 51
214.9995031934269889
  0
LINE
  5
113C3
  8
0
 10
468.3419102217962973
 20
84.6566080507755174
 30
0.0
 11
468.356249632680715
 21
84.6361292496978024
 31
0.0
  0
LINE
  5
113C4
  8
0
 10
468.8538802493898174
 20
85.0150933234849049
 30
0.0
 11
468.8682196604212891
 21
84.9946145223397451
 31
0.0
  0
LINE
  5
113C5
  8
0
 10
468.4309276324643179
 20
84.7799774422215933
 30
0.0
 11
468.1423039696825867
 21
85.1921747508951057
 31
0.0
  0
LINE
  5
113C6
  8
0
 10
468.7075051950889133
 20
84.9736391364861845
 30
0.0
 11
468.4188815322897881
 21
85.3858364451695167
 31
0.0
  0
ARC
  5
113C7
  8
0
 10
468.1616330717699839
 20
85.2043793166747747
 30
0.0
 40
0.0228596940787844
 50
162.8165147323965982
 51
212.2686762137311121
  0
ARC
  5
113C8
  8
0
 10
468.2320705836203274
 20
85.1825975105857651
 30
0.0
 40
0.0965881834988505
 50
136.3929576091543936
 51
162.8165147302005948
  0
ARC
  5
113C9
  8
0
 10
468.5529849376345055
 20
84.876919677733909
 30
0.0
 40
0.5397867395765719
 50
123.5953290632048009
 51
136.3929576091543936
  0
ARC
  5
113CA
  8
0
 10
469.1127817113749074
 20
84.0342087601147938
 30
0.0
 40
1.551485369883326
 50
120.3197190825156042
 51
123.5953290632048009
  0
ARC
  5
113CB
  8
0
 10
468.4162721906719185
 20
85.2252007876611088
 30
0.0
 40
0.1717797773350675
 50
100.1318361797781051
 51
120.3197190825156042
  0
ARC
  5
113CC
  8
0
 10
468.3932191909610765
 20
85.3542043715252419
 30
0.0
 40
0.0407325894772192
 50
50.9484103865769811
 51
100.1318368773417973
  0
ARC
  5
113CD
  8
0
 10
468.449557299944388
 20
84.7947705052263387
 30
0.0
 40
0.0237886364361028
 50
218.4516633091486995
 51
269.1977181905929228
  0
ARC
  5
113CE
  8
0
 10
468.4506887612433843
 20
84.8755696929646604
 30
0.0
 40
0.1045957459243388
 50
269.1977181751864237
 51
291.3900264543850085
  0
ARC
  5
113CF
  8
0
 10
468.3641647537738208
 20
85.0964661162099532
 30
0.0
 40
0.3418332506978664
 50
291.3900264543850085
 51
300.4881487620932035
  0
ARC
  5
113D0
  8
0
 10
468.1114234734505999
 20
85.5257386833802684
 30
0.0
 40
0.8399829186736718
 50
300.4881487620932035
 51
305.2028666148084994
  0
ARC
  5
113D1
  8
0
 10
468.049328252486589
 20
85.6137549211593267
 30
0.0
 40
0.9476986305236339
 50
305.2028666148084994
 51
309.9437151427691788
  0
ARC
  5
113D2
  8
0
 10
468.4960794832259126
 20
85.0802741077370115
 30
0.0
 40
0.2518621264101826
 50
309.9437151427691788
 51
323.0181093366085179
  0
ARC
  5
113D3
  8
0
 10
468.6354341642335726
 20
84.9753318634698758
 30
0.0
 40
0.0774127017892715
 50
323.0181093366085179
 51
344.1142721517582004
  0
ARC
  5
113D4
  8
0
 10
468.6855760668942139
 20
84.9610620696690262
 30
0.0
 40
0.0252798194831553
 50
344.1142716865787747
 51
29.8356704785200613
  0
LINE
  5
113D5
  8
0
 10
469.3364920538897991
 20
84.2242878554849028
 30
0.0
 11
469.3471050348023255
 21
84.5715328600619927
 31
0.0
  0
ARC
  5
113D6
  8
0
 10
469.2763046075075977
 20
84.2262015090782938
 30
0.0
 40
0.0602178609059475
 50
329.2049878932397746
 51
358.1789001476972771
  0
LINE
  5
113D7
  8
0
 10
469.3371156296793174
 20
84.1953711099659046
 30
0.0
 11
469.4820217076681956
 21
84.1693948520008064
 31
0.0
  0
ENDSEC
  0
EOF
