  0
SECTION
  2
HEADER
  9
$ACADVER
  1
AC1009
  9
$INSBASE
 10
4704.7725347636896913
 20
346.5847300981757257
 30
0.0
  9
$EXTMIN
 10
4702.9799866590619786
 20
311.500575285777586
 30
0.0
  9
$EXTMAX
 10
4706.3881228385607756
 20
356.2082454920682153
 30
0.0
  9
$LIMMIN
 10
0.0
 20
0.0
  9
$LIMMAX
 10
11.6929133858000007
 20
8.2677165353999982
  9
$ORTHOMODE
 70
     0
  9
$REGENMODE
 70
     1
  9
$FILLMODE
 70
     1
  9
$QTEXTMODE
 70
     0
  9
$MIRRTEXT
 70
     0
  9
$DRAGMODE
 70
     2
  9
$LTSCALE
 40
0.6431102362
  9
$OSMODE
 70
  4095
  9
$ATTMODE
 70
     1
  9
$TEXTSIZE
 40
0.2
  9
$TRACEWID
 40
0.05
  9
$TEXTSTYLE
  7
STANDARD
  9
$CLAYER
  8
0
  9
$CELTYPE
  6
BYLAYER
  9
$CECOLOR
 62
   256
  9
$DIMSCALE
 40
1.0
  9
$DIMASZ
 40
0.1875
  9
$DIMEXO
 40
0.0625
  9
$DIMDLI
 40
0.4443307087
  9
$DIMRND
 40
0.0
  9
$DIMDLE
 40
0.0
  9
$DIMEXE
 40
0.125
  9
$DIMTP
 40
0.01
  9
$DIMTM
 40
0.01
  9
$DIMTXT
 40
2.0
  9
$DIMCEN
 40
0.1052362205
  9
$DIMTSZ
 40
0.0
  9
$DIMTOL
 70
     1
  9
$DIMLIM
 70
     0
  9
$DIMTIH
 70
     1
  9
$DIMTOH
 70
     1
  9
$DIMSE1
 70
     0
  9
$DIMSE2
 70
     0
  9
$DIMTAD
 70
     0
  9
$DIMZIN
 70
     0
  9
$DIMBLK
  1

  9
$DIMASO
 70
     1
  9
$DIMSHO
 70
     1
  9
$DIMPOST
  1
\X
  9
$DIMAPOST
  1

  9
$DIMALT
 70
     1
  9
$DIMALTD
 70
     2
  9
$DIMALTF
 40
25.3999999999999986
  9
$DIMLFAC
 40
1.0
  9
$DIMTOFL
 70
     0
  9
$DIMTVP
 40
0.0
  9
$DIMTIX
 70
     0
  9
$DIMSOXD
 70
     0
  9
$DIMSAH
 70
     0
  9
$DIMBLK1
  1

  9
$DIMBLK2
  1

  9
$DIMSTYLE
  2
STANDARD
  9
$DIMCLRD
 70
     0
  9
$DIMCLRE
 70
     0
  9
$DIMCLRT
 70
     0
  9
$DIMTFAC
 40
1.0
  9
$DIMGAP
 40
0.09
  9
$LUNITS
 70
     2
  9
$LUPREC
 70
     4
  9
$SKETCHINC
 40
0.1
  9
$FILLETRAD
 40
0.0
  9
$AUNITS
 70
     0
  9
$AUPREC
 70
     0
  9
$MENU
  1
.
  9
$ELEVATION
 40
0.0
  9
$PELEVATION
 40
0.0
  9
$THICKNESS
 40
0.0
  9
$LIMCHECK
 70
     0
  9
$BLIPMODE
 70
     0
  9
$CHAMFERA
 40
0.0
  9
$CHAMFERB
 40
0.0
  9
$SKPOLY
 70
     0
  9
$TDCREATE
 40
2458060.468368056230247
  9
$TDUPDATE
 40
2459578.7993171298876405
  9
$TDINDWG
 40
0.6622061343
  9
$TDUSRTIMER
 40
0.6622061343
  9
$USRTIMER
 70
     1
  9
$ANGBASE
 50
0.0
  9
$ANGDIR
 70
     0
  9
$PDMODE
 70
     0
  9
$PDSIZE
 40
0.3125
  9
$PLINEWID
 40
0.0
  9
$COORDS
 70
     1
  9
$SPLFRAME
 70
     0
  9
$SPLINETYPE
 70
     6
  9
$SPLINESEGS
 70
     8
  9
$ATTDIA
 70
     1
  9
$ATTREQ
 70
     1
  9
$HANDLING
 70
     1
  9
$HANDSEED
  5
2373D
  9
$SURFTAB1
 70
     6
  9
$SURFTAB2
 70
     6
  9
$SURFTYPE
 70
     6
  9
$SURFU
 70
     6
  9
$SURFV
 70
     6
  9
$UCSNAME
  2

  9
$UCSORG
 10
0.0
 20
0.0
 30
0.0
  9
$UCSXDIR
 10
1.0
 20
0.0
 30
0.0
  9
$UCSYDIR
 10
0.0
 20
1.0
 30
0.0
  9
$PUCSNAME
  2

  9
$PUCSORG
 10
0.0
 20
0.0
 30
0.0
  9
$PUCSXDIR
 10
1.0
 20
0.0
 30
0.0
  9
$PUCSYDIR
 10
0.0
 20
1.0
 30
0.0
  9
$USERI1
 70
     0
  9
$USERI2
 70
     0
  9
$USERI3
 70
     0
  9
$USERI4
 70
     0
  9
$USERI5
 70
     0
  9
$USERR1
 40
0.0
  9
$USERR2
 40
0.0
  9
$USERR3
 40
0.0
  9
$USERR4
 40
0.0
  9
$USERR5
 40
0.0
  9
$WORLDVIEW
 70
     1
  9
$SHADEDGE
 70
     3
  9
$SHADEDIF
 70
    70
  9
$TILEMODE
 70
     1
  9
$MAXACTVP
 70
    64
  9
$PLIMCHECK
 70
     0
  9
$PEXTMIN
 10
1.0000000000000000E+20
 20
1.0000000000000000E+20
 30
1.0000000000000000E+20
  9
$PEXTMAX
 10
-1.0000000000000000E+20
 20
-1.0000000000000000E+20
 30
-1.0000000000000000E+20
  9
$PLIMMIN
 10
0.0
 20
0.0
  9
$PLIMMAX
 10
12.0
 20
9.0
  9
$UNITMODE
 70
     0
  9
$VISRETAIN
 70
     1
  9
$PLINEGEN
 70
     0
  9
$PSLTSCALE
 70
     1
  0
ENDSEC
  0
SECTION
  2
TABLES
  0
TABLE
  2
VPORT
 70
     1
  0
VPORT
  2
*ACTIVE
 70
     0
 10
0.0
 20
0.0
 11
1.0
 21
1.0
 12
793.3186983034984223
 22
201.2748052863838097
 13
0.0
 23
0.0
 14
1.0
 24
1.0
 15
0.0
 25
0.0
 16
0.0
 26
0.0
 36
60.4960186965801583
 17
3911.3653564453120453
 27
132.5796051025390057
 37
0.0
 40
45.0620242634078565
 41
1.67063492063492
 42
50.0
 43
0.0
 44
0.0
 50
0.0
 51
0.0
 71
     0
 72
   100
 73
     1
 74
     1
 75
     0
 76
     0
 77
     0
 78
     0
  0
ENDTAB
  0
TABLE
  2
LTYPE
 70
     2
  0
LTYPE
  2
CONTINUOUS
 70
     0
  3
Solid line
 72
    65
 73
     0
 40
0.0
  0
LTYPE
  2
PHANTOM2
 70
     0
  3
___ _ _ ___ _ _ ___ _ _ ___ _ _
 72
    65
 73
     6
 40
1.25
 49
0.625
 49
-0.125
 49
0.125
 49
-0.125
 49
0.125
 49
-0.125
  0
ENDTAB
  0
TABLE
  2
LAYER
 70
     2
  0
LAYER
  2
0
 70
     0
 62
   255
  6
CONTINUOUS
  0
LAYER
  2
DEFPOINTS
 70
     0
 62
     7
  6
CONTINUOUS
  0
ENDTAB
  0
TABLE
  2
STYLE
 70
     1
  0
STYLE
  2
STANDARD
 70
     0
 40
0.0
 41
0.8
 50
0.0
 71
     0
 42
0.2
  3
txt
  4

  0
ENDTAB
  0
TABLE
  2
VIEW
 70
     0
  0
ENDTAB
  0
TABLE
  2
UCS
 70
     0
  0
ENDTAB
  0
TABLE
  2
APPID
 70
    11
  0
APPID
  2
ACAD
 70
     0
  0
APPID
  2
ACAD_MLEADERVER
 70
     0
  0
APPID
  2
ACAD_EXEMPT_FROM_CAD_STANDARDS
 70
     0
  0
APPID
  2
ACAD_NAV_VCDISPLAY
 70
     0
  0
APPID
  2
ACAECLAYERSTANDARD
 70
     0
  0
APPID
  2
ACCMTRANSPARENCY
 70
     0
  0
APPID
  2
ACAD_DSTYLE_DIMJAG
 70
     0
  0
APPID
  2
ACAD_DSTYLE_DIMTALN
 70
     0
  0
APPID
  2
ACDBATTR
 70
     0
  0
APPID
  2
ACADANNOTATIVE
 70
     0
  0
APPID
  2
DCO15
 70
     0
  0
ENDTAB
  0
TABLE
  2
DIMSTYLE
 70
     1
  0
DIMSTYLE
  2
STANDARD
 70
     0
  3

  4

  5

  6

  7

 40
1.0
 41
0.1875
 42
0.0625
 43
0.38
 44
0.125
 45
0.0
 46
0.0
 47
0.01
 48
0.01
140
0.15625
141
0.09
142
0.0
143
25.3999999999999986
144
1.0
145
0.0
146
1.0
147
0.09
 71
     1
 72
     0
 73
     1
 74
     1
 75
     0
 76
     0
 77
     0
 78
     4
170
     0
171
     2
172
     0
173
     0
174
     0
175
     0
176
     0
177
     0
178
     0
  0
ENDTAB
  0
ENDSEC
  0
SECTION
  2
BLOCKS
  0
BLOCK
  8
0
  2
$MODEL_SPACE
 70
     0
 10
0.0
 20
0.0
 30
0.0
  3
$MODEL_SPACE
  1

  0
ENDBLK
  5
21
  8
0
  0
BLOCK
 67
     1
  8
0
  2
$PAPER_SPACE
 70
     0
 10
0.0
 20
0.0
 30
0.0
  3
$PAPER_SPACE
  1

  0
ENDBLK
  5
1D
 67
     1
  8
0
  0
ENDSEC
  0
SECTION
  2
ENTITIES
  0
ATTDEF
  5
211C4
  8
DEFPOINTS
 10
4704.7672468781884163
 20
346.5825814136917984
 30
0.0
 40
0.001
  1
P21660-00
  3

  2
MODELNUMBER
 70
     0
1001
ACDBATTR
1070
     0
1070
     1
  0
ATTDEF
  5
211C5
  8
DEFPOINTS
 10
4704.7672468781884163
 20
346.5809145733126115
 30
0.0
 40
0.001
  1

  3

  2
TRADENAME
 70
     0
1001
ACDBATTR
1070
     0
1070
     1
  0
ATTDEF
  5
211C6
  8
DEFPOINTS
 10
4704.7672468781884163
 20
346.5792480803584112
 30
0.0
 40
0.001
  1
HANDSHOWER
  3

  2
PRODUCT
 70
     0
1001
ACDBATTR
1070
     0
1070
     1
  0
LINE
  5
2352B
  8
0
 10
4704.3091568067620756
 20
346.5847300981757257
 30
0.0
 11
4705.2359127206200355
 21
346.5847300981757257
 31
0.0
  0
LINE
  5
2352C
  8
0
 10
4706.3881228385607756
 20
346.1476011173123197
 30
0.0
 11
4706.3881228385607756
 21
344.730753003175721
 31
0.0
  0
LINE
  5
2352D
  8
0
 10
4704.5238117046601474
 20
325.2442753652755982
 30
0.0
 11
4704.5238117046601474
 21
344.8283385432882824
 31
0.0
  0
LINE
  5
2352E
  8
0
 10
4704.5238117046601474
 20
323.8272753652756819
 30
0.0
 11
4704.5238117046601474
 21
311.7684498584429207
 31
0.0
  0
LINE
  5
2352F
  8
0
 10
4705.0239918632596527
 20
325.2442753652755982
 30
0.0
 11
4705.0239918632596527
 21
344.8056243133929115
 31
0.0
  0
LINE
  5
23530
  8
0
 10
4705.0239918632596527
 20
323.8272753652756819
 30
0.0
 11
4705.0239918632596527
 21
311.7684351139105274
 31
0.0
  0
LINE
  5
23531
  8
0
 10
4704.3334015861082662
 20
325.2442753652755982
 30
0.0
 11
4705.2145055547598531
 21
325.2442753652755982
 31
0.0
  0
LINE
  5
23532
  8
0
 10
4704.4100579284140622
 20
323.8272753652756819
 30
0.0
 11
4705.137841292160374
 21
323.8272753652756819
 31
0.0
  0
LINE
  5
23533
  8
0
 10
4704.3214095012308462
 20
325.2318395897535197
 30
0.0
 11
4704.3710836607606325
 21
323.8648588692756789
 31
0.0
  0
LINE
  5
23534
  8
0
 10
4705.2264976371161538
 20
325.2318395203756722
 30
0.0
 11
4705.1768155598147132
 21
323.864858869309387
 31
0.0
  0
LINE
  5
23535
  8
0
 10
4704.270012802259771
 20
344.8776453796127726
 30
0.0
 11
4704.270012802259771
 21
346.0007091582904764
 31
0.0
  0
LINE
  5
23536
  8
0
 10
4704.287396037399958
 20
346.0204493683867213
 30
0.0
 11
4704.4973340133192323
 21
346.0472152699662161
 31
0.0
  0
LINE
  5
23537
  8
0
 10
4704.2874433095194036
 20
344.8578992000936978
 30
0.0
 11
4704.5568225574634198
 21
344.8242101466389045
 31
0.0
  0
ARC
  5
23538
  8
0
 10
4704.2899128022609148
 20
344.8776453796127726
 30
0.0
 40
0.0199
 50
180.0000000000260059
 51
262.8714973102642034
  0
ARC
  5
23539
  8
0
 10
4704.2899128022609148
 20
346.0007091582904764
 30
0.0
 40
0.0199
 50
97.2656887758631825
 51
180.0000000000098055
  0
LINE
  5
2353A
  8
0
 10
4704.3211466088578163
 20
346.5722920187188265
 30
0.0
 11
4704.3410560366119171
 21
346.0272907140334837
 31
0.0
  0
ARC
  5
2353B
  8
0
 10
4704.3331386097934228
 20
346.5727300981757253
 30
0.0
 40
0.012
 50
90.0
 51
182.0921402229988075
  0
ARC
  5
2353C
  8
0
 10
4718.5468783366613934
 20
345.5493095512857735
 30
0.0
 40
14.3399067084815499
 50
168.6528891312115945
 51
175.600049681556186
  0
ARC
  5
2353D
  8
0
 10
4696.1430352513061734
 20
349.8763974817002804
 30
0.0
 40
8.4789934339456696
 50
349.7713210429532182
 51
358.1066690293317833
  0
ARC
  5
2353E
  8
0
 10
4696.7408787531367125
 20
349.7027941446388013
 30
0.0
 40
7.8772413956317253
 50
359.2251009410766756
 51
7.5389046318275943
  0
ARC
  5
2353F
  8
0
 10
4689.8118745455758472
 20
348.7857865690140784
 30
0.0
 40
14.8666621300101802
 50
7.5389046318275943
 51
10.4971794692917602
  0
ARC
  5
23540
  8
0
 10
4704.3412326462721467
 20
351.4779041158927271
 30
0.0
 40
0.09
 50
10.4971794692917602
 51
102.7737524773213948
  0
ARC
  5
23541
  8
0
 10
4704.3091568067620756
 20
346.6448300981757029
 30
0.0
 40
0.0601
 50
175.6000496815593976
 51
270.0
  0
LINE
  5
23542
  8
0
 10
4705.2267526116920635
 20
346.5722920186756824
 30
0.0
 11
4705.2111259525408968
 21
346.1445273587412998
 31
0.0
  0
ARC
  5
23543
  8
0
 10
4704.4100579284140622
 20
323.866275365275726
 30
0.0
 40
0.039
 50
182.0811324403007916
 51
270.0
  0
ARC
  5
23544
  8
0
 10
4705.137841292160374
 20
323.866275365275726
 30
0.0
 40
0.039
 50
270.0
 51
357.9185360254610941
  0
ARC
  5
23545
  8
0
 10
4704.3334015861082662
 20
325.2322753652757115
 30
0.0
 40
0.012
 50
90.0
 51
182.0811324403073002
  0
ARC
  5
23546
  8
0
 10
4705.2145055547598531
 20
325.2322753652757115
 30
0.0
 40
0.012
 50
357.9185360254579109
 51
90.0
  0
ARC
  5
23547
  8
0
 10
4704.7739012773090508
 20
311.7512552582945773
 30
0.0
 40
0.2506799725169805
 50
176.0668889233282925
 51
3.929733095903678
  0
LINE
  5
23548
  8
0
 10
4704.6092487501764481
 20
324.024275401564978
 30
0.0
 11
4704.9386520639609444
 21
324.0242753652756846
 31
0.0
  0
LINE
  5
23549
  8
0
 10
4704.9386520793332238
 20
324.0242753754383216
 30
0.0
 11
4704.9237015889693794
 21
323.8648667441648854
 31
0.0
  0
LINE
  5
2354A
  8
0
 10
4704.6092487534388056
 20
324.0242753652756846
 30
0.0
 11
4704.6242001398595676
 21
323.8648588692756789
 31
0.0
  0
ARC
  5
2354B
  8
0
 10
4704.6501635487538806
 20
323.8710131277413211
 30
0.0
 40
0.0266829595084904
 50
193.3349763284749088
 51
242.8140901979446937
  0
ARC
  5
2354C
  8
0
 10
4704.6982085793379156
 20
323.9645552225550205
 30
0.0
 40
0.1318421172925536
 50
242.8140901979446937
 51
258.8942189729780239
  0
ARC
  5
2354D
  8
0
 10
4704.7546848737511027
 20
324.2522636394674009
 30
0.0
 40
0.4250412049327944
 50
258.8942189729780239
 51
269.0957664691956097
  0
ARC
  5
2354E
  8
0
 10
4704.8793531061201065
 20
323.8865796023762869
 30
0.0
 40
0.0493784987909556
 50
277.370522071542382
 51
333.9137956226152824
  0
ARC
  5
2354F
  8
0
 10
4704.7678915332280667
 20
324.4426147100438129
 30
0.0
 40
0.6163665370010936
 50
273.3082955405249095
 51
281.0177877482195186
  0
ARC
  5
23550
  8
0
 10
4706.368122838560339
 20
346.1476011173123197
 30
0.0
 40
0.02
 50
359.9999999999902229
 51
90.2171478307652279
  0
LINE
  5
23551
  8
0
 10
4706.3680470397612225
 20
346.1676009736755759
 30
0.0
 11
4705.2546105801793601
 21
346.1676009736755759
 31
0.0
  0
LINE
  5
23552
  8
0
 10
4706.368122838560339
 20
344.7107530031756824
 30
0.0
 11
4705.2058321825634266
 21
344.7107530031756824
 31
0.0
  0
ARC
  5
23553
  8
0
 10
4706.368122838560339
 20
344.730753003175721
 30
0.0
 40
0.02
 50
270.0
 51
359.9999999999935199
  0
ARC
  5
23554
  8
0
 10
4704.5599415815913744
 20
344.8450849359443282
 30
0.0
 40
0.0211065189009934
 50
261.5019707275887981
 51
288.3827215749627157
  0
ARC
  5
23555
  8
0
 10
4704.786536906521178
 20
344.2359662439292265
 30
0.0
 40
0.6288078527254926
 50
96.4810753147669544
 51
110.4733442072604959
  0
ARC
  5
23556
  8
0
 10
4704.7694863387660007
 20
344.280143473701628
 30
0.0
 40
0.5831109338777331
 50
67.4047921603261386
 51
95.3062997772737646
  0
ARC
  5
23557
  8
0
 10
4704.5302335804153699
 20
343.679536055723986
 30
0.0
 40
1.229582045224334
 50
57.6370526428508896
 51
67.8649949776097117
  0
ARC
  5
23558
  8
0
 10
4705.234166028083564
 20
344.8019338766787882
 30
0.0
 40
0.0954817181179462
 50
241.3626536299346981
 51
252.737717910057512
  0
ARC
  5
23559
  8
0
 10
4704.7697150337680796
 20
346.5707454788907853
 30
0.0
 40
0.5866043173276461
 50
243.4190495225703046
 51
280.9691194432044199
  0
ARC
  5
2355A
  8
0
 10
4704.6628925930372134
 20
346.9082808510319182
 30
0.0
 40
0.9391789359034085
 50
283.4494675164007162
 51
302.4074245216136205
  0
ARC
  5
2355B
  8
0
 10
4704.023180811104794
 20
348.0121614321466836
 30
0.0
 40
2.2145837190197222
 50
301.0741840214359968
 51
303.3040009240182258
  0
ARC
  5
2355C
  8
0
 10
4705.2647505111035571
 20
346.1207942701694833
 30
0.0
 40
0.0478924387796512
 50
102.223343714861997
 51
122.288706285347601
  0
ARC
  5
2355D
  8
0
 10
4704.5001447532158636
 20
346.0269330711096245
 30
0.0
 40
0.0204760310907153
 50
69.7495036380203857
 51
97.8898897339539218
  0
ARC
  5
2355E
  8
0
 10
4705.214760610760095
 20
346.5727300981757253
 30
0.0
 40
0.012
 50
357.9078597689896242
 51
90.0
  0
ARC
  5
2355F
  8
0
 10
4670.7121239826810779
 20
346.6729212143659993
 30
0.0
 40
34.5838002479554021
 50
359.9532139525388175
 51
6.8733410209361807
  0
ARC
  5
23560
  8
0
 10
4705.2359127206200355
 20
346.644730098175728
 30
0.0
 40
0.06
 50
270.0
 51
359.9532139525192065
  0
ARC
  5
23561
  8
0
 10
4680.5889631445415944
 20
347.8634874822420784
 30
0.0
 40
24.6354637102481284
 50
6.8733410209361807
 51
11.1623849447275294
  0
ARC
  5
23562
  8
0
 10
4668.5141760581209383
 20
345.480852157473123
 30
0.0
 40
36.9430806312149898
 50
11.1623849447275294
 51
13.9613044499928804
  0
ARC
  5
23563
  8
0
 10
4691.8068504032416968
 20
351.1169522179482101
 30
0.0
 40
12.9795637746913393
 50
14.6240809209243494
 51
21.0941509091771202
  0
ARC
  5
23564
  8
0
 10
4703.8233582228785963
 20
355.7523273750375097
 30
0.0
 40
0.1
 50
21.0941509091801613
 51
102.7766101677568997
  0
LINE
  5
23565
  8
0
 10
4703.6921352761910384
 20
355.8251094740937788
 30
0.0
 11
4703.8012431834440576
 21
355.8498513466074087
 31
0.0
  0
LINE
  5
23566
  8
0
 10
4703.5288697683326973
 20
356.1381471433933257
 30
0.0
 11
4704.5091190281018498
 21
351.815035687426473
 31
0.0
  0
LINE
  5
23567
  8
0
 10
4703.0617358655063072
 20
356.1245098326339189
 30
0.0
 11
4703.4211954856091324
 21
356.2060173509311198
 31
0.0
  0
LINE
  5
23568
  8
0
 10
4703.0391119026862725
 20
356.088621850356617
 30
0.0
 11
4704.0700756521719086
 21
351.5394771318584048
 31
0.0
  0
ARC
  5
23569
  8
0
 10
4703.0683699591945697
 20
356.0952525463462734
 30
0.0
 40
0.03
 50
102.7757913033397017
 51
192.7691375314634001
  0
ARC
  5
2356A
  8
0
 10
4703.4410977666766485
 20
356.1182454920681835
 30
0.0
 40
0.09
 50
12.7753802189296302
 51
102.7757913033397017
  0
ARC
  5
2356B
  8
0
 10
4703.672231740699317
 20
355.9128810485066765
 30
0.0
 40
0.09
 50
192.7753802189328098
 51
282.7766101677569281
  0
LINE
  5
2356C
  8
0
 10
4704.1059667612689736
 20
351.5168503055098199
 30
0.0
 11
4704.3213334885085715
 21
351.5656766829072808
 31
0.0
  0
ARC
  5
2356D
  8
0
 10
4704.0993337086811152
 20
351.5461078278481182
 30
0.0
 40
0.03
 50
192.7691375314634001
 51
282.7737524773222049
  0
ARC
  5
2356E
  8
0
 10
4703.92234699034816
 20
352.2566919521589739
 30
0.0
 40
0.7979292868978202
 50
300.001609645826079
 51
309.8462763242437745
  0
ARC
  5
2356F
  8
0
 10
4704.3715335195838634
 20
351.7468064657026048
 30
0.0
 40
0.1200325379357279
 50
301.1389784659776865
 51
319.7160032245267871
  0
ARC
  5
23570
  8
0
 10
4704.124824713144335
 20
351.9559123096578901
 30
0.0
 40
0.4434370665850127
 50
319.7160032245267871
 51
328.0509622329237231
  0
ARC
  5
23571
  8
0
 10
4704.3755679267369487
 20
351.7792399713677014
 30
0.0
 40
0.1382650714550737
 50
335.2075982894965023
 51
15.0043262263602095
  0
ARC
  5
23572
  8
0
 10
4685.2305587721975826
 20
348.396207322856128
 30
0.0
 40
19.5902122815052309
 50
354.6943668498706757
 51
6.9201869302602752
  0
ARC
  5
23573
  8
0
 10
4698.6696931502719963
 20
350.1393059993189922
 30
0.0
 40
6.0399856492481021
 50
5.8656130896993934
 51
13.7910089883973495
  0
ARC
  5
23574
  8
0
 10
4704.4456769272492238
 20
351.5505247946931036
 30
0.0
 40
0.0943197907018519
 50
17.6509466218067388
 51
97.3538888093785459
  0
ARC
  5
23575
  8
0
 10
4704.2243453228920771
 20
351.4802023478471824
 30
0.0
 40
0.2155629561269095
 50
165.7501847176991987
 51
196.6193375929842944
  0
ARC
  5
23576
  8
0
 10
4703.9039315540512689
 20
351.3845650911302982
 30
0.0
 40
0.1188192625030245
 50
349.3807572169192213
 51
16.6193375929843015
  0
ARC
  5
23577
  8
0
 10
4701.9138389591553278
 20
351.7576926215979825
 30
0.0
 40
2.1435890494784329
 50
348.7023596427628149
 51
349.3807572169192213
  0
ARC
  5
23578
  8
0
 10
4703.8646250148849504
 20
351.367970650049017
 30
0.0
 40
0.1542551282027222
 50
282.9055882950527803
 51
348.7023596427628149
  0
ARC
  5
23579
  8
0
 10
4703.864677408906573
 20
351.3677419882243953
 30
0.0
 40
0.1540205405569605
 50
166.2625241849150939
 51
282.9055882950535192
  0
ARC
  5
2357A
  8
0
 10
4716.5408209129473107
 20
348.2688460172635132
 30
0.0
 40
13.2034561748615502
 50
165.6285754942248047
 51
166.2625241849150939
  0
ARC
  5
2357B
  8
0
 10
4813.5270260727420464
 20
323.4185737061907275
 30
0.0
 40
113.3226852231935027
 50
165.4306174366608957
 51
165.6285754942248047
  0
ARC
  5
2357C
  8
0
 10
4704.2238898848136159
 20
351.4808196975799888
 30
0.0
 40
0.2149701202939336
 50
142.3755088563243874
 51
165.8797842462988967
  0
ARC
  5
2357D
  8
0
 10
7621.5644204829932278
 20
1015.5789354405869744
 30
0.0
 40
2991.3194630085649806
 50
192.74242142027461
 51
192.7703702568803976
  0
ARC
  5
2357E
  8
0
 10
4863.8206681796164048
 20
390.5344942387346805
 30
0.0
 40
163.6293886111531037
 50
192.7703702568803976
 51
193.4022361314675891
  0
ARC
  5
2357F
  8
0
 10
4686.5477829846686291
 20
348.294824566515274
 30
0.0
 40
18.6063529966858603
 50
7.7371609008488047
 51
13.4022361314708292
  0
ARC
  5
23580
  8
0
 10
4683.0626345825930912
 20
346.7407626741933768
 30
0.0
 40
22.2947200665916405
 50
7.4506549783179201
 51
10.48987080159384
  0
LINE
  5
23581
  8
0
 10
4703.8817859443852285
 20
351.8668844534407754
 30
0.0
 11
4703.9401275363607056
 21
351.8801133088757069
 31
0.0
  0
ARC
  5
23582
  8
0
 10
4703.8774295901994265
 20
351.8860967458135178
 30
0.0
 40
0.0197
 50
192.775600812865207
 51
282.7756898936718812
  0
LINE
  5
23583
  8
0
 10
4703.8389362043908477
 20
352.0557929540827899
 30
0.0
 11
4703.89526914525959
 21
352.0685662592755989
 31
0.0
  0
LINE
  5
23584
  8
0
 10
4703.8233964713608657
 20
352.0353075014756996
 30
0.0
 11
4703.8582172910528243
 21
351.8817404214988187
 31
0.0
  0
LINE
  5
23585
  8
0
 10
4703.0569192995199046
 20
356.0100464151923916
 30
0.0
 11
4703.0554415407614215
 21
355.7222304364756837
 31
0.0
  0
LINE
  5
23586
  8
0
 10
4702.9953186824559452
 20
355.7763222330974031
 30
0.0
 11
4703.0557896696373064
 21
355.7900338263459048
 31
0.0
  0
LINE
  5
23587
  8
0
 10
4702.9804739895607781
 20
355.752771508075682
 30
0.0
 11
4703.0299028394601919
 21
355.5347799674756857
 31
0.0
  0
LINE
  5
23588
  8
0
 10
4703.0379154902466325
 20
355.4994425055376155
 30
0.0
 11
4703.0727396185602629
 21
355.3458608344756726
 31
0.0
  0
LINE
  5
23589
  8
0
 10
4703.0527601831672655
 20
355.522993230499992
 30
0.0
 11
4703.1090935634374546
 21
355.5357666360889084
 31
0.0
  0
LINE
  5
2358A
  8
0
 10
4703.0962903434656255
 20
355.3310161415540165
 30
0.0
 11
4703.1181474486620573
 21
355.3359721668757061
 31
0.0
  0
LINE
  5
2358B
  8
0
 10
4702.9984643969610261
 20
355.4036423471757189
 30
0.0
 11
4703.0805200688273544
 21
355.0417597145943773
 31
0.0
  0
LINE
  5
2358C
  8
0
 10
4703.0208458819679436
 20
355.0554843122407078
 30
0.0
 11
4703.1366305339233804
 21
354.5448498406570934
 31
0.0
  0
LINE
  5
2358D
  8
0
 10
4703.0153294473602728
 20
354.6081507107757034
 30
0.0
 11
4703.0843019960448146
 21
354.3039673809462897
 31
0.0
  0
LINE
  5
2358E
  8
0
 10
4703.0356905748558347
 20
355.0790350371972863
 30
0.0
 11
4703.0702891614755572
 21
355.0868801505744727
 31
0.0
  0
LINE
  5
2358F
  8
0
 10
4703.0535256572884464
 20
354.911359684851675
 30
0.0
 11
4703.1073219528680056
 21
354.9235578142345844
 31
0.0
  0
LINE
  5
23590
  8
0
 10
4703.116581568854599
 20
354.9717398933973982
 30
0.0
 11
4703.162978680859851
 21
354.9822602827755986
 31
0.0
  0
LINE
  5
23591
  8
0
 10
4703.1017368761604303
 20
354.9481891677756948
 30
0.0
 11
4703.1365610042266781
 21
354.7946074973381769
 31
0.0
  0
LINE
  5
23592
  8
0
 10
4703.1601117291984337
 20
354.7797628044614839
 30
0.0
 11
4703.1847136864562344
 21
354.7853867554377985
 31
0.0
  0
ARC
  5
23593
  8
0
 10
4703.1557587131655964
 20
354.7989605134084741
 30
0.0
 40
0.0196850394308058
 50
192.7755987144286962
 51
282.7756010109848148
  0
ARC
  5
23594
  8
0
 10
4703.120934584861061
 20
354.9525421844755897
 30
0.0
 40
0.0196850394000001
 50
102.7756007404550047
 51
192.7756008394028129
  0
ARC
  5
23595
  8
0
 10
4703.0962040093645555
 20
354.814709030516326
 30
0.0
 40
0.0932403279404596
 50
341.6705385341372789
 51
5.6721861422258391
  0
ARC
  5
23596
  8
0
 10
4715.2188440602676565
 20
356.0187661715884815
 30
0.0
 40
12.0890482666842196
 50
185.173929616641999
 51
185.6721861422257973
  0
ARC
  5
23597
  8
0
 10
4703.0359511178230605
 20
354.9149770612610837
 30
0.0
 40
0.1437464214115423
 50
5.4311899835720503
 51
27.9090139677805205
  0
LINE
  5
23598
  8
0
 10
4703.1208982343223397
 20
355.2224902090661089
 30
0.0
 11
4703.1672953463257727
 21
355.2330105984444231
 31
0.0
  0
LINE
  5
23599
  8
0
 10
4703.1060535416272614
 20
355.1989394834444056
 30
0.0
 11
4703.1408776696944187
 21
355.0453578130070014
 31
0.0
  0
LINE
  5
2359A
  8
0
 10
4703.1644283946652649
 20
355.0305131201301947
 30
0.0
 11
4703.1890303519230656
 21
355.0361370711065092
 31
0.0
  0
ARC
  5
2359B
  8
0
 10
4703.1600753786324276
 20
355.0497108290771848
 30
0.0
 40
0.0196850394308058
 50
192.7755987144286962
 51
282.7756010109848148
  0
ARC
  5
2359C
  8
0
 10
4703.1252512503269827
 20
355.2032925001444141
 30
0.0
 40
0.0196850394000001
 50
102.7756007404550047
 51
192.7756008394028129
  0
ARC
  5
2359D
  8
0
 10
4703.1005206748332057
 20
355.0654593461850936
 30
0.0
 40
0.0932403279404596
 50
341.6705385341372789
 51
5.6721861422258391
  0
ARC
  5
2359E
  8
0
 10
4715.2231607257353971
 20
356.2695164872571922
 30
0.0
 40
12.0890482666842196
 50
185.173929616641999
 51
185.6721861422257973
  0
ARC
  5
2359F
  8
0
 10
4703.0402677832898917
 20
355.1657273769299081
 30
0.0
 40
0.1437464214115423
 50
5.4311899835720503
 51
27.9090139677805205
  0
LINE
  5
235A0
  8
0
 10
4703.0605406336217129
 20
355.2188921099161121
 30
0.0
 11
4703.1069377456260554
 21
355.2294124992944262
 31
0.0
  0
LINE
  5
235A1
  8
0
 10
4703.1040707939646381
 20
355.0269150209801978
 30
0.0
 11
4703.1286727512224388
 21
355.0325389719565123
 31
0.0
  0
ARC
  5
235A2
  8
0
 10
4703.0997177779327103
 20
355.046112729927188
 30
0.0
 40
0.0196850394308058
 50
192.7755987144286962
 51
282.7756010109848148
  0
ARC
  5
235A3
  8
0
 10
4703.0648936496272654
 20
355.1996944009944173
 30
0.0
 40
0.0196850394000001
 50
102.7756007404550047
 51
192.7756008394028129
  0
ARC
  5
235A4
  8
0
 10
4703.0401630741316694
 20
355.0618612470349831
 30
0.0
 40
0.0932403279404596
 50
341.6705385341372789
 51
5.6721861422258391
  0
ARC
  5
235A5
  8
0
 10
4715.1628031250347703
 20
356.2659183881071954
 30
0.0
 40
12.0890482666842196
 50
185.5941528214364951
 51
185.6721861422257973
  0
ARC
  5
235A6
  8
0
 10
4702.9799101825892649
 20
355.1621292777799113
 30
0.0
 40
0.1437464214115423
 50
22.9241415176628394
 51
27.9090139677805205
  0
LINE
  5
235A7
  8
0
 10
4703.2096979946218198
 20
354.8308647395160733
 30
0.0
 11
4703.2560951066270718
 21
354.8413851288943874
 31
0.0
  0
LINE
  5
235A8
  8
0
 10
4703.1948533019258321
 20
354.8073140138944268
 30
0.0
 11
4703.2296774299938988
 21
354.6537323434570226
 31
0.0
  0
LINE
  5
235A9
  8
0
 10
4703.253228154964745
 20
354.6388876505802727
 30
0.0
 11
4703.2778301122225457
 21
354.6445116015564736
 31
0.0
  0
ARC
  5
235AA
  8
0
 10
4703.2488751389328172
 20
354.6580853595273197
 30
0.0
 40
0.0196850394308058
 50
192.7755987144286962
 51
282.7756010109848148
  0
ARC
  5
235AB
  8
0
 10
4703.2140510106273723
 20
354.8116670305943785
 30
0.0
 40
0.0196850394000001
 50
102.7756007404550047
 51
192.7756008394028129
  0
ARC
  5
235AC
  8
0
 10
4703.1893204351317763
 20
354.6738338766350012
 30
0.0
 40
0.0932403279404596
 50
341.6705385341372789
 51
5.6721861422258391
  0
ARC
  5
235AD
  8
0
 10
4715.3119604860348772
 20
355.8778910177072135
 30
0.0
 40
12.0890482666842196
 50
185.173929616641999
 51
185.6721861422257973
  0
ARC
  5
235AE
  8
0
 10
4703.1290675435893718
 20
354.7741019073798725
 30
0.0
 40
0.1437464214115423
 50
5.4311899835720503
 51
27.9090139677805205
  0
LINE
  5
235AF
  8
0
 10
4703.189606239022396
 20
354.6496858626160247
 30
0.0
 11
4703.2285906118386265
 21
354.6585254382703738
 31
0.0
  0
LINE
  5
235B0
  8
0
 10
4703.1747615463273178
 20
354.6261351369943782
 30
0.0
 11
4703.2095856743935656
 21
354.4725534665569739
 31
0.0
  0
LINE
  5
235B1
  8
0
 10
4703.2331363993653213
 20
354.4577087736802241
 30
0.0
 11
4703.2577383566231219
 21
354.4633327246564818
 31
0.0
  0
ARC
  5
235B2
  8
0
 10
4703.2287833833315744
 20
354.4769064826273279
 30
0.0
 40
0.0196850394308058
 50
192.7755987144286962
 51
282.7756010109848148
  0
ARC
  5
235B3
  8
0
 10
4703.193959255027039
 20
354.6304881536943867
 30
0.0
 40
0.0196850394000001
 50
102.7756007404550047
 51
192.7756008394028129
  0
ARC
  5
235B4
  8
0
 10
4703.169228679533262
 20
354.4926549997351231
 30
0.0
 40
0.0932403279404596
 50
341.6705385341372789
 51
5.6721861422258391
  0
ARC
  5
235B5
  8
0
 10
4715.2918687304354535
 20
355.6967121408072217
 30
0.0
 40
12.0890482666842196
 50
185.173929616641999
 51
185.6721861422257973
  0
ARC
  5
235B6
  8
0
 10
4703.108975787989948
 20
354.5929230304798807
 30
0.0
 40
0.1437464214115423
 50
5.4311899835720503
 51
18.5871858168919388
  0
LINE
  5
235B7
  8
0
 10
4703.1738988337210685
 20
354.4695077804660741
 30
0.0
 11
4703.2084974203762613
 21
354.4773528938321192
 31
0.0
  0
LINE
  5
235B8
  8
0
 10
4703.1590541410268997
 20
354.4459570548444276
 30
0.0
 11
4703.193878269094057
 21
354.2923753844070234
 31
0.0
  0
LINE
  5
235B9
  8
0
 10
4703.2174289940639937
 20
354.2775306915302735
 30
0.0
 11
4703.2420309513217944
 21
354.2831546425064744
 31
0.0
  0
ARC
  5
235BA
  8
0
 10
4703.2130759780329754
 20
354.2967284004773205
 30
0.0
 40
0.0196850394308058
 50
192.7755987144286962
 51
282.7756010109848148
  0
ARC
  5
235BB
  8
0
 10
4703.178251849726621
 20
354.4503100715443793
 30
0.0
 40
0.0196850394000001
 50
102.7756007404550047
 51
192.7756008394028129
  0
ARC
  5
235BC
  8
0
 10
4703.1535212742319345
 20
354.3124769175851156
 30
0.0
 40
0.0932403279404596
 50
341.6705385341372789
 51
5.6721861422258391
  0
ARC
  5
235BD
  8
0
 10
4715.2761613251341259
 20
355.5165340586572142
 30
0.0
 40
12.0890482666842196
 50
185.173929616641999
 51
185.6721861422257973
  0
ARC
  5
235BE
  8
0
 10
4703.0932683826904395
 20
354.4127449483298733
 30
0.0
 40
0.1437464214115423
 50
5.4311899835720503
 51
18.0381393795149805
  0
LINE
  5
235BF
  8
0
 10
4703.3131079070717533
 20
354.3748054507660754
 30
0.0
 11
4703.3595050190770053
 21
354.3853258401443895
 31
0.0
  0
LINE
  5
235C0
  8
0
 10
4703.298263214376675
 20
354.3512547251443721
 30
0.0
 11
4703.3330873424447418
 21
354.197673054706911
 31
0.0
  0
LINE
  5
235C1
  8
0
 10
4703.356638067415588
 20
354.1828283618302748
 30
0.0
 11
4703.3812400246715697
 21
354.1884523128064757
 31
0.0
  0
ARC
  5
235C2
  8
0
 10
4703.3522850513827507
 20
354.2020260707773218
 30
0.0
 40
0.0196850394308058
 50
192.7755987144286962
 51
282.7756010109848148
  0
ARC
  5
235C3
  8
0
 10
4703.3174609230773058
 20
354.3556077418443806
 30
0.0
 40
0.0196850394000001
 50
102.7756007404550047
 51
192.7756008394028129
  0
ARC
  5
235C4
  8
0
 10
4703.2927303475826193
 20
354.2177745878851169
 30
0.0
 40
0.0932403279404596
 50
341.6705385341372789
 51
5.6721861422258391
  0
ARC
  5
235C5
  8
0
 10
4715.4153703984839012
 20
355.4218317289572155
 30
0.0
 40
12.0890482666842196
 50
185.173929616641999
 51
185.6721861422257973
  0
ARC
  5
235C6
  8
0
 10
4703.2324774560393053
 20
354.3180426186298746
 30
0.0
 40
0.1437464214115423
 50
5.4311899835720503
 51
27.9090139677805205
  0
LINE
  5
235C7
  8
0
 10
4703.2746452686724297
 20
354.2746459999660829
 30
0.0
 11
4703.3136296414731987
 21
354.283485575616794
 31
0.0
  0
LINE
  5
235C8
  8
0
 10
4703.2598005759773514
 20
354.2510952743443795
 30
0.0
 11
4703.2946247040454182
 21
354.0975136039069184
 31
0.0
  0
LINE
  5
235C9
  8
0
 10
4703.3181754290153549
 20
354.0826689110302823
 30
0.0
 11
4703.3427773862731556
 21
354.0882928620064831
 31
0.0
  0
ARC
  5
235CA
  8
0
 10
4703.3138224129816081
 20
354.1018666199772724
 30
0.0
 40
0.0196850394308058
 50
192.7755987144286962
 51
282.7756010109848148
  0
ARC
  5
235CB
  8
0
 10
4703.2789982846770727
 20
354.255448291044388
 30
0.0
 40
0.0196850394000001
 50
102.7756007404550047
 51
192.7756008394028129
  0
ARC
  5
235CC
  8
0
 10
4703.2542677091832957
 20
354.1176151370851244
 30
0.0
 40
0.0932403279404596
 50
341.6705385341372789
 51
5.6721861422258391
  0
ARC
  5
235CD
  8
0
 10
4715.3769077600845776
 20
355.321672278157223
 30
0.0
 40
12.0890482666842196
 50
185.3920851312996945
 51
185.6721861422257973
  0
LINE
  5
235CE
  8
0
 10
4703.4240807570731704
 20
353.8853920297660807
 30
0.0
 11
4703.4704778690766034
 21
353.8959124191443948
 31
0.0
  0
LINE
  5
235CF
  8
0
 10
4703.4092360643771826
 20
353.8618413041443773
 30
0.0
 11
4703.4440601924443399
 21
353.7082596337069162
 31
0.0
  0
LINE
  5
235D0
  8
0
 10
4703.4676109174151861
 20
353.6934149408302801
 30
0.0
 11
4703.4922128746729868
 21
353.6990388918064809
 31
0.0
  0
ARC
  5
235D1
  8
0
 10
4703.4632579013823488
 20
353.7126126497773271
 30
0.0
 40
0.0196850394308058
 50
192.7755987144286962
 51
282.7756010109848148
  0
ARC
  5
235D2
  8
0
 10
4703.4284337730759944
 20
353.8661943208443859
 30
0.0
 40
0.0196850394000001
 50
102.7756007404550047
 51
192.7756008394028129
  0
ARC
  5
235D3
  8
0
 10
4703.4037031975822174
 20
353.7283611668851222
 30
0.0
 40
0.0932403279404596
 50
341.6705385341372789
 51
5.6721861422258391
  0
ARC
  5
235D4
  8
0
 10
4715.5263432484853183
 20
354.9324183079572208
 30
0.0
 40
12.0890482666842196
 50
185.173929616641999
 51
185.6721861422257973
  0
ARC
  5
235D5
  8
0
 10
4703.3434503060389034
 20
353.8286291976298799
 30
0.0
 40
0.1437464214115423
 50
5.4311899835720503
 51
27.9090139677805205
  0
LINE
  5
235D6
  8
0
 10
4703.3659033883232041
 20
353.8721786527660242
 30
0.0
 11
4703.4123005003266371
 21
353.8826990421443952
 31
0.0
  0
LINE
  5
235D7
  8
0
 10
4703.3510586956272164
 20
353.8486279271443777
 30
0.0
 11
4703.3858828236943737
 21
353.6950462567069735
 31
0.0
  0
LINE
  5
235D8
  8
0
 10
4703.4094335486652199
 20
353.6802015638302805
 30
0.0
 11
4703.4447453515604138
 21
353.6882083962756838
 31
0.0
  0
ARC
  5
235D9
  8
0
 10
4703.4050805326323825
 20
353.6993992727773275
 30
0.0
 40
0.0196850394308058
 50
192.7755987144286962
 51
282.7756010109848148
  0
ARC
  5
235DA
  8
0
 10
4703.3702564043260281
 20
353.8529809438443863
 30
0.0
 40
0.0196850394000001
 50
102.7756007404550047
 51
192.7756008394028129
  0
ARC
  5
235DB
  8
0
 10
4703.3455258288322511
 20
353.7151477898851226
 30
0.0
 40
0.0932403279404596
 50
341.6705385341372789
 51
5.6721861422258391
  0
ARC
  5
235DC
  8
0
 10
4715.4681658797353521
 20
354.9192049309572212
 30
0.0
 40
12.0890482666842196
 50
185.59415282085439
 51
185.6721861422257973
  0
ARC
  5
235DD
  8
0
 10
4703.2852729372889371
 20
353.8154158206298803
 30
0.0
 40
0.1437464214115423
 50
26.4809358358695306
 51
27.9090139677805205
  0
LINE
  5
235DE
  8
0
 10
4703.3121070927209075
 20
353.8599805233661186
 30
0.0
 11
4703.358504204727069
 21
353.8705009127443759
 31
0.0
  0
LINE
  5
235DF
  8
0
 10
4703.2972624000267388
 20
353.8364297977444153
 30
0.0
 11
4703.332086528093896
 21
353.6828481273070111
 31
0.0
  0
LINE
  5
235E0
  8
0
 10
4703.3556372530638328
 20
353.6680034344303181
 30
0.0
 11
4703.3966143577463299
 21
353.677370706532372
 31
0.0
  0
ARC
  5
235E1
  8
0
 10
4703.3512842370319049
 20
353.6872011433771945
 30
0.0
 40
0.0196850394308058
 50
192.7755987144286962
 51
282.7756010109848148
  0
ARC
  5
235E2
  8
0
 10
4703.3164601087273695
 20
353.8407828144444238
 30
0.0
 40
0.0196850394000001
 50
102.7756007404550047
 51
192.7756008394028129
  0
ARC
  5
235E3
  8
0
 10
4703.291729533232683
 20
353.7029496604849896
 30
0.0
 40
0.0932403279404596
 50
341.6705385341372789
 51
357.8028077830639972
  0
ARC
  5
235E4
  8
0
 10
4703.231476641689369
 20
353.8032176912299178
 30
0.0
 40
0.1437464214115423
 50
27.3428260943220494
 51
27.9090139677805205
  0
LINE
  5
235E5
  8
0
 10
4703.5350539281726014
 20
353.3959771921660717
 30
0.0
 11
4703.5814510401769439
 21
353.4064975815443859
 31
0.0
  0
LINE
  5
235E6
  8
0
 10
4703.5279515975871618
 20
353.3382810342806124
 30
0.0
 11
4703.5550333635446805
 21
353.218844796107021
 31
0.0
  0
LINE
  5
235E7
  8
0
 10
4703.5785840885146172
 20
353.204000103230328
 30
0.0
 11
4703.6031860457724179
 21
353.209624054206472
 31
0.0
  0
ARC
  5
235E8
  8
0
 10
4703.5742310724817798
 20
353.2231978121773182
 30
0.0
 40
0.0196850394308058
 50
192.7755987144286962
 51
282.7756010109848148
  0
ARC
  5
235E9
  8
0
 10
4703.5394069441772444
 20
353.3767794832443769
 30
0.0
 40
0.0196850394000001
 50
102.7756007404550047
 51
145.4635798432985894
  0
ARC
  5
235EA
  8
0
 10
4703.5146763686825579
 20
353.2389463292849996
 30
0.0
 40
0.0932403279404596
 50
341.6705385341372789
 51
5.6721861422258391
  0
ARC
  5
235EB
  8
0
 10
4703.2943103352627077
 20
353.2712340300168989
 30
0.0
 40
0.3139986253349701
 50
355.7861968604004801
 51
15.0599188984596193
  0
ARC
  5
235EC
  8
0
 10
4703.4544234771392439
 20
353.3392143600299278
 30
0.0
 40
0.1437464214115423
 50
5.4311899835720503
 51
27.9090139677805205
  0
LINE
  5
235ED
  8
0
 10
4703.4571615079721596
 20
353.4697113055660793
 30
0.0
 11
4703.5035586199774116
 21
353.4802316949443934
 31
0.0
  0
LINE
  5
235EE
  8
0
 10
4703.4423168152770813
 20
353.446160579944376
 30
0.0
 11
4703.4771409433442386
 21
353.2925789095069149
 31
0.0
  0
LINE
  5
235EF
  8
0
 10
4703.5006916683150848
 20
353.2777342166302788
 30
0.0
 11
4703.5252936255728855
 21
353.2833581676064796
 31
0.0
  0
ARC
  5
235F0
  8
0
 10
4703.496338652283157
 20
353.2969319255773257
 30
0.0
 40
0.0196850394308058
 50
192.7755987144286962
 51
282.7756010109848148
  0
ARC
  5
235F1
  8
0
 10
4703.4615145239768026
 20
353.4505135966443845
 30
0.0
 40
0.0196850394000001
 50
102.7756007404550047
 51
192.7756008394028129
  0
ARC
  5
235F2
  8
0
 10
4703.4367839484821161
 20
353.3126804426851209
 30
0.0
 40
0.0932403279404596
 50
341.6705385341372789
 51
5.6721861422258391
  0
ARC
  5
235F3
  8
0
 10
4715.559423999385217
 20
354.5167375837572195
 30
0.0
 40
12.0890482666842196
 50
185.173929616641999
 51
185.3577183388381115
  0
ARC
  5
235F4
  8
0
 10
4715.559423999385217
 20
354.5167375837572195
 30
0.0
 40
12.0890482666842196
 50
185.5941528223866896
 51
185.6721861422257973
  0
ARC
  5
235F5
  8
0
 10
4703.3765310569397116
 20
353.4129484734298785
 30
0.0
 40
0.1437464214115423
 50
5.4311899835720503
 51
27.9090139677805205
  0
LINE
  5
235F6
  8
0
 10
4703.039080955953068
 20
354.6458318707092872
 30
0.0
 11
4703.1100827106356519
 21
354.6619312801809087
 31
0.0
  0
LINE
  5
235F7
  8
0
 10
4703.0871590277165524
 20
354.433797543401397
 30
0.0
 11
4703.1585694189698188
 21
354.4499896098245131
 31
0.0
  0
LINE
  5
235F8
  8
0
 10
4703.1219831559701561
 20
354.280215872277779
 30
0.0
 11
4703.1929849105817993
 21
354.2963152818347794
 31
0.0
  0
ARC
  5
235F9
  8
0
 10
4703.0941238533250726
 20
354.4030812092278211
 30
0.0
 40
0.0314960629410355
 50
102.7756007750783027
 51
192.7756008638608876
  0
ARC
  5
235FA
  8
0
 10
4703.1150183303852828
 20
354.3109322066438835
 30
0.0
 40
0.0314960631240673
 50
192.7756010048948099
 51
282.7756006634043047
  0
LINE
  5
235FB
  8
0
 10
4703.1871303305606489
 20
354.2950103290756942
 30
0.0
 11
4703.1888709273607674
 21
354.2845935710756748
 31
0.0
  0
LINE
  5
235FC
  8
0
 10
4703.1243152799297604
 20
354.2699307190969762
 30
0.0
 11
4703.1964323220154256
 21
354.2862170022933128
 31
0.0
  0
LINE
  5
235FD
  8
0
 10
4703.1591394081824546
 20
354.1163490479735856
 30
0.0
 11
4703.2301411627931884
 21
354.1324484575304723
 31
0.0
  0
ARC
  5
235FE
  8
0
 10
4703.1312801055355521
 20
354.239214384923514
 30
0.0
 40
0.0314960629410355
 50
102.7756007750783027
 51
192.7756008638608876
  0
ARC
  5
235FF
  8
0
 10
4703.1521745825966718
 20
354.1470653823395764
 30
0.0
 40
0.0314960631240673
 50
192.7756010048948099
 51
282.7756006634043047
  0
LINE
  5
23600
  8
0
 10
4703.1005637713733449
 20
354.2322495592713949
 30
0.0
 11
4703.1214582482480182
 21
354.1401005566798972
 31
0.0
  0
LINE
  5
23601
  8
0
 10
4703.1684189402803895
 20
354.0754243753469837
 30
0.0
 11
4703.2394206976459827
 21
354.0915237854082989
 31
0.0
  0
LINE
  5
23602
  8
0
 10
4703.2032430685330837
 20
353.9218427042234794
 30
0.0
 11
4703.2742202015242583
 21
353.9379365309105197
 31
0.0
  0
ARC
  5
23603
  8
0
 10
4703.1753837658861812
 20
354.0447080411734078
 30
0.0
 40
0.0314960629410355
 50
102.7756007750783027
 51
192.7756008638608876
  0
ARC
  5
23604
  8
0
 10
4703.1962782429473009
 20
353.9525590385895839
 30
0.0
 40
0.0314960631240673
 50
192.7756010048948099
 51
282.7756006634043047
  0
LINE
  5
23605
  8
0
 10
4703.1446674317230645
 20
354.0377432155214024
 30
0.0
 11
4703.1655619085986473
 21
353.9455942129300183
 31
0.0
  0
LINE
  5
23606
  8
0
 10
4703.2164644172798944
 20
353.8635337979470137
 30
0.0
 11
4703.2583616533029272
 21
353.8730338555258754
 31
0.0
  0
LINE
  5
23607
  8
0
 10
4703.2512885455325886
 20
353.7099521268236231
 30
0.0
 11
4703.2908998212142251
 21
353.7189338506382228
 31
0.0
  0
ARC
  5
23608
  8
0
 10
4703.2234292428856861
 20
353.8328174637734946
 30
0.0
 40
0.0314960629410355
 50
102.7756007750783027
 51
192.7756008638608876
  0
ARC
  5
23609
  8
0
 10
4703.2443237199477153
 20
353.7406684611895002
 30
0.0
 40
0.0314960631240673
 50
192.7756010048948099
 51
282.7756006634043047
  0
LINE
  5
2360A
  8
0
 10
4703.1927129087225694
 20
353.8258526381213755
 30
0.0
 11
4703.2136073855981522
 21
353.7337036355299915
 31
0.0
  0
LINE
  5
2360B
  8
0
 10
4703.2651774910091262
 20
353.6486989796993043
 30
0.0
 11
4703.306143643329051
 21
353.6579879172148253
 31
0.0
  0
LINE
  5
2360C
  8
0
 10
4703.2414259824608962
 20
353.611017819775725
 30
0.0
 11
4703.2623204593373885
 21
353.5188688171235754
 31
0.0
  0
LINE
  5
2360D
  8
0
 10
4703.3000016192600015
 20
353.4951173085756864
 30
0.0
 11
4703.3500639762469291
 21
353.5064687799747958
 31
0.0
  0
LINE
  5
2360E
  8
0
 10
4703.3023934838238347
 20
353.4845686869899737
 30
0.0
 11
4703.3733952384600343
 21
353.5006680963757049
 31
0.0
  0
LINE
  5
2360F
  8
0
 10
4703.337217612061977
 20
353.330987015875678
 30
0.0
 11
4703.4171247187987319
 21
353.3490997612984188
 31
0.0
  0
LINE
  5
23610
  8
0
 10
4703.2786419752656002
 20
353.4468875270512171
 30
0.0
 11
4703.2995364521602824
 21
353.3547385243755912
 31
0.0
  0
ARC
  5
23611
  8
0
 10
4703.3093583095787835
 20
353.4538523527011762
 30
0.0
 40
0.0314960630863187
 50
102.7756009957570029
 51
192.7756008001001078
  0
ARC
  5
23612
  8
0
 10
4703.3302527863370415
 20
353.3617033500398179
 30
0.0
 40
0.0314960629575991
 50
192.775600879441896
 51
282.775600988542692
  0
LINE
  5
23613
  8
0
 10
4703.3440566406197831
 20
353.3008254732022806
 30
0.0
 11
4703.4152274133466562
 21
353.3169603714914047
 31
0.0
  0
LINE
  5
23614
  8
0
 10
4703.3788807688579254
 20
353.1472438020879281
 30
0.0
 11
4703.4498571901958712
 21
353.1633383462515212
 31
0.0
  0
LINE
  5
23615
  8
0
 10
4703.3203051320633676
 20
353.2631443132634104
 30
0.0
 11
4703.3411996089580498
 21
353.1709953105880118
 31
0.0
  0
ARC
  5
23616
  8
0
 10
4703.351021466374732
 20
353.2701091389134831
 30
0.0
 40
0.0314960630863187
 50
102.7756009957570029
 51
192.7756008001001078
  0
ARC
  5
23617
  8
0
 10
4703.3719159431357184
 20
353.1779601362521248
 30
0.0
 40
0.0314960629575991
 50
192.775600879441896
 51
282.775600988542692
  0
LINE
  5
23618
  8
0
 10
4703.4125163232083651
 20
352.9989039896880172
 30
0.0
 11
4703.4929709501557227
 21
353.0171616302627058
 31
0.0
  0
LINE
  5
23619
  8
0
 10
4703.3539406864128978
 20
353.1148045008633858
 30
0.0
 11
4703.3748351633075799
 21
353.0226554981878735
 31
0.0
  0
ARC
  5
2361A
  8
0
 10
4703.3846570207260811
 20
353.1217693265134017
 30
0.0
 40
0.0314960630863187
 50
126.616254414782702
 51
192.7756008001001078
  0
ARC
  5
2361B
  8
0
 10
4703.4055514974852485
 20
353.0296203238521002
 30
0.0
 40
0.0314960629575991
 50
192.775600879441896
 51
282.775600988542692
  0
LINE
  5
2361C
  8
0
 10
4703.4472390729579274
 20
352.8457694189879135
 30
0.0
 11
4703.5182154942958732
 21
352.8618639631515066
 31
0.0
  0
LINE
  5
2361D
  8
0
 10
4703.3886634361642791
 20
352.9616699301633957
 30
0.0
 11
4703.4095579130571423
 21
352.8695209274879971
 31
0.0
  0
ARC
  5
2361E
  8
0
 10
4703.419379770474734
 20
352.9686347558135253
 30
0.0
 40
0.0314960630863187
 50
102.7756009957570029
 51
192.7756008001001078
  0
ARC
  5
2361F
  8
0
 10
4703.4402742472357204
 20
352.8764857531521102
 30
0.0
 40
0.0314960629575991
 50
192.775600879441896
 51
282.775600988542692
  0
ARC
  5
23620
  8
0
 10
4702.9996716984596787
 20
355.757124524175822
 30
0.0
 40
0.0196850393998403
 50
102.7756007402931999
 51
192.7756010248174903
  0
ARC
  5
23621
  8
0
 10
4703.0491044893551589
 20
355.5391156594945983
 30
0.0
 40
0.0196850599187391
 50
192.7238889047933981
 51
259.7927376739827992
  0
ARC
  5
23622
  8
0
 10
4703.057113199003652
 20
355.5037955217749754
 30
0.0
 40
0.0196850391707774
 50
102.7756003874744977
 51
192.7756014720405915
  0
ARC
  5
23623
  8
0
 10
4703.0176621058371893
 20
355.4079953632091815
 30
0.0
 40
0.0196850393620958
 50
102.7756006947696932
 51
192.7756008508154935
  0
ARC
  5
23624
  8
0
 10
4702.6569328011182733
 20
355.4162983675090004
 30
0.0
 40
0.4676768085702694
 50
358.2524495353129055
 51
14.8002675133100894
  0
ARC
  5
23625
  8
0
 10
4702.6037702248249843
 20
355.4179203561694749
 30
0.0
 40
0.5208641225212184
 50
350.9479753551519821
 51
358.2524495353129055
  0
ARC
  5
23626
  8
0
 10
4703.091937327452797
 20
355.3502138504351819
 30
0.0
 40
0.0196850393620923
 50
192.7756006301615059
 51
282.7756011495915232
  0
ARC
  5
23627
  8
0
 10
4700.780360469648258
 20
355.1335296735625207
 30
0.0
 40
2.3112059018948261
 50
2.2808809132225858
 51
4.9434063723041701
  0
ARC
  5
23628
  8
0
 10
4703.0400435908368308
 20
355.059837328309186
 30
0.0
 40
0.0196850393620865
 50
102.7756006947683005
 51
192.775600955253509
  0
ARC
  5
23629
  8
0
 10
4703.0460457815470363
 20
354.6151155364943861
 30
0.0
 40
0.0314960629787964
 50
102.7756007406139958
 51
192.775600972566707
  0
ARC
  5
2362A
  8
0
 10
4703.1210041144940988
 20
354.7027845277700067
 30
0.0
 40
0.0196850392932136
 50
102.7756006785245972
 51
192.7756031667736067
  0
ARC
  5
2362B
  8
0
 10
-1279.0731385260201023
 20
26737.4840928178709873
 30
0.0
 40
27052.4810555817784916
 50
282.7755741194860093
 51
282.7757756124582897
  0
ARC
  5
2362C
  8
0
 10
4703.155828242735879
 20
354.5492028565308829
 30
0.0
 40
0.0196850392643246
 50
192.7756004388621136
 51
282.7756010029714275
  0
LINE
  5
2362D
  8
0
 10
4703.1601812588596658
 20
354.5300051477756824
 30
0.0
 11
4703.1920325560604397
 21
354.5372273224757009
 31
0.0
  0
ARC
  5
2362E
  8
0
 10
4703.1875356340597136
 20
354.5417702179764774
 30
0.0
 40
0.0063922450178381
 50
314.7097461803214742
 51
358.5647236051080995
  0
ARC
  5
2362F
  8
0
 10
4703.3626551675897645
 20
354.5443028863800805
 30
0.0
 40
0.2107027218873605
 50
183.9442316741109948
 51
194.0689826065539876
  0
ARC
  5
23630
  8
0
 10
4702.5812083460095891
 20
354.3484666822321856
 30
0.0
 40
0.5949094390257982
 50
11.2539040743891601
 51
14.0689826065540693
  0
ARC
  5
23631
  8
0
 10
4713.2550579598591867
 20
309.6723969717411933
 30
0.0
 40
45.9616700875827675
 50
102.7089002352463041
 51
102.7979724147343035
  0
ARC
  5
23632
  8
0
 10
4703.1463201341102831
 20
354.4959375264859887
 30
0.0
 40
0.0123896983036336
 50
39.9348194582179516
 51
102.7089002352463041
  0
ARC
  5
23633
  8
0
 10
4703.0669402584926502
 20
354.5229665336689777
 30
0.0
 40
0.0314960628763674
 50
192.7756007125593953
 51
282.7757618999854117
  0
ARC
  5
23634
  8
0
 10
4702.212618280596871
 20
354.0327635588594148
 30
0.0
 40
1.0395376989093781
 50
7.9131540946538701
 51
13.6861634590498191
  0
ARC
  5
23635
  8
0
 10
4703.2450393003045974
 20
354.1562765947961111
 30
0.0
 40
0.0197985617928565
 50
98.0774324663760666
 51
192.6395898415267993
  0
ARC
  5
23636
  8
0
 10
4703.2801350857926082
 20
354.0029934699895193
 30
0.0
 40
0.0201302981870371
 50
193.2995552848375951
 51
291.5722264475567727
  0
ARC
  5
23637
  8
0
 10
4702.9295963489221322
 20
354.0013491313742975
 30
0.0
 40
0.3949930801735876
 50
359.9118730668374724
 51
11.8299394001296605
  0
ARC
  5
23638
  8
0
 10
4703.2994615329407679
 20
354.0048199952141772
 30
0.0
 40
0.0254562579236337
 50
329.7276207359896034
 51
350.7807835228946942
  0
ARC
  5
23639
  8
0
 10
17202.8697862924309447
 20
3187.7986094566381325
 30
0.0
 40
12816.7779208647807536
 50
192.775198618003202
 51
192.7757648954238903
  0
ARC
  5
2363A
  8
0
 10
4706.1870371741588315
 20
354.410937562775473
 30
0.0
 40
2.9776636318991629
 50
189.2553896077949105
 51
197.8919729807809915
  0
ARC
  5
2363B
  8
0
 10
4773.2692798612133629
 20
369.7173161152790044
 30
0.0
 40
71.7718892759969549
 50
192.7041578871848913
 51
193.0620979282678036
  0
ARC
  5
2363C
  8
0
 10
4702.5976481453662927
 20
353.3249941453103133
 30
0.0
 40
0.7909043136531022
 50
12.7597683541985294
 51
20.6565044058413996
  0
ARC
  5
2363D
  8
0
 10
4704.0393978400152264
 20
353.6994497860399065
 30
0.0
 40
0.7081535142475442
 50
187.7465240268803086
 51
196.5474788215865942
  0
ARC
  5
2363E
  8
0
 10
4703.6968798558282288
 20
353.8462125034953942
 30
0.0
 40
0.4063184452299263
 50
186.684245586550702
 51
198.8505235796444026
  0
ARC
  5
2363F
  8
0
 10
4702.9529609753435579
 20
353.6780324470170171
 30
0.0
 40
0.3688061095477005
 50
6.0133743454116741
 51
19.4067419266564194
  0
ARC
  5
23640
  8
0
 10
4702.8519416822473431
 20
353.8344056965735263
 30
0.0
 40
0.4302464737158836
 50
0.5382815737728763
 51
13.7861417976112897
  0
ARC
  5
23641
  8
0
 10
4703.9440178951208509
 20
354.0696468434488793
 30
0.0
 40
0.7010683046768748
 50
191.1696031436437977
 51
199.2554930922406982
  0
LINE
  5
23642
  8
0
 10
4703.2975619985609228
 20
353.9865714668757164
 30
0.0
 11
4703.3255738404632211
 21
353.8630340632046227
 31
0.0
  0
ARC
  5
23643
  8
0
 10
4703.1237715536735777
 20
353.9460537621101253
 30
0.0
 40
0.1681656122954195
 50
354.3461997882577066
 51
13.1365527293609805
  0
ARC
  5
23644
  8
0
 10
4703.2790165978749428
 20
353.9264059077008255
 30
0.0
 40
0.01248842222092
 50
14.2810305133991893
 51
112.5858579936615058
  0
LINE
  5
23645
  8
0
 10
4703.2841682291127654
 20
353.9377822597148793
 30
0.0
 11
4703.3029221554734249
 21
353.8550735316367195
 31
0.0
  0
LINE
  5
23646
  8
0
 10
4703.2148564447998069
 20
354.1289826990249026
 30
0.0
 11
4703.222784464624965
 21
354.087751575434595
 31
0.0
  0
ARC
  5
23647
  8
0
 10
4703.0428567218878015
 20
354.0486164980338231
 30
0.0
 40
0.198592490924238
 50
12.3077011024364396
 51
23.6295311512050716
  0
ARC
  5
23648
  8
0
 10
4703.4475723803652727
 20
354.1251578588522761
 30
0.0
 40
0.222794901997538
 50
179.2133651786544988
 51
189.3718195253347858
  0
ARC
  5
23649
  8
0
 10
4701.9099490281787439
 20
355.5866289267560205
 30
0.0
 40
1.1665852178114891
 50
357.1217496008355852
 51
6.818296052681541
  0
LINE
  5
2364A
  8
0
 10
4702.9907296158608005
 20
355.7075420564192996
 30
0.0
 11
4703.0682835494608298
 21
355.7251269283756869
 31
0.0
  0
LINE
  5
2364B
  8
0
 10
4703.0133090898571027
 20
355.4271930720973955
 30
0.0
 11
4703.0522934626424103
 21
355.4360326476676732
 31
0.0
  0
LINE
  5
2364C
  8
0
 10
4703.1162535265602855
 20
354.7237356120755862
 30
0.0
 11
4703.2090338908437843
 21
354.7447746581489127
 31
0.0
  0
LINE
  5
2364D
  8
0
 10
4703.1264335805235532
 20
354.7260440598383866
 30
0.0
 11
4703.1266482743567394
 21
354.7242684212390031
 31
0.0
  0
LINE
  5
2364E
  8
0
 10
4703.2257205408595837
 20
354.1519443225756731
 30
0.0
 11
4703.2301411636735793
 21
354.1324484577301064
 31
0.0
  0
LINE
  5
2364F
  8
0
 10
4703.2422573791900504
 20
354.1758787366172214
 30
0.0
 11
4703.2751638202707909
 21
354.1833401616376023
 31
0.0
  0
LINE
  5
23650
  8
0
 10
4703.2301411636735793
 20
354.1324484577301064
 30
0.0
 11
4703.260463091888596
 21
353.9987224559450283
 31
0.0
  0
LINE
  5
23651
  8
0
 10
4703.2875364692172298
 20
353.9842732021359097
 30
0.0
 11
4703.3214465416604071
 21
353.9919872067756046
 31
0.0
  0
LINE
  5
23652
  8
0
 10
4703.2933232820041667
 20
353.7989179936968753
 30
0.0
 11
4703.3008128370611303
 21
353.8005764339757206
 31
0.0
  0
LINE
  5
23653
  8
0
 10
4703.3123544152713293
 20
353.7149308806457952
 30
0.0
 11
4703.3197377176829832
 21
353.7166687993043865
 31
0.0
  0
ARC
  5
23654
  8
0
 10
4703.2692295593697054
 20
353.6198186393837091
 30
0.0
 40
0.0291632185252847
 50
97.9867727222255525
 51
197.5644290737594986
  0
ARC
  5
23655
  8
0
 10
4703.2977448072379048
 20
353.5333027858961259
 30
0.0
 40
0.0382521094672338
 50
202.1688801829787963
 51
273.3823216130228957
  0
ARC
  5
23656
  8
0
 10
4703.39374495256925
 20
353.6813276993773911
 30
0.0
 40
0.0047884646237414
 50
300.2486498358705944
 51
354.1972754246967838
  0
ARC
  5
23657
  8
0
 10
4703.4377115698616763
 20
353.6975266153876873
 30
0.0
 40
0.0116749001024556
 50
307.0470324333152803
 51
5.8135813703719217
  0
LINE
  5
23658
  8
0
 10
4703.4036283874456785
 20
353.3673336017375846
 30
0.0
 11
4703.3320619931610054
 21
353.6828425638756812
 31
0.0
  0
LINE
  5
23659
  8
0
 10
4703.3836489520554096
 20
353.544465997697273
 30
0.0
 11
4703.4210005466384246
 21
353.5529352955879858
 31
0.0
  0
LINE
  5
2365A
  8
0
 10
4703.4271791123983348
 20
353.3524889088615168
 30
0.0
 11
4703.4617776990571656
 21
353.3603340221773124
 31
0.0
  0
ARC
  5
2365B
  8
0
 10
4703.4228260963673165
 20
353.3716866178110081
 30
0.0
 40
0.0196850394331491
 50
192.774925146321209
 51
282.7756007994441916
  0
ARC
  5
2365C
  8
0
 10
4703.4186263669562322
 20
353.3360766017231072
 30
0.0
 40
0.0131094482098721
 50
20.943392737823789
 51
96.5774984752613506
  0
ARC
  5
2365D
  8
0
 10
4703.4033350838062688
 20
353.3476086455152085
 30
0.0
 40
0.0283729815609946
 50
346.0372792010065268
 51
11.66207861817918
  0
ARC
  5
2365E
  8
0
 10
4703.842594179974185
 20
352.0396605183476026
 30
0.0
 40
0.0196850392909942
 50
125.7166817524858971
 51
192.775603400014802
  0
ARC
  5
2365F
  8
0
 10
4703.8345831883198116
 20
352.0749906629116026
 30
0.0
 40
0.0196850393241779
 50
192.7756005844398999
 51
282.7756009900405161
  0
ARC
  5
23660
  8
0
 10
4703.7997590599961768
 20
352.2285723341161088
 30
0.0
 40
0.0196850393241866
 50
102.7755994539468958
 51
192.7756008965245087
  0
LINE
  5
23661
  8
0
 10
4703.7954060444399147
 20
352.247770043061621
 30
0.0
 11
4703.8172627961603212
 21
352.2527257011756774
 31
0.0
  0
LINE
  5
23662
  8
0
 10
4703.7805613511691263
 20
352.2242193180372851
 30
0.0
 11
4703.8153854794800282
 21
352.0706376468850181
 31
0.0
  0
LINE
  5
23663
  8
0
 10
4703.7384771223596545
 20
352.1400318366756892
 30
0.0
 11
4703.6572336933595579
 21
352.4983323085756979
 31
0.0
  0
LINE
  5
23664
  8
0
 10
4703.7147891684708156
 20
352.3335195728781741
 30
0.0
 11
4703.7636849868604259
 21
352.3446069019756806
 31
0.0
  0
LINE
  5
23665
  8
0
 10
4703.7707962009608309
 20
352.3563045854756979
 30
0.0
 11
4703.8239179647598576
 21
352.3683497820757111
 31
0.0
  0
LINE
  5
23666
  8
0
 10
4703.7124213477873127
 20
352.5247309493457237
 30
0.0
 11
4703.7472454760500113
 21
352.3711492782377945
 31
0.0
  0
LINE
  5
23667
  8
0
 10
4703.7272660406561045
 20
352.5482816742973
 30
0.0
 11
4703.7522378723033398
 21
352.5539432887522935
 31
0.0
  0
LINE
  5
23668
  8
0
 10
4703.6930640804603172
 20
352.5304407544755918
 30
0.0
 11
4703.6690194834718568
 21
352.5249782168543788
 31
0.0
  0
LINE
  5
23669
  8
0
 10
4703.6320537711608267
 20
352.4489489199756918
 30
0.0
 11
4703.6666523578160195
 21
352.4567940332881903
 31
0.0
  0
LINE
  5
2366A
  8
0
 10
4703.5813890581603118
 20
352.811027064775601
 30
0.0
 11
4703.5514908194563759
 21
352.8042483450973918
 31
0.0
  0
LINE
  5
2366B
  8
0
 10
4703.5366461265602993
 20
352.7806976201757152
 30
0.0
 11
4703.6085030461608767
 21
352.463793612775703
 31
0.0
  0
LINE
  5
2366C
  8
0
 10
4703.5950209797701973
 20
352.6122712562777224
 30
0.0
 11
4703.6296195663680919
 21
352.6201163696222238
 31
0.0
  0
LINE
  5
2366D
  8
0
 10
4703.6152252079446043
 20
352.7726174113947764
 30
0.0
 11
4703.6395016742608277
 21
352.7781221312757225
 31
0.0
  0
LINE
  5
2366E
  8
0
 10
4703.6003805151603956
 20
352.7490666856757002
 30
0.0
 11
4703.6352046430611153
 21
352.5954850161757008
 31
0.0
  0
LINE
  5
2366F
  8
0
 10
4703.6587553681983991
 20
352.5806403224614769
 30
0.0
 11
4703.7051507871601643
 21
352.5911603284757234
 31
0.0
  0
LINE
  5
23670
  8
0
 10
4703.6384647824543208
 20
352.9399137501969221
 30
0.0
 11
4703.6675069850607542
 21
352.9464989720756876
 31
0.0
  0
LINE
  5
23671
  8
0
 10
4703.6236200895609727
 20
352.9163630252757002
 30
0.0
 11
4703.6591138072253671
 21
352.7604853426984732
 31
0.0
  0
LINE
  5
23672
  8
0
 10
4703.681994942710844
 20
352.7479366612873264
 30
0.0
 11
4703.7309452782610606
 21
352.7590361856757113
 31
0.0
  0
LINE
  5
23673
  8
0
 10
4703.4354706589474517
 20
353.2269025409376013
 30
0.0
 11
4703.4702947871455763
 21
353.0733208698375734
 31
0.0
  0
LINE
  5
23674
  8
0
 10
4703.4938455121609877
 20
353.0584761770757041
 30
0.0
 11
4703.5284440987534254
 21
353.0663212904323132
 31
0.0
  0
LINE
  5
23675
  8
0
 10
4703.5422005376231027
 20
353.0946714425897994
 30
0.0
 11
4703.5697038571597659
 21
353.1009077278757218
 31
0.0
  0
LINE
  5
23676
  8
0
 10
4703.5857306980124122
 20
352.9026943536873091
 30
0.0
 11
4703.6247194595480323
 21
352.9115349244958111
 31
0.0
  0
LINE
  5
23677
  8
0
 10
4703.5273558447461255
 20
353.0711207176377116
 30
0.0
 11
4703.5621799730697603
 21
352.917539046534614
 31
0.0
  0
LINE
  5
23678
  8
0
 10
4703.4927183944610078
 20
352.9744280836756047
 30
0.0
 11
4703.5275425224463106
 21
352.8208464133376197
 31
0.0
  0
LINE
  5
23679
  8
0
 10
4703.5510932474608126
 20
352.806001720475706
 30
0.0
 11
4703.6002489839611371
 21
352.8171476187757207
 31
0.0
  0
LINE
  5
2367A
  8
0
 10
4703.7620278472595601
 20
352.125187143875678
 30
0.0
 11
4703.801012220085795
 21
352.1340267194815965
 31
0.0
  0
LINE
  5
2367B
  8
0
 10
4703.7439468111633687
 20
352.3401311889812177
 30
0.0
 11
4703.7843205167500855
 21
352.2407851206789928
 31
0.0
  0
ARC
  5
2367C
  8
0
 10
4701.6783757978892027
 20
351.8807169348795014
 30
0.0
 40
2.0923320196879791
 50
17.9338296683642717
 51
19.5424207891376511
  0
ARC
  5
2367D
  8
0
 10
4703.3708666851307498
 20
352.809492414272313
 30
0.0
 40
0.2295100023367918
 50
1.9114298868897159
 51
23.8286618620355988
  0
LINE
  5
2367E
  8
0
 10
4703.4503153518262479
 20
353.250453265890485
 30
0.0
 11
4703.4847096070598127
 21
353.258251637975718
 31
0.0
  0
LINE
  5
2367F
  8
0
 10
4703.4406455905609619
 20
353.3555423875757242
 30
0.0
 11
4703.4637818299916034
 21
353.2535067445967911
 31
0.0
  0
ARC
  5
23680
  8
0
 10
4703.3743155023939835
 20
352.9545102197059805
 30
0.0
 40
0.2441492158017841
 50
15.7399975142923907
 51
36.8429085063825923
  0
ARC
  5
23681
  8
0
 10
4702.0242858400306432
 20
352.5740168938663146
 30
0.0
 40
1.646773634620474
 50
12.7069866878791906
 51
15.7399975142923907
  0
ARC
  5
23682
  8
0
 10
4703.6058235267319105
 20
352.8679739313531059
 30
0.0
 40
0.0998551413832122
 50
15.36521179537033
 51
51.8493496003438921
  0
ARC
  5
23683
  8
0
 10
4703.2108155686100872
 20
352.6845638345287739
 30
0.0
 40
0.5342421040335321
 50
17.0775714401866985
 51
23.1309919051000001
  0
ARC
  5
23684
  8
0
 10
4703.5785888170457838
 20
352.7833282421236731
 30
0.0
 40
0.1542808973286828
 50
350.9408850313546964
 51
22.1321496934268183
  0
ARC
  5
23685
  8
0
 10
4703.6685764063768147
 20
352.4643927802853796
 30
0.0
 40
0.1227724734537181
 50
20.9161564339378003
 51
46.8661939570793606
  0
ARC
  5
23686
  8
0
 10
4705.5902143897183123
 20
353.1988159217629004
 30
0.0
 40
1.934427052542028
 50
200.9161564339378003
 51
203.1867915959913944
  0
ARC
  5
23687
  8
0
 10
4703.6417559878827888
 20
352.3642372232720277
 30
0.0
 40
0.1852455041643682
 50
3.5508894949046521
 51
23.1867915959914406
  0
ARC
  5
23688
  8
0
 10
4703.8169712733433698
 20
352.3751100642496112
 30
0.0
 40
0.0096931902242663
 50
315.7791511734063192
 51
3.5508894949079028
  0
ARC
  5
23689
  8
0
 10
4703.5400322316354504
 20
352.0432650027739783
 30
0.0
 40
0.3474630485129669
 50
19.7511510916603115
 51
37.0727582429576614
  0
ARC
  5
2368A
  8
0
 10
4700.2812669243221535
 20
350.8390726529071912
 30
0.0
 40
3.8215869495749351
 50
18.9806892195413113
 51
20.2323596777250287
  0
ARC
  5
2368B
  8
0
 10
4703.874582650715638
 20
352.0749959712572945
 30
0.0
 40
0.0216626926471515
 50
342.7338726700568827
 51
18.9806892195413113
  0
ARC
  5
2368C
  8
0
 10
4702.6438831757150183
 20
351.403355460575483
 30
0.0
 40
1.38304131247814
 50
22.3736607693984801
 51
28.3807466551169689
  0
ARC
  5
2368D
  8
0
 10
4703.4765493765589781
 20
351.7461079768989975
 30
0.0
 40
0.4825901536275875
 50
16.1228494301288592
 51
22.3736607694014893
  0
LINE
  5
2368E
  8
0
 10
4703.8905279719356258
 20
351.8688666788265209
 30
0.0
 11
4704.0124444011598825
 21
351.6190837295757206
 31
0.0
  0
LINE
  5
2368F
  8
0
 10
4704.0124444011598825
 20
351.6190837295757206
 30
0.0
 11
4704.0519460901377897
 21
351.609844827271786
 31
0.0
  0
ARC
  5
23690
  8
0
 10
4703.2279261748935824
 20
353.4259950709177929
 30
0.0
 40
0.2310660807306961
 50
10.7435724453259507
 51
33.323640415132779
  0
ARC
  5
23691
  8
0
 10
4703.5394069478488746
 20
353.3767794825413944
 30
0.0
 40
0.0196850428262682
 50
145.4635842100682908
 51
192.7755975802205057
  0
LINE
  5
23692
  8
0
 10
4703.5202092353456464
 20
353.3724264657053027
 30
0.0
 11
4703.5279515974725655
 21
353.3382810354568733
 31
0.0
  0
ARC
  5
23693
  8
0
 10
4703.2368622055128071
 20
352.9767853990185245
 30
0.0
 40
0.2742495320398043
 50
4.5594930349298064
 51
17.5484862337378082
  0
ARC
  5
23694
  8
0
 10
4703.4974251914190972
 20
353.005368155422218
 30
0.0
 40
0.0125922785286976
 50
22.3103575330752193
 51
110.6999424703730028
  0
ARC
  5
23695
  8
0
 10
4703.5119161031179829
 20
352.9787811005364802
 30
0.0
 40
0.0196850393311254
 50
102.7756007563242946
 51
192.7756010052895022
  0
LINE
  5
23696
  8
0
 10
4703.4922359451966258
 20
352.9783427426046956
 30
0.0
 11
4703.4804368667237213
 21
353.0143172594800944
 31
0.0
  0
ARC
  5
23697
  8
0
 10
4703.1173665189726307
 20
353.0435485390793247
 30
0.0
 40
0.4254860338964239
 50
6.8075206688946857
 51
30.3052470020847906
  0
ARC
  5
23698
  8
0
 10
4703.5995696009176754
 20
352.7303206018046922
 30
0.0
 40
0.0622860875411532
 50
15.1808914512150697
 51
50.1255527820623996
  0
ARC
  5
23699
  8
0
 10
4702.9513276019397381
 20
352.429869225939683
 30
0.0
 40
0.7759538432969691
 50
14.8826649590695599
 51
24.0932439925231492
  0
ARC
  5
2369A
  8
0
 10
4703.5612922576901838
 20
352.5955956538297187
 30
0.0
 40
0.1439285667243306
 50
358.2342373721440936
 51
13.4878869461644708
  0
ARC
  5
2369B
  8
0
 10
4703.0429121344859595
 20
353.1451943488955862
 30
0.0
 40
0.4242188738260923
 50
14.5105144699115005
 51
26.0712702739497395
  0
ARC
  5
2369C
  8
0
 10
4703.4121243780000441
 20
353.3287470743226777
 30
0.0
 40
0.0121883219518615
 50
284.7493429467664896
 51
13.7003216578328804
  0
ARC
  5
2369D
  8
0
 10
4701.254312197866966
 20
352.715220923963102
 30
0.0
 40
2.2322772048617789
 50
15.5742288050345508
 51
16.3694981339914811
  0
ARC
  5
2369E
  8
0
 10
4703.7577125757570684
 20
353.412810723156781
 30
0.0
 40
0.3556450145660101
 50
190.6514071922782136
 51
195.6351886746635955
  0
ARC
  5
2369F
  8
0
 10
4703.3880294660120853
 20
353.5252293978809917
 30
0.0
 40
0.0197290482131529
 50
102.7786801582429064
 51
192.6477948507597944
  0
ARC
  5
236A0
  8
0
 10
4703.4894924958998672
 20
353.0776738857499026
 30
0.0
 40
0.0196850392152334
 50
192.7788142662863891
 51
282.7756016264808068
  0
ARC
  5
236A1
  8
0
 10
4703.546553553659578
 20
353.0754737336757785
 30
0.0
 40
0.0196850393998461
 50
102.7756006920975977
 51
192.7756010248048142
  0
ARC
  5
236A2
  8
0
 10
4703.5558438354782993
 20
352.7850506361741054
 30
0.0
 40
0.0196850394169563
 50
102.7722463715810051
 51
192.7756008235975003
  0
ARC
  5
236A3
  8
0
 10
4703.5467402313979619
 20
352.8251994292558038
 30
0.0
 40
0.0196850393084348
 50
192.775598040818295
 51
282.7789554470990083
  0
ARC
  5
236A4
  8
0
 10
4703.371885645781731
 20
352.6850111180826843
 30
0.0
 40
0.2446471193370624
 50
18.9485086090729808
 51
31.0040740558081183
  0
ARC
  5
236A5
  8
0
 10
4703.6195782240210974
 20
352.7534197023895217
 30
0.0
 40
0.0196850394974419
 50
102.7756008763345932
 51
192.7756027918414929
  0
ARC
  5
236A6
  8
0
 10
4703.6776419266261655
 20
352.7671343701483124
 30
0.0
 40
0.0196850393586198
 50
199.7411047262129102
 51
282.7756010075665927
  0
ARC
  5
236A7
  8
0
 10
4703.6428177984371359
 20
352.9207160413092197
 30
0.0
 40
0.0196850393619497
 50
102.7755999583023936
 51
192.775600850989008
  0
ARC
  5
236A8
  8
0
 10
4703.5813776819195482
 20
352.9218920625110059
 30
0.0
 40
0.0196850393237007
 50
192.7756005830366917
 51
282.775601051166916
  0
LINE
  5
236A9
  8
0
 10
4703.5075630871560861
 20
352.9979788093972957
 30
0.0
 11
4703.5421617063739177
 21
353.0058237789833129
 31
0.0
  0
ARC
  5
236AA
  8
0
 10
4703.5906679636518675
 20
352.6314689651164258
 30
0.0
 40
0.0196850393437938
 50
192.7756006690090942
 51
282.7756011120276867
  0
ARC
  5
236AB
  8
0
 10
4703.6544023521591953
 20
352.5998380313673124
 30
0.0
 40
0.019685039392286
 50
192.7755983184542004
 51
282.7756008500440998
  0
ARC
  5
236AC
  8
0
 10
4703.7316190565970828
 20
352.5290839654470005
 30
0.0
 40
0.0196850393138118
 50
102.7730474462993016
 51
192.7756033832168896
  0
ARC
  5
236AD
  8
0
 10
4703.6762235524656717
 20
352.5058623256617807
 30
0.0
 40
0.0204283113880083
 50
110.6495617556891062
 51
201.6297284967047858
  0
ARC
  5
236AE
  8
0
 10
4703.6277007550606868
 20
352.4681466288753882
 30
0.0
 40
0.0196850393996827
 50
192.7756008316949021
 51
282.7756010249859742
  0
ARC
  5
236AF
  8
0
 10
4703.7664431847779269
 20
352.3755022941405173
 30
0.0
 40
0.0196850391886756
 50
192.7755980743029056
 51
282.7756319811387016
  0
ARC
  5
236B0
  8
0
 10
4703.744150413490388
 20
352.3496647824928232
 30
0.0
 40
0.02017804435456
 50
345.4816238628587826
 51
18.4530891908339498
  0
ARC
  5
236B1
  8
0
 10
4703.7104602198842258
 20
352.3528850780347739
 30
0.0
 40
0.0198434519639568
 50
198.467485219396309
 51
282.6006913986981886
  0
ARC
  5
236B2
  8
0
 10
4703.7576748311303163
 20
352.1443848525979092
 30
0.0
 40
0.0196850392333587
 50
192.7756003583752999
 51
282.775601225251819
  0
ARC
  5
236B3
  8
0
 10
4702.7629358871763543
 20
351.9419542495655264
 30
0.0
 40
1.100692747454123
 50
29.3697315049095984
 51
32.3206526893882966
  0
ARC
  5
236B4
  8
0
 10
4703.1119050057022832
 20
354.7430119129405739
 30
0.0
 40
0.0197607036486595
 50
197.0084601784126903
 51
282.7124988875611962
  0
ARC
  5
236B5
  8
0
 10
4702.809064198069791
 20
354.746165114923599
 30
0.0
 40
0.3385595521827447
 50
357.3936850508100065
 51
6.0806588312492789
  0
ARC
  5
236B6
  8
0
 10
4700.9695207957192906
 20
354.742534175553601
 30
0.0
 40
2.1511608879733921
 50
6.017982345119484
 51
7.5866900206686001
  0
ARC
  5
236B7
  8
0
 10
4703.4546683678372574
 20
353.2312555570092059
 30
0.0
 40
0.0196850393619333
 50
102.7756007826125995
 51
192.7756009300123026
  0
ENDSEC
  0
EOF
