  0
SECTION
  2
HEADER
  9
$ACADVER
  1
AC1009
  9
$INSBASE
 10
4721.5994060468538009
 20
339.9160322969764252
 30
0.0
  9
$EXTMIN
 10
4718.9924385979065846
 20
336.491659536560519
 30
-0.0000000000112498
  9
$EXTMAX
 10
4732.6690028801622248
 20
339.9444505819026858
 30
0.0000000000002956
  9
$LIMMIN
 10
0.0
 20
0.0
  9
$LIMMAX
 10
11.6929133858000007
 20
8.2677165353999982
  9
$ORTHOMODE
 70
     0
  9
$REGENMODE
 70
     1
  9
$FILLMODE
 70
     1
  9
$QTEXTMODE
 70
     0
  9
$MIRRTEXT
 70
     0
  9
$DRAGMODE
 70
     2
  9
$LTSCALE
 40
0.6431102362
  9
$OSMODE
 70
  4095
  9
$ATTMODE
 70
     1
  9
$TEXTSIZE
 40
0.2
  9
$TRACEWID
 40
0.05
  9
$TEXTSTYLE
  7
STANDARD
  9
$CLAYER
  8
0
  9
$CELTYPE
  6
BYLAYER
  9
$CECOLOR
 62
   256
  9
$DIMSCALE
 40
1.0
  9
$DIMASZ
 40
0.1875
  9
$DIMEXO
 40
0.0625
  9
$DIMDLI
 40
0.4443307087
  9
$DIMRND
 40
0.0
  9
$DIMDLE
 40
0.0
  9
$DIMEXE
 40
0.125
  9
$DIMTP
 40
0.01
  9
$DIMTM
 40
0.01
  9
$DIMTXT
 40
2.0
  9
$DIMCEN
 40
0.1052362205
  9
$DIMTSZ
 40
0.0
  9
$DIMTOL
 70
     1
  9
$DIMLIM
 70
     0
  9
$DIMTIH
 70
     1
  9
$DIMTOH
 70
     1
  9
$DIMSE1
 70
     0
  9
$DIMSE2
 70
     0
  9
$DIMTAD
 70
     0
  9
$DIMZIN
 70
     0
  9
$DIMBLK
  1

  9
$DIMASO
 70
     1
  9
$DIMSHO
 70
     1
  9
$DIMPOST
  1
\X
  9
$DIMAPOST
  1

  9
$DIMALT
 70
     1
  9
$DIMALTD
 70
     2
  9
$DIMALTF
 40
25.3999999999999986
  9
$DIMLFAC
 40
1.0
  9
$DIMTOFL
 70
     0
  9
$DIMTVP
 40
0.0
  9
$DIMTIX
 70
     0
  9
$DIMSOXD
 70
     0
  9
$DIMSAH
 70
     0
  9
$DIMBLK1
  1

  9
$DIMBLK2
  1

  9
$DIMSTYLE
  2
STANDARD
  9
$DIMCLRD
 70
     0
  9
$DIMCLRE
 70
     0
  9
$DIMCLRT
 70
     0
  9
$DIMTFAC
 40
1.0
  9
$DIMGAP
 40
0.09
  9
$LUNITS
 70
     2
  9
$LUPREC
 70
     4
  9
$SKETCHINC
 40
0.1
  9
$FILLETRAD
 40
0.0
  9
$AUNITS
 70
     0
  9
$AUPREC
 70
     0
  9
$MENU
  1
.
  9
$ELEVATION
 40
0.0
  9
$PELEVATION
 40
0.0
  9
$THICKNESS
 40
0.0
  9
$LIMCHECK
 70
     0
  9
$BLIPMODE
 70
     0
  9
$CHAMFERA
 40
0.0
  9
$CHAMFERB
 40
0.0
  9
$SKPOLY
 70
     0
  9
$TDCREATE
 40
2458060.468368056230247
  9
$TDUPDATE
 40
2459578.7996296300552785
  9
$TDINDWG
 40
0.6628542824
  9
$TDUSRTIMER
 40
0.6628542824
  9
$USRTIMER
 70
     1
  9
$ANGBASE
 50
0.0
  9
$ANGDIR
 70
     0
  9
$PDMODE
 70
     0
  9
$PDSIZE
 40
0.3125
  9
$PLINEWID
 40
0.0
  9
$COORDS
 70
     1
  9
$SPLFRAME
 70
     0
  9
$SPLINETYPE
 70
     6
  9
$SPLINESEGS
 70
     8
  9
$ATTDIA
 70
     1
  9
$ATTREQ
 70
     1
  9
$HANDLING
 70
     1
  9
$HANDSEED
  5
234C5
  9
$SURFTAB1
 70
     6
  9
$SURFTAB2
 70
     6
  9
$SURFTYPE
 70
     6
  9
$SURFU
 70
     6
  9
$SURFV
 70
     6
  9
$UCSNAME
  2

  9
$UCSORG
 10
0.0
 20
0.0
 30
0.0
  9
$UCSXDIR
 10
1.0
 20
0.0
 30
0.0
  9
$UCSYDIR
 10
0.0
 20
1.0
 30
0.0
  9
$PUCSNAME
  2

  9
$PUCSORG
 10
0.0
 20
0.0
 30
0.0
  9
$PUCSXDIR
 10
1.0
 20
0.0
 30
0.0
  9
$PUCSYDIR
 10
0.0
 20
1.0
 30
0.0
  9
$USERI1
 70
     0
  9
$USERI2
 70
     0
  9
$USERI3
 70
     0
  9
$USERI4
 70
     0
  9
$USERI5
 70
     0
  9
$USERR1
 40
0.0
  9
$USERR2
 40
0.0
  9
$USERR3
 40
0.0
  9
$USERR4
 40
0.0
  9
$USERR5
 40
0.0
  9
$WORLDVIEW
 70
     1
  9
$SHADEDGE
 70
     3
  9
$SHADEDIF
 70
    70
  9
$TILEMODE
 70
     1
  9
$MAXACTVP
 70
    64
  9
$PLIMCHECK
 70
     0
  9
$PEXTMIN
 10
1.0000000000000000E+20
 20
1.0000000000000000E+20
 30
1.0000000000000000E+20
  9
$PEXTMAX
 10
-1.0000000000000000E+20
 20
-1.0000000000000000E+20
 30
-1.0000000000000000E+20
  9
$PLIMMIN
 10
0.0
 20
0.0
  9
$PLIMMAX
 10
12.0
 20
9.0
  9
$UNITMODE
 70
     0
  9
$VISRETAIN
 70
     1
  9
$PLINEGEN
 70
     0
  9
$PSLTSCALE
 70
     1
  0
ENDSEC
  0
SECTION
  2
TABLES
  0
TABLE
  2
VPORT
 70
     1
  0
VPORT
  2
*ACTIVE
 70
     0
 10
0.0
 20
0.0
 11
1.0
 21
1.0
 12
814.4653642937219047
 22
205.6384499566925115
 13
0.0
 23
0.0
 14
1.0
 24
1.0
 15
0.0
 25
0.0
 16
0.0
 26
0.0
 36
60.4960186965801583
 17
3911.3653564453120453
 27
132.5796051025390057
 37
0.0
 40
8.2252861390216214
 41
1.67063492063492
 42
50.0
 43
0.0
 44
0.0
 50
0.0
 51
0.0
 71
     0
 72
   100
 73
     1
 74
     1
 75
     0
 76
     0
 77
     0
 78
     0
  0
ENDTAB
  0
TABLE
  2
LTYPE
 70
     2
  0
LTYPE
  2
CONTINUOUS
 70
     0
  3
Solid line
 72
    65
 73
     0
 40
0.0
  0
LTYPE
  2
PHANTOM2
 70
     0
  3
___ _ _ ___ _ _ ___ _ _ ___ _ _
 72
    65
 73
     6
 40
1.25
 49
0.625
 49
-0.125
 49
0.125
 49
-0.125
 49
0.125
 49
-0.125
  0
ENDTAB
  0
TABLE
  2
LAYER
 70
     2
  0
LAYER
  2
0
 70
     0
 62
   255
  6
CONTINUOUS
  0
LAYER
  2
DEFPOINTS
 70
     0
 62
     7
  6
CONTINUOUS
  0
ENDTAB
  0
TABLE
  2
STYLE
 70
     1
  0
STYLE
  2
STANDARD
 70
     0
 40
0.0
 41
0.8
 50
0.0
 71
     0
 42
0.2
  3
txt
  4

  0
ENDTAB
  0
TABLE
  2
VIEW
 70
     0
  0
ENDTAB
  0
TABLE
  2
UCS
 70
     0
  0
ENDTAB
  0
TABLE
  2
APPID
 70
    11
  0
APPID
  2
ACAD
 70
     0
  0
APPID
  2
ACAD_MLEADERVER
 70
     0
  0
APPID
  2
ACAD_EXEMPT_FROM_CAD_STANDARDS
 70
     0
  0
APPID
  2
ACAD_NAV_VCDISPLAY
 70
     0
  0
APPID
  2
ACAECLAYERSTANDARD
 70
     0
  0
APPID
  2
ACCMTRANSPARENCY
 70
     0
  0
APPID
  2
ACAD_DSTYLE_DIMJAG
 70
     0
  0
APPID
  2
ACAD_DSTYLE_DIMTALN
 70
     0
  0
APPID
  2
ACDBATTR
 70
     0
  0
APPID
  2
ACADANNOTATIVE
 70
     0
  0
APPID
  2
DCO15
 70
     0
  0
ENDTAB
  0
TABLE
  2
DIMSTYLE
 70
     1
  0
DIMSTYLE
  2
STANDARD
 70
     0
  3

  4

  5

  6

  7

 40
1.0
 41
0.1875
 42
0.0625
 43
0.38
 44
0.125
 45
0.0
 46
0.0
 47
0.01
 48
0.01
140
0.15625
141
0.09
142
0.0
143
25.3999999999999986
144
1.0
145
0.0
146
1.0
147
0.09
 71
     1
 72
     0
 73
     1
 74
     1
 75
     0
 76
     0
 77
     0
 78
     4
170
     0
171
     2
172
     0
173
     0
174
     0
175
     0
176
     0
177
     0
178
     0
  0
ENDTAB
  0
ENDSEC
  0
SECTION
  2
BLOCKS
  0
BLOCK
  8
0
  2
$MODEL_SPACE
 70
     0
 10
0.0
 20
0.0
 30
0.0
  3
$MODEL_SPACE
  1

  0
ENDBLK
  5
21
  8
0
  0
BLOCK
 67
     1
  8
0
  2
$PAPER_SPACE
 70
     0
 10
0.0
 20
0.0
 30
0.0
  3
$PAPER_SPACE
  1

  0
ENDBLK
  5
1D
 67
     1
  8
0
  0
ENDSEC
  0
SECTION
  2
ENTITIES
  0
ATTDEF
  5
211C4
  8
DEFPOINTS
 10
4721.5952993743248953
 20
339.9200999584999749
 30
0.0
 40
0.001
  1
P21660-00
  3

  2
MODELNUMBER
 70
     0
1001
ACDBATTR
1070
     0
1070
     1
  0
ATTDEF
  5
211C5
  8
DEFPOINTS
 10
4721.5952993743248953
 20
339.9184331181209018
 30
0.0
 40
0.001
  1

  3

  2
TRADENAME
 70
     0
1001
ACDBATTR
1070
     0
1070
     1
  0
ATTDEF
  5
211C6
  8
DEFPOINTS
 10
4721.5952993743248953
 20
339.9167666251667015
 30
0.0
 40
0.001
  1
HANDSHOWER
  3

  2
PRODUCT
 70
     0
1001
ACDBATTR
1070
     0
1070
     1
  0
LINE
  5
233AE
  8
0
 10
4719.236723182237256
 20
337.4713606338768841
 30
0.0
 11
4719.236723182237256
 21
337.1129545944008896
 31
0.0
  0
LINE
  5
233AF
  8
0
 10
4720.959865013779563
 20
338.6952370035760964
 30
0.0
 11
4720.959865013779563
 21
338.2889971358554249
 31
0.0
  0
LINE
  5
233B0
  8
0
 10
4722.3007847521130316
 20
339.9160322969764252
 30
0.0
 11
4720.8980273415927513
 21
339.9160322969764252
 31
0.0
  0
LINE
  5
233B1
  8
0
 10
4722.3207847521143776
 20
339.8959569528998941
 30
0.0
 11
4722.3207847521143776
 21
338.2718468313580047
 31
0.0
  0
ARC
  5
233B2
  8
0
 10
4720.0917644642031519
 20
336.5527246103135894
 30
0.0
 40
1.346747836056795
 50
107.4635030937271978
 51
120.3303180928642035
  0
ARC
  5
233B3
  8
0
 10
4719.6368368464891319
 20
337.3302950826163169
 30
0.0
 40
0.4458732738922255
 50
120.3303180928642035
 51
144.5324444181325134
  0
ARC
  5
233B4
  8
0
 10
4719.4497124499766869
 20
337.4690568178455123
 30
0.0
 40
0.2130017270837262
 50
145.7258562837629086
 51
179.3802796299856084
  0
ARC
  5
233B5
  8
0
 10
4719.3623640489604441
 20
337.4739850419243794
 30
0.0
 40
0.1256682732769248
 50
181.1966300876682965
 51
205.8621690845604064
  0
ARC
  5
233B6
  8
0
 10
4719.5132332031907936
 20
337.5691704727411206
 30
0.0
 40
0.3035969888303299
 50
209.6094726350330859
 51
238.8294550698755927
  0
ARC
  5
233B7
  8
0
 10
4720.5733962224758216
 20
339.7376080092280972
 30
0.0
 40
2.7162470471160911
 50
243.3745985514808865
 51
264.4418502720287165
  0
ARC
  5
233B8
  8
0
 10
4721.4419169706916364
 20
345.0971691932264775
 30
0.0
 40
8.1420578103106411
 50
262.0110146911533207
 51
265.8544555918479091
  0
LINE
  5
233B9
  8
0
 10
4720.8780273415932243
 20
339.8959565000316161
 30
0.0
 11
4720.8780273415932243
 21
338.2718468313580047
 31
0.0
  0
ARC
  5
233BA
  8
0
 10
4721.5991130450092896
 20
334.013067945753221
 30
0.0
 40
4.8107541525830717
 50
89.9965103664503658
 51
96.3157704833824937
  0
ARC
  5
233BB
  8
0
 10
4721.1088364001334412
 20
338.6409141826554787
 30
0.0
 40
0.1585668402430341
 50
104.2173916567491005
 51
159.965478377792806
  0
ARC
  5
233BC
  8
0
 10
4720.9417581133557178
 20
338.654839317148685
 30
0.0
 40
0.1919512408276522
 50
7.5229348215242142
 51
46.5155021394869621
  0
ARC
  5
233BD
  8
0
 10
4729.322855657836044
 20
339.7616449230844182
 30
0.0
 40
8.2619126508751393
 50
187.5229348215241885
 51
188.6975254566617082
  0
ARC
  5
233BE
  8
0
 10
4720.9812373534459766
 20
338.4855666517996724
 30
0.0
 40
0.1767467029911537
 50
307.0506214865137053
 51
8.6975254566617615
  0
ARC
  5
233BF
  8
0
 10
4720.9078115982074451
 20
338.5828270136732954
 30
0.0
 40
0.2986110518558952
 50
279.5002007782151168
 51
307.0506214865137053
  0
ARC
  5
233C0
  8
0
 10
4711.3382865635267081
 20
384.2840925810129988
 30
0.0
 40
46.9907800854523074
 50
281.116013469663983
 51
281.811686801963674
  0
ARC
  5
233C1
  8
0
 10
4721.1513142642133971
 20
338.2462383532907211
 30
0.0
 40
0.2173144208491901
 50
126.3707400316443028
 51
151.7605797458400048
  0
ARC
  5
233C2
  8
0
 10
4721.0340870641457514
 20
338.411088859670599
 30
0.0
 40
0.0154323968157402
 50
40.0933710981993414
 51
138.9714918318169055
  0
ARC
  5
233C3
  8
0
 10
4720.8057314190937177
 20
338.2852141535236115
 30
0.0
 40
0.2759036894461766
 50
10.6507801174784298
 51
29.4886039161746787
  0
ARC
  5
233C4
  8
0
 10
4720.8384328234296845
 20
335.8938435186447009
 30
0.0
 40
2.323215236772203
 50
100.9299428228094939
 51
114.0522965563616964
  0
ARC
  5
233C5
  8
0
 10
4720.098837392837595
 20
337.5509298565639256
 30
0.0
 40
0.5085702212745418
 50
114.0522965563616964
 51
135.5808472268421099
  0
ARC
  5
233C6
  8
0
 10
4719.9129990025667212
 20
337.7330379888487073
 30
0.0
 40
0.2483793698925572
 50
135.580847226839694
 51
155.1549318970236868
  0
ARC
  5
233C7
  8
0
 10
4719.8697262846608282
 20
337.7530741115829187
 30
0.0
 40
0.2006931629853155
 50
155.1549318970236868
 51
179.5033989462206989
  0
ARC
  5
233C8
  8
0
 10
4719.8046779389605945
 20
337.6559978825034136
 30
0.0
 40
0.1359723068454685
 50
184.0168244745788968
 51
233.9111782699006028
  0
ARC
  5
233C9
  8
0
 10
4720.2691070490309357
 20
338.2931502397128725
 30
0.0
 40
0.9244249208796507
 50
233.9111782699006028
 51
248.750646915029705
  0
ARC
  5
233CA
  8
0
 10
4721.1531892423718091
 20
341.2410174783165075
 30
0.0
 40
3.999762803027874
 50
252.2539957373207926
 51
266.5313814167502073
  0
ARC
  5
233CB
  8
0
 10
4721.5959501052402629
 20
345.4487327786479227
 30
0.0
 40
8.2286914109824512
 50
265.2265885310868043
 51
270.0240634706984224
  0
LINE
  5
233CC
  8
0
 10
4719.6690406599145717
 20
337.7548135623590042
 30
0.0
 11
4719.6690396448530009
 21
337.6464731042764242
 31
0.0
  0
ARC
  5
233CD
  8
0
 10
4721.5971765298836544
 20
347.0929247542287044
 30
0.0
 40
10.1438210205017505
 50
265.7946983683315239
 51
270.0125930764439204
  0
ARC
  5
233CE
  8
0
 10
4721.6010309813036656
 20
345.5907248747276981
 30
0.0
 40
8.2622504280938625
 50
265.3963718360428743
 51
269.988731655220306
  0
ARC
  5
233CF
  8
0
 10
4721.411991452519942
 20
343.2430441950637032
 30
0.0
 40
5.9069711416588451
 50
257.9531727356953752
 51
265.3963718360428743
  0
ARC
  5
233D0
  8
0
 10
4720.3867988711681392
 20
338.5947964712989915
 30
0.0
 40
1.1475807054115481
 50
234.0142350468387917
 51
259.5747559162198854
  0
ARC
  5
233D1
  8
0
 10
4719.7986588988733274
 20
337.7634361110684154
 30
0.0
 40
0.1299047217491209
 50
183.8058728666912884
 51
228.4511701531469896
  0
ARC
  5
233D2
  8
0
 10
4720.1675322093797149
 20
338.271508986070728
 30
0.0
 40
1.563194155439714
 50
238.6505906197502043
 51
257.4145478943946728
  0
ARC
  5
233D3
  8
0
 10
4720.9555624942122449
 20
341.2805390217279182
 30
0.0
 40
4.6730089355730806
 50
256.0235026219432939
 51
262.1546623375294871
  0
ARC
  5
233D4
  8
0
 10
4721.4799653734980893
 20
344.9523971525532033
 30
0.0
 40
8.3820996680590891
 50
262.0296565150575816
 51
266.7095047317736203
  0
ARC
  5
233D5
  8
0
 10
4721.5990048512721842
 20
346.6722981695941144
 30
0.0
 40
10.1060178865911592
 50
266.5954142786786747
 51
270.0022745668550215
  0
ARC
  5
233D6
  8
0
 10
4719.5322647591319765
 20
337.2046393640882229
 30
0.0
 40
0.3218183706042279
 50
211.7364869557291058
 51
236.4209970135306946
  0
ARC
  5
233D7
  8
0
 10
4719.3838104319856939
 20
337.1124862599942276
 30
0.0
 40
0.1470879953488781
 50
179.8175675031478136
 51
211.6254413050529024
  0
LINE
  5
233D8
  8
0
 10
4731.7962638337512544
 20
338.5519053816764199
 30
0.0
 11
4722.3224903281798106
 21
338.5519053816764199
 31
0.0
  0
LINE
  5
233D9
  8
0
 10
4731.7963116557975809
 20
338.0517406289263818
 30
0.0
 11
4723.2210819470519709
 21
338.0517406289263818
 31
0.0
  0
CIRCLE
  5
233DA
  8
0
 10
4732.1734689824543239
 20
338.3018590685763911
 30
0.0
 40
0.4525559445000003
  0
ARC
  5
233DB
  8
0
 10
4720.1595229939339333
 20
336.6730712274626853
 30
0.0
 40
0.0299835812139246
 50
184.767071193006899
 51
251.6304354663342906
  0
ARC
  5
233DC
  8
0
 10
4720.2167145476332735
 20
336.8453007843887121
 30
0.0
 40
0.2114605607278964
 50
251.6304354663342906
 51
267.757773319257808
  0
ARC
  5
233DD
  8
0
 10
4720.2239293578813886
 20
337.0295672241575176
 30
0.0
 40
0.3958681915677867
 50
267.757773319257808
 51
278.9506887958212928
  0
ARC
  5
233DE
  8
0
 10
4720.2734308029466774
 20
336.7152769797718861
 30
0.0
 40
0.0777035317142916
 50
278.9506887958212928
 51
304.5700983342522932
  0
ARC
  5
233DF
  8
0
 10
4720.5612449577738516
 20
336.6049377617063101
 30
0.0
 40
0.0301386611109521
 50
184.7549570299738946
 51
253.3954968771404026
  0
ARC
  5
233E0
  8
0
 10
4720.6278493751124188
 20
336.8282937173231062
 30
0.0
 40
0.2632138234909209
 50
253.3954968771404026
 51
273.914836492289794
  0
ARC
  5
233E1
  8
0
 10
4720.643717009215834
 20
336.7583519521344897
 30
0.0
 40
0.1926693606642668
 50
270.625379248690308
 51
289.7696939179738251
  0
ARC
  5
233E2
  8
0
 10
4720.6979457905808886
 20
336.6058755961719271
 30
0.0
 40
0.0308423831754365
 50
290.7749576666601001
 51
356.5682284312244974
  0
ARC
  5
233E3
  8
0
 10
4720.8378311735114039
 20
336.6763738462095716
 30
0.0
 40
0.1005601810580891
 50
278.1500855517548985
 51
301.9152562757147962
  0
ARC
  5
233E4
  8
0
 10
4720.80436067813298
 20
336.8834799878300146
 30
0.0
 40
0.3103424925292074
 50
254.3004719245124079
 51
278.8464401092908815
  0
ARC
  5
233E5
  8
0
 10
4721.0270703602500362
 20
336.5611443308599746
 30
0.0
 40
0.0282657509832632
 50
183.1232191442026931
 51
248.0907215748117096
  0
ARC
  5
233E6
  8
0
 10
4721.077456897396587
 20
336.6864261515601129
 30
0.0
 40
0.1633003307162286
 50
248.0907215748117096
 51
269.393230829807294
  0
ARC
  5
233E7
  8
0
 10
4721.0826000412125723
 20
337.1720629180126139
 30
0.0
 40
0.6489643306778454
 50
269.393230829807294
 51
275.9182658144338802
  0
ARC
  5
233E8
  8
0
 10
4721.1411943890461771
 20
336.6068195620567849
 30
0.0
 40
0.0806920816192538
 50
275.9182658144338802
 51
301.3594128610047278
  0
ARC
  5
233E9
  8
0
 10
4721.1696054687854485
 20
336.5602005138441086
 30
0.0
 40
0.0260978959560168
 50
301.3594128610081953
 51
358.6909802116480819
  0
ARC
  5
233EA
  8
0
 10
4721.6026809425948159
 20
336.8276868611978898
 30
0.0
 40
0.3198073938531778
 50
255.9864020043885944
 51
269.4132687752539255
  0
ARC
  5
233EB
  8
0
 10
4721.5377095263092997
 20
336.5570243684271077
 30
0.0
 40
0.0415428303484746
 50
216.7712535104489007
 51
252.5311357567736934
  0
ARC
  5
233EC
  8
0
 10
4721.5197329664742938
 20
336.5435902450061008
 30
0.0
 40
0.0191010751677585
 50
175.7878258037308967
 51
216.7712535104463996
  0
ARC
  5
233ED
  8
0
 10
4721.3724820319339415
 20
336.6773015933695206
 30
0.0
 40
0.1285067360947258
 50
245.3052694236334048
 51
271.8424913821179985
  0
ARC
  5
233EE
  8
0
 10
4721.3809344178180254
 20
336.7569965655292208
 30
0.0
 40
0.2081801098776225
 50
268.8107794461496951
 51
279.9164729121231971
  0
ARC
  5
233EF
  8
0
 10
4721.4097448968095705
 20
336.6102379428418772
 30
0.0
 40
0.0587347672501585
 50
276.884760976142104
 51
313.1401900552967277
  0
ARC
  5
233F0
  8
0
 10
4721.2794482826138847
 20
336.8295832379034778
 30
0.0
 40
0.2718978840182317
 50
269.6051270379567768
 51
286.7075158460796729
  0
ARC
  5
233F1
  8
0
 10
4721.2558585635188138
 20
336.5777236134964028
 30
0.0
 40
0.0295772766778001
 50
295.151078727532024
 51
347.1964248308840979
  0
ARC
  5
233F2
  8
0
 10
4721.2223602549156567
 20
336.6490692013617263
 30
0.0
 40
0.1083956094883646
 50
277.8250163455290931
 51
295.151078727532024
  0
ARC
  5
233F3
  8
0
 10
4721.1804287508539346
 20
336.9541858135848997
 30
0.0
 40
0.4163800215734635
 50
270.3566409320860089
 51
277.8250163455290931
  0
LINE
  5
233F4
  8
0
 10
4720.9988460694812602
 20
336.584116620652992
 30
0.0
 11
4720.9988465931528481
 21
336.5596043147763794
 31
0.0
  0
LINE
  5
233F5
  8
0
 10
4721.1956967279502351
 20
336.5743310433967963
 30
0.0
 11
4721.195696075133128
 21
336.5595837207210934
 31
0.0
  0
LINE
  5
233F6
  8
0
 10
4721.5006832319031673
 20
336.5667585806722855
 30
0.0
 11
4721.5006834853529654
 21
336.5449932209763801
 31
0.0
  0
LINE
  5
233F7
  8
0
 10
4720.5312098501599394
 20
336.6241645788185792
 30
0.0
 11
4720.5312100238534185
 21
336.6024394346763984
 31
0.0
  0
LINE
  5
233F8
  8
0
 10
4720.1296430610873358
 20
336.6810967074973178
 30
0.0
 11
4720.1296431323526122
 21
336.6705794380764019
 31
0.0
  0
LINE
  5
233F9
  8
0
 10
4723.9620889114703459
 20
337.4713606338768841
 30
0.0
 11
4723.9620889114703459
 21
337.1129545944008896
 31
0.0
  0
LINE
  5
233FA
  8
0
 10
4722.2389470799271294
 20
338.6952370035760964
 30
0.0
 11
4722.2389470799271294
 21
338.2889971358554249
 31
0.0
  0
ARC
  5
233FB
  8
0
 10
4723.10704762950445
 20
336.5527246103135894
 30
0.0
 40
1.346747836056795
 50
59.6696819071357893
 51
72.536496906272717
  0
ARC
  5
233FC
  8
0
 10
4723.561975247216651
 20
337.3302950826163169
 30
0.0
 40
0.4458732738922255
 50
35.4675555818674226
 51
59.6696819071357893
  0
ARC
  5
233FD
  8
0
 10
4723.7490996437300055
 20
337.4690568178455123
 30
0.0
 40
0.2130017270837262
 50
0.6197203700143307
 51
34.2741437162370985
  0
ARC
  5
233FE
  8
0
 10
4723.8364480447471578
 20
337.4739850419243794
 30
0.0
 40
0.1256682732769248
 50
334.137830915439622
 51
358.8033699123316751
  0
ARC
  5
233FF
  8
0
 10
4723.6855788905149893
 20
337.5691704727411206
 30
0.0
 40
0.3035969888303299
 50
301.1705449301243789
 51
330.3905273649668857
  0
ARC
  5
23400
  8
0
 10
4722.6254158712299613
 20
339.7376080092280972
 30
0.0
 40
2.7162470471160911
 50
275.5581497279712835
 51
296.6254014485190851
  0
ARC
  5
23401
  8
0
 10
4721.7568951230141465
 20
345.0971691932264775
 30
0.0
 40
8.1420578103106411
 50
274.1455444081520909
 51
277.9889853088466793
  0
ARC
  5
23402
  8
0
 10
4721.5996990486983123
 20
334.013067945753221
 30
0.0
 40
4.8107541525830717
 50
83.6842295166175063
 51
90.0034896335496342
  0
ARC
  5
23403
  8
0
 10
4722.0899756935741607
 20
338.6409141826554787
 30
0.0
 40
0.1585668402430341
 50
20.0345216222071585
 51
75.7826083432508568
  0
ARC
  5
23404
  8
0
 10
4722.2570539803491556
 20
338.654839317148685
 30
0.0
 40
0.1919512408276522
 50
133.4844978605129882
 51
172.4770651784758115
  0
ARC
  5
23405
  8
0
 10
4713.8759564358688294
 20
339.7616449230844182
 30
0.0
 40
8.2619126508751393
 50
351.3024745433381781
 51
352.4770651784756978
  0
ARC
  5
23406
  8
0
 10
4722.2175747402607158
 20
338.4855666517996724
 30
0.0
 40
0.1767467029911537
 50
171.3024745433382066
 51
232.9493785134864083
  0
ARC
  5
23407
  8
0
 10
4722.2910004954983378
 20
338.5828270136732954
 30
0.0
 40
0.2986110518558952
 50
232.9493785134864083
 51
260.4997992217848832
  0
ARC
  5
23408
  8
0
 10
4731.8605255301790748
 20
384.2840925810129988
 30
0.0
 40
46.9907800854523074
 50
258.188313198036326
 51
258.883986530336017
  0
ARC
  5
23409
  8
0
 10
4722.0474978294932953
 20
338.2462383532907211
 30
0.0
 40
0.2173144208491901
 50
28.2394202541599917
 51
53.6292599683556404
  0
ARC
  5
2340A
  8
0
 10
4722.1647250295600315
 20
338.411088859670599
 30
0.0
 40
0.0154323968157402
 50
41.0285081681830377
 51
139.9066289018005875
  0
ARC
  5
2340B
  8
0
 10
4722.3930806746120652
 20
338.2852141535236115
 30
0.0
 40
0.2759036894461766
 50
150.5113960838253035
 51
169.3492198825215098
  0
ARC
  5
2340C
  8
0
 10
4722.3603792702760984
 20
335.8938435186447009
 30
0.0
 40
2.323215236772203
 50
65.9477034436382894
 51
79.0700571771905061
  0
ARC
  5
2340D
  8
0
 10
4723.0999747008672784
 20
337.5509298565639256
 30
0.0
 40
0.5085702212745418
 50
44.4191527731579114
 51
65.9477034436382894
  0
ARC
  5
2340E
  8
0
 10
4723.2858130911390617
 20
337.7330379888487073
 30
0.0
 40
0.2483793698925572
 50
24.8450681029762812
 51
44.419152773160242
  0
ARC
  5
2340F
  8
0
 10
4723.3290858090458642
 20
337.7530741115829187
 30
0.0
 40
0.2006931629853155
 50
0.4966010537792828
 51
24.8450681029762812
  0
ARC
  5
23410
  8
0
 10
4723.3941341547442789
 20
337.6559978825034136
 30
0.0
 40
0.1359723068454685
 50
306.0888217300994256
 51
355.9831755254210179
  0
ARC
  5
23411
  8
0
 10
4722.9297050446757567
 20
338.2931502397128725
 30
0.0
 40
0.9244249208796507
 50
291.2493530849702097
 51
306.0888217300994256
  0
ARC
  5
23412
  8
0
 10
4722.0456228513348833
 20
341.2410174783165075
 30
0.0
 40
3.999762803027874
 50
273.4686185832497927
 51
287.7460042626792074
  0
ARC
  5
23413
  8
0
 10
4721.602861988467339
 20
345.4487327786479227
 30
0.0
 40
8.2286914109824387
 50
269.9759365293015776
 51
274.7734114689131957
  0
LINE
  5
23414
  8
0
 10
4723.5297714337921207
 20
337.7548135623590042
 30
0.0
 11
4723.5297724488536915
 21
337.6464731042764242
 31
0.0
  0
ARC
  5
23415
  8
0
 10
4721.6016355638221285
 20
347.0929247542287044
 30
0.0
 40
10.1438210205017505
 50
269.9874069235560796
 51
274.2053016316684761
  0
ARC
  5
23416
  8
0
 10
4721.5977811124021173
 20
345.5907248747276981
 30
0.0
 40
8.2622504280938625
 50
270.0112683447798076
 51
274.6036281639571257
  0
ARC
  5
23417
  8
0
 10
4721.7868206411849314
 20
343.2430441950637032
 30
0.0
 40
5.9069711416588451
 50
274.6036281639571257
 51
282.0468272643046248
  0
ARC
  5
23418
  8
0
 10
4722.8120132225376437
 20
338.5947964712989915
 30
0.0
 40
1.1475807054115481
 50
280.4252440837800009
 51
305.9857649531612083
  0
ARC
  5
23419
  8
0
 10
4723.400153194833365
 20
337.7634361110684154
 30
0.0
 40
0.1299047217491209
 50
311.548829846852982
 51
356.1941271333087116
  0
ARC
  5
2341A
  8
0
 10
4723.0312798843269775
 20
338.271508986070728
 30
0.0
 40
1.563194155439714
 50
282.5854521056053272
 51
301.3494093802497105
  0
ARC
  5
2341B
  8
0
 10
4722.2432495994944475
 20
341.2805390217279182
 30
0.0
 40
4.6730089355730806
 50
277.8453376624705129
 51
283.9764973780567061
  0
ARC
  5
2341C
  8
0
 10
4721.7188467202104221
 20
344.9523971525532033
 30
0.0
 40
8.3820996680590891
 50
273.2904952682263797
 51
277.9703434849424184
  0
ARC
  5
2341D
  8
0
 10
4721.5998072424335987
 20
346.6722981695941144
 30
0.0
 40
10.1060178865911592
 50
269.9977254331449785
 51
273.4045857213213253
  0
ARC
  5
2341E
  8
0
 10
4723.6665473345738064
 20
337.2046393640882229
 30
0.0
 40
0.3218183706042279
 50
303.5790029864692201
 51
328.2635130442708942
  0
ARC
  5
2341F
  8
0
 10
4723.8150016617209985
 20
337.1124862599942276
 30
0.0
 40
0.1470879953488781
 50
328.3745586949469839
 51
0.1824324968522338
  0
ARC
  5
23420
  8
0
 10
4723.0392890997718496
 20
336.6730712274626853
 30
0.0
 40
0.0299835812139246
 50
288.3695645336655957
 51
355.2329288069930726
  0
ARC
  5
23421
  8
0
 10
4722.9820975460734189
 20
336.8453007843887121
 30
0.0
 40
0.2114605607278964
 50
272.242226680742192
 51
288.3695645336655957
  0
ARC
  5
23422
  8
0
 10
4722.9748827358262133
 20
337.0295672241575176
 30
0.0
 40
0.3958681915677867
 50
261.0493112041785935
 51
272.242226680742192
  0
ARC
  5
23423
  8
0
 10
4722.9253812907591055
 20
336.7152769797718861
 30
0.0
 40
0.0777035317142916
 50
235.4299016657477068
 51
261.0493112041785935
  0
ARC
  5
23424
  8
0
 10
4722.6375671359319313
 20
336.6049377617063101
 30
0.0
 40
0.0301386611109521
 50
286.6045031228596258
 51
355.2450429700260202
  0
ARC
  5
23425
  8
0
 10
4722.5709627185942736
 20
336.8282937173231062
 30
0.0
 40
0.2632138234909209
 50
266.085163507710206
 51
286.6045031228596258
  0
ARC
  5
23426
  8
0
 10
4722.5550950844899489
 20
336.7583519521344897
 30
0.0
 40
0.1926693606642668
 50
250.2303060820262033
 51
269.374620751309692
  0
ARC
  5
23427
  8
0
 10
4722.5008663031258038
 20
336.6058755961719271
 30
0.0
 40
0.0308423831754365
 50
183.4317715687753889
 51
249.2250423333397862
  0
ARC
  5
23428
  8
0
 10
4722.3609809201952885
 20
336.6763738462095716
 30
0.0
 40
0.1005601810580891
 50
238.0847437242852038
 51
261.8499144482451015
  0
ARC
  5
23429
  8
0
 10
4722.3944514155728029
 20
336.8834799878300146
 30
0.0
 40
0.3103424925292074
 50
261.1535598907091185
 51
285.6995280754874784
  0
ARC
  5
2342A
  8
0
 10
4722.1717417334566562
 20
336.5611443308599746
 30
0.0
 40
0.0282657509832632
 50
291.9092784251882904
 51
356.8767808557972785
  0
ARC
  5
2342B
  8
0
 10
4722.1213551963101054
 20
336.6864261515601129
 30
0.0
 40
0.1633003307162286
 50
270.6067691701928197
 51
291.9092784251882904
  0
ARC
  5
2342C
  8
0
 10
4722.1162120524932106
 20
337.1720629180126139
 30
0.0
 40
0.6489643306778454
 50
264.0817341855661198
 51
270.6067691701928197
  0
ARC
  5
2342D
  8
0
 10
4722.0576177046596058
 20
336.6068195620567849
 30
0.0
 40
0.0806920816192538
 50
238.6405871389951869
 51
264.0817341855661198
  0
ARC
  5
2342E
  8
0
 10
4722.0292066249212439
 20
336.5602005138441086
 30
0.0
 40
0.0260978959560168
 50
181.3090197883485928
 51
238.6405871389918047
  0
ARC
  5
2342F
  8
0
 10
4721.5909243473652168
 20
336.8683313965282764
 30
0.0
 40
0.3605349420798341
 50
271.348025846390783
 51
283.2523033739462903
  0
ARC
  5
23430
  8
0
 10
4721.6611025673983022
 20
336.5570243684271077
 30
0.0
 40
0.0415428303484746
 50
287.4688642432262213
 51
323.2287464895509856
  0
ARC
  5
23431
  8
0
 10
4721.6790791272323986
 20
336.5435902450061008
 30
0.0
 40
0.0191010751677585
 50
323.2287464895537141
 51
4.2121741962690509
  0
ARC
  5
23432
  8
0
 10
4721.8263300617718414
 20
336.6773015933695206
 30
0.0
 40
0.1285067360947258
 50
268.1575086178820015
 51
294.6947305763666236
  0
ARC
  5
23433
  8
0
 10
4721.817877675888667
 20
336.7569965655292208
 30
0.0
 40
0.2081801098776225
 50
260.0835270878766892
 51
271.1892205538504186
  0
ARC
  5
23434
  8
0
 10
4721.7890671968971219
 20
336.6102379428418772
 30
0.0
 40
0.0587347672501585
 50
226.8598099447033007
 51
263.115239023857896
  0
ARC
  5
23435
  8
0
 10
4721.9193638110918982
 20
336.8295832379034778
 30
0.0
 40
0.2718978840182317
 50
253.2924841539202134
 51
270.3948729620432232
  0
ARC
  5
23436
  8
0
 10
4721.9429535301869691
 20
336.5777236134964028
 30
0.0
 40
0.0295772766778001
 50
192.8035751691159021
 51
244.8489212724680044
  0
ARC
  5
23437
  8
0
 10
4721.9764518387910357
 20
336.6490692013617263
 30
0.0
 40
0.1083956094883646
 50
244.8489212724680044
 51
262.1749836544707932
  0
ARC
  5
23438
  8
0
 10
4722.0183833428509388
 20
336.9541858135848997
 30
0.0
 40
0.4163800215734635
 50
262.1749836544707932
 51
269.6433590679139911
  0
LINE
  5
23439
  8
0
 10
4722.1999660242254322
 20
336.584116620652992
 30
0.0
 11
4722.1999655005529348
 21
336.5596043147763794
 31
0.0
  0
LINE
  5
2343A
  8
0
 10
4722.0031153657555478
 20
336.5743310433967963
 30
0.0
 11
4722.0031160185726549
 21
336.5595837207210934
 31
0.0
  0
LINE
  5
2343B
  8
0
 10
4721.6981288618026156
 20
336.5667585806722855
 30
0.0
 11
4721.698128608353727
 21
336.5449932209763801
 31
0.0
  0
LINE
  5
2343C
  8
0
 10
4722.6676022435458435
 20
336.6241645788185792
 30
0.0
 11
4722.6676020698532739
 21
336.6024394346763984
 31
0.0
  0
LINE
  5
2343D
  8
0
 10
4723.0691690326184471
 20
336.6810967074973178
 30
0.0
 11
4723.0691689613531707
 21
336.6705794380764019
 31
0.0
  0
ARC
  5
2343F
  8
0
 10
4720.8980273415927513
 20
339.8960322969763865
 30
0.0
 40
0.02
 50
90.0
 51
180.0000000000619025
  0
ARC
  5
23440
  8
0
 10
4722.3007847521130316
 20
339.8960322969763865
 30
0.0
 40
0.02
 50
359.9999999999805027
 51
90.0
  0
ENDSEC
  0
EOF
