  0
SECTION
  2
HEADER
  9
$ACADVER
  1
AC1009
  9
$INSBASE
 10
4740.2406006621949928
 20
343.4053228207267807
 30
0.0
  9
$EXTMIN
 10
4737.6894843658392347
 20
308.3024396440325745
 30
-0.0000000000112498
  9
$EXTMAX
 10
4751.4024566321886596
 20
353.0440427400868089
 30
0.0000000000002956
  9
$LIMMIN
 10
0.0
 20
0.0
  9
$LIMMAX
 10
11.6929133858000007
 20
8.2677165353999982
  9
$ORTHOMODE
 70
     0
  9
$REGENMODE
 70
     1
  9
$FILLMODE
 70
     1
  9
$QTEXTMODE
 70
     0
  9
$MIRRTEXT
 70
     0
  9
$DRAGMODE
 70
     2
  9
$LTSCALE
 40
0.6431102362
  9
$OSMODE
 70
  4095
  9
$ATTMODE
 70
     1
  9
$TEXTSIZE
 40
0.2
  9
$TRACEWID
 40
0.05
  9
$TEXTSTYLE
  7
STANDARD
  9
$CLAYER
  8
0
  9
$CELTYPE
  6
BYLAYER
  9
$CECOLOR
 62
   256
  9
$DIMSCALE
 40
1.0
  9
$DIMASZ
 40
0.1875
  9
$DIMEXO
 40
0.0625
  9
$DIMDLI
 40
0.4443307087
  9
$DIMRND
 40
0.0
  9
$DIMDLE
 40
0.0
  9
$DIMEXE
 40
0.125
  9
$DIMTP
 40
0.01
  9
$DIMTM
 40
0.01
  9
$DIMTXT
 40
2.0
  9
$DIMCEN
 40
0.1052362205
  9
$DIMTSZ
 40
0.0
  9
$DIMTOL
 70
     1
  9
$DIMLIM
 70
     0
  9
$DIMTIH
 70
     1
  9
$DIMTOH
 70
     1
  9
$DIMSE1
 70
     0
  9
$DIMSE2
 70
     0
  9
$DIMTAD
 70
     0
  9
$DIMZIN
 70
     0
  9
$DIMBLK
  1

  9
$DIMASO
 70
     1
  9
$DIMSHO
 70
     1
  9
$DIMPOST
  1
\X
  9
$DIMAPOST
  1

  9
$DIMALT
 70
     1
  9
$DIMALTD
 70
     2
  9
$DIMALTF
 40
25.3999999999999986
  9
$DIMLFAC
 40
1.0
  9
$DIMTOFL
 70
     0
  9
$DIMTVP
 40
0.0
  9
$DIMTIX
 70
     0
  9
$DIMSOXD
 70
     0
  9
$DIMSAH
 70
     0
  9
$DIMBLK1
  1

  9
$DIMBLK2
  1

  9
$DIMSTYLE
  2
STANDARD
  9
$DIMCLRD
 70
     0
  9
$DIMCLRE
 70
     0
  9
$DIMCLRT
 70
     0
  9
$DIMTFAC
 40
1.0
  9
$DIMGAP
 40
0.09
  9
$LUNITS
 70
     2
  9
$LUPREC
 70
     4
  9
$SKETCHINC
 40
0.1
  9
$FILLETRAD
 40
0.0
  9
$AUNITS
 70
     0
  9
$AUPREC
 70
     0
  9
$MENU
  1
.
  9
$ELEVATION
 40
0.0
  9
$PELEVATION
 40
0.0
  9
$THICKNESS
 40
0.0
  9
$LIMCHECK
 70
     0
  9
$BLIPMODE
 70
     0
  9
$CHAMFERA
 40
0.0
  9
$CHAMFERB
 40
0.0
  9
$SKPOLY
 70
     0
  9
$TDCREATE
 40
2458060.468368056230247
  9
$TDUPDATE
 40
2459578.7990509262308478
  9
$TDINDWG
 40
0.6615232639
  9
$TDUSRTIMER
 40
0.6615232639
  9
$USRTIMER
 70
     1
  9
$ANGBASE
 50
0.0
  9
$ANGDIR
 70
     0
  9
$PDMODE
 70
     0
  9
$PDSIZE
 40
0.3125
  9
$PLINEWID
 40
0.0
  9
$COORDS
 70
     1
  9
$SPLFRAME
 70
     0
  9
$SPLINETYPE
 70
     6
  9
$SPLINESEGS
 70
     8
  9
$ATTDIA
 70
     1
  9
$ATTREQ
 70
     1
  9
$HANDLING
 70
     1
  9
$HANDSEED
  5
24881
  9
$SURFTAB1
 70
     6
  9
$SURFTAB2
 70
     6
  9
$SURFTYPE
 70
     6
  9
$SURFU
 70
     6
  9
$SURFV
 70
     6
  9
$UCSNAME
  2

  9
$UCSORG
 10
0.0
 20
0.0
 30
0.0
  9
$UCSXDIR
 10
1.0
 20
0.0
 30
0.0
  9
$UCSYDIR
 10
0.0
 20
1.0
 30
0.0
  9
$PUCSNAME
  2

  9
$PUCSORG
 10
0.0
 20
0.0
 30
0.0
  9
$PUCSXDIR
 10
1.0
 20
0.0
 30
0.0
  9
$PUCSYDIR
 10
0.0
 20
1.0
 30
0.0
  9
$USERI1
 70
     0
  9
$USERI2
 70
     0
  9
$USERI3
 70
     0
  9
$USERI4
 70
     0
  9
$USERI5
 70
     0
  9
$USERR1
 40
0.0
  9
$USERR2
 40
0.0
  9
$USERR3
 40
0.0
  9
$USERR4
 40
0.0
  9
$USERR5
 40
0.0
  9
$WORLDVIEW
 70
     1
  9
$SHADEDGE
 70
     3
  9
$SHADEDIF
 70
    70
  9
$TILEMODE
 70
     1
  9
$MAXACTVP
 70
    64
  9
$PLIMCHECK
 70
     0
  9
$PEXTMIN
 10
1.0000000000000000E+20
 20
1.0000000000000000E+20
 30
1.0000000000000000E+20
  9
$PEXTMAX
 10
-1.0000000000000000E+20
 20
-1.0000000000000000E+20
 30
-1.0000000000000000E+20
  9
$PLIMMIN
 10
0.0
 20
0.0
  9
$PLIMMAX
 10
12.0
 20
9.0
  9
$UNITMODE
 70
     0
  9
$VISRETAIN
 70
     1
  9
$PLINEGEN
 70
     0
  9
$PSLTSCALE
 70
     1
  0
ENDSEC
  0
SECTION
  2
TABLES
  0
TABLE
  2
VPORT
 70
     1
  0
VPORT
  2
*ACTIVE
 70
     0
 10
0.0
 20
0.0
 11
1.0
 21
1.0
 12
833.1806140537017882
 22
198.0936360895206008
 13
0.0
 23
0.0
 14
1.0
 24
1.0
 15
0.0
 25
0.0
 16
0.0
 26
0.0
 36
60.4960186965801583
 17
3911.3653564453120453
 27
132.5796051025390057
 37
0.0
 40
45.096226106062538
 41
1.67063492063492
 42
50.0
 43
0.0
 44
0.0
 50
0.0
 51
0.0
 71
     0
 72
   100
 73
     1
 74
     1
 75
     0
 76
     0
 77
     0
 78
     0
  0
ENDTAB
  0
TABLE
  2
LTYPE
 70
     2
  0
LTYPE
  2
CONTINUOUS
 70
     0
  3
Solid line
 72
    65
 73
     0
 40
0.0
  0
LTYPE
  2
PHANTOM2
 70
     0
  3
___ _ _ ___ _ _ ___ _ _ ___ _ _
 72
    65
 73
     6
 40
1.25
 49
0.625
 49
-0.125
 49
0.125
 49
-0.125
 49
0.125
 49
-0.125
  0
ENDTAB
  0
TABLE
  2
LAYER
 70
     2
  0
LAYER
  2
0
 70
     0
 62
   255
  6
CONTINUOUS
  0
LAYER
  2
DEFPOINTS
 70
     0
 62
     7
  6
CONTINUOUS
  0
ENDTAB
  0
TABLE
  2
STYLE
 70
     1
  0
STYLE
  2
STANDARD
 70
     0
 40
0.0
 41
0.8
 50
0.0
 71
     0
 42
0.2
  3
txt
  4

  0
ENDTAB
  0
TABLE
  2
VIEW
 70
     0
  0
ENDTAB
  0
TABLE
  2
UCS
 70
     0
  0
ENDTAB
  0
TABLE
  2
APPID
 70
    11
  0
APPID
  2
ACAD
 70
     0
  0
APPID
  2
ACAD_MLEADERVER
 70
     0
  0
APPID
  2
ACAD_EXEMPT_FROM_CAD_STANDARDS
 70
     0
  0
APPID
  2
ACAD_NAV_VCDISPLAY
 70
     0
  0
APPID
  2
ACAECLAYERSTANDARD
 70
     0
  0
APPID
  2
ACCMTRANSPARENCY
 70
     0
  0
APPID
  2
ACAD_DSTYLE_DIMJAG
 70
     0
  0
APPID
  2
ACAD_DSTYLE_DIMTALN
 70
     0
  0
APPID
  2
ACDBATTR
 70
     0
  0
APPID
  2
ACADANNOTATIVE
 70
     0
  0
APPID
  2
DCO15
 70
     0
  0
ENDTAB
  0
TABLE
  2
DIMSTYLE
 70
     1
  0
DIMSTYLE
  2
STANDARD
 70
     0
  3

  4

  5

  6

  7

 40
1.0
 41
0.1875
 42
0.0625
 43
0.38
 44
0.125
 45
0.0
 46
0.0
 47
0.01
 48
0.01
140
0.15625
141
0.09
142
0.0
143
25.3999999999999986
144
1.0
145
0.0
146
1.0
147
0.09
 71
     1
 72
     0
 73
     1
 74
     1
 75
     0
 76
     0
 77
     0
 78
     4
170
     0
171
     2
172
     0
173
     0
174
     0
175
     0
176
     0
177
     0
178
     0
  0
ENDTAB
  0
ENDSEC
  0
SECTION
  2
BLOCKS
  0
BLOCK
  8
0
  2
$MODEL_SPACE
 70
     0
 10
0.0
 20
0.0
 30
0.0
  3
$MODEL_SPACE
  1

  0
ENDBLK
  5
21
  8
0
  0
BLOCK
 67
     1
  8
0
  2
$PAPER_SPACE
 70
     0
 10
0.0
 20
0.0
 30
0.0
  3
$PAPER_SPACE
  1

  0
ENDBLK
  5
1D
 67
     1
  8
0
  0
ENDSEC
  0
SECTION
  2
ENTITIES
  0
ATTDEF
  5
211C4
  8
DEFPOINTS
 10
4740.2349043363192322
 20
343.4036405836645827
 30
0.0
 40
0.001
  1
P21660-00
  3

  2
MODELNUMBER
 70
     0
1001
ACDBATTR
1070
     0
1070
     1
  0
ATTDEF
  5
211C5
  8
DEFPOINTS
 10
4740.2349043363192322
 20
343.4019737432855095
 30
0.0
 40
0.001
  1

  3

  2
TRADENAME
 70
     0
1001
ACDBATTR
1070
     0
1070
     1
  0
ATTDEF
  5
211C6
  8
DEFPOINTS
 10
4740.2349043363192322
 20
343.4003072503313092
 30
0.0
 40
0.001
  1
HANDSHOWER
  3

  2
PRODUCT
 70
     0
1001
ACDBATTR
1070
     0
1070
     1
  0
LINE
  5
24420
  8
0
 10
4740.7991556702136222
 20
343.4053228207267807
 30
0.0
 11
4739.6820456541754538
 21
343.4053228207267807
 31
0.0
  0
ARC
  5
24421
  8
0
 10
4739.6820456541754538
 20
343.465322820726783
 30
0.0
 40
0.06
 50
178.5851669019722863
 51
270.0
  0
LINE
  5
24422
  8
0
 10
4751.2552155821213091
 20
322.0648680878268237
 30
0.0
 11
4750.3741116134669937
 21
322.0648680878268237
 31
0.0
  0
LINE
  5
24423
  8
0
 10
4740.3001007062239296
 20
348.034314170218579
 30
0.0
 11
4740.1811006181651464
 21
348.034314170218579
 31
0.0
  0
LINE
  5
24424
  8
0
 10
4750.5645217320197844
 20
320.6478680878267937
 30
0.0
 11
4750.5645217320197844
 21
313.8895625078898206
 31
0.0
  0
LINE
  5
24425
  8
0
 10
4751.0647018906211088
 20
320.6478680878267937
 30
0.0
 11
4751.0647018906211088
 21
313.8826945716347154
 31
0.0
  0
LINE
  5
24426
  8
0
 10
4750.4507719159701082
 20
320.6478680878267937
 30
0.0
 11
4751.178555279718239
 21
320.6478680878267937
 31
0.0
  0
LINE
  5
24427
  8
0
 10
4750.3621076532936058
 20
322.0524323123045747
 30
0.0
 11
4750.4117976401212218
 21
320.6854518173797146
 31
0.0
  0
LINE
  5
24428
  8
0
 10
4751.2672195422937875
 20
322.0524322429267841
 30
0.0
 11
4751.2175295473707592
 21
320.6854515918604989
 31
0.0
  0
ARC
  5
24429
  8
0
 10
4750.4507719159701082
 20
320.686868087826781
 30
0.0
 40
0.039
 50
182.0811324403007916
 51
270.0
  0
ARC
  5
2442A
  8
0
 10
4751.178555279718239
 20
320.686868087826781
 30
0.0
 40
0.039
 50
270.0
 51
357.9185360254610941
  0
ARC
  5
2442B
  8
0
 10
4750.3756775372548873
 20
322.0513450813352279
 30
0.0
 40
0.0136133692330922
 50
96.6052618700363581
 51
175.419197251053987
  0
ARC
  5
2442C
  8
0
 10
4751.2537151377000555
 20
322.0514082927317077
 30
0.0
 40
0.0135431686641021
 50
4.3360652600739096
 51
83.6391561723779091
  0
LINE
  5
2442D
  8
0
 10
4750.4055488154099294
 20
320.8448680878267965
 30
0.0
 11
4750.4406676000908192
 21
320.8448680878267965
 31
0.0
  0
LINE
  5
2442E
  8
0
 10
4750.4406676000908192
 20
320.8448680878267965
 30
0.0
 11
4750.4406676000908192
 21
320.6491997616017215
 31
0.0
  0
LINE
  5
2442F
  8
0
 10
4751.2237714555976709
 20
320.8448680878267965
 30
0.0
 11
4751.188663803093732
 21
320.8448680878267965
 31
0.0
  0
LINE
  5
24430
  8
0
 10
4751.188667763290141
 20
320.8448680878267965
 30
0.0
 11
4751.188667763290141
 21
320.6492019534887277
 31
0.0
  0
LINE
  5
24431
  8
0
 10
4740.0006556042935699
 20
313.6751885622268219
 30
0.0
 11
4740.0006556042935699
 21
341.9565919021188733
 31
0.0
  0
LINE
  5
24432
  8
0
 10
4740.5007189025936896
 20
313.8995866456926933
 30
0.0
 11
4740.5007189025936896
 21
341.9883228207268075
 31
0.0
  0
LINE
  5
24433
  8
0
 10
4740.5950952937937473
 20
341.9883228207268075
 30
0.0
 11
4739.8859717954328516
 21
341.9883228207268075
 31
0.0
  0
ARC
  5
24434
  8
0
 10
4745.5361761575732089
 20
313.8529929916206243
 30
0.0
 40
5.0284785517674111
 50
333.3114231765819113
 51
0.4166861585378974
  0
ARC
  5
24435
  8
0
 10
4745.5314489554393731
 20
313.8553693458463272
 30
0.0
 40
5.0337694401068429
 50
298.0812740911438823
 51
333.3114231765819113
  0
ARC
  5
24436
  8
0
 10
4745.5326424482082075
 20
313.853132373207302
 30
0.0
 40
5.0312339970340343
 50
251.2965165180092981
 51
298.0812740911438823
  0
ARC
  5
24437
  8
0
 10
4745.5332665201085547
 20
313.8549757451680762
 30
0.0
 40
5.0331801434633343
 50
210.3241803836990869
 51
251.2965165180092981
  0
ARC
  5
24438
  8
0
 10
4745.5320416420972833
 20
313.8538035613598254
 30
0.0
 40
5.0315310393408952
 50
179.4786450318312916
 51
210.3197008578019052
  0
ARC
  5
24439
  8
0
 10
4745.6015038250516227
 20
313.8759635763789788
 30
0.0
 40
5.6044456816243633
 50
182.0530171197150082
 51
203.7137408708551902
  0
ARC
  5
2443A
  8
0
 10
4745.5276912662957329
 20
313.850663614894188
 30
0.0
 40
5.5266944284363211
 50
203.781346939225898
 51
240.6824396395894041
  0
ARC
  5
2443B
  8
0
 10
4745.5362668158149972
 20
313.861490233848599
 30
0.0
 40
5.5403338084272269
 50
240.6599370344117119
 51
269.8828402244863014
  0
ARC
  5
2443C
  8
0
 10
4745.5224896529789476
 20
313.9074615273423206
 30
0.0
 40
5.5862940554611829
 50
270.0251095761313991
 51
286.7792878095252149
  0
ARC
  5
2443D
  8
0
 10
4745.5379736759268781
 20
313.845974469120506
 30
0.0
 40
5.522955633951649
 50
286.809638957971913
 51
322.6978505382294884
  0
ARC
  5
2443E
  8
0
 10
4745.5230770204152577
 20
313.8573235627334839
 30
0.0
 40
5.5416829474600977
 50
322.6978505382294884
 51
0.2623132402121588
  0
ARC
  5
2443F
  8
0
 10
4740.0928120606868106
 20
341.8507311962854942
 30
0.0
 40
0.1403542001310022
 50
101.3866756077385958
 51
131.041021754577514
  0
LINE
  5
24440
  8
0
 10
4739.8078215549949164
 20
342.8371870824267944
 30
0.0
 11
4739.7875213789948248
 21
343.3928847412267942
 31
0.0
  0
ARC
  5
24441
  8
0
 10
4740.1814281141787433
 20
342.3397137461089983
 30
0.0
 40
0.6221427339553303
 50
122.2470808144258996
 51
134.651424837454897
  0
ARC
  5
24442
  8
0
 10
4740.3018464903361746
 20
342.2178211842909263
 30
0.0
 40
0.793485612250893
 50
134.651424837454897
 51
156.7726527198435917
  0
ARC
  5
24443
  8
0
 10
4740.1787075141419336
 20
342.2706682021200209
 30
0.0
 40
0.6594855572089634
 50
156.7726527198435917
 51
183.1665635207482978
  0
ARC
  5
24444
  8
0
 10
4740.3058626735419239
 20
342.2777028449028762
 30
0.0
 40
0.7868351577614331
 50
183.1665635207482978
 51
207.4396406477538903
  0
ARC
  5
24445
  8
0
 10
4740.2067700517163757
 20
342.2262510983377979
 30
0.0
 40
0.6751810941315611
 50
207.4396406477538903
 51
233.3381949029995042
  0
ARC
  5
24446
  8
0
 10
4740.2258761037737713
 20
342.2229484302192191
 30
0.0
 40
0.6841585450547152
 50
231.8893654142081004
 51
250.7801725821283014
  0
LINE
  5
24447
  8
0
 10
4739.8783127305941889
 20
342.8481799597267923
 30
0.0
 11
4739.8888542004942792
 21
341.6647250158267752
 31
0.0
  0
ARC
  5
24448
  8
0
 10
4739.8688458817496212
 20
341.6645787525636138
 30
0.0
 40
0.0200091757565157
 50
270.7161034940232867
 51
0.4167003799428909
  0
ARC
  5
24449
  8
0
 10
4739.8690007622262783
 20
341.6648649476489936
 30
0.0
 40
0.0202940313254545
 50
238.800480327774892
 51
270.2687632618569182
  0
ARC
  5
2444A
  8
0
 10
4740.3202792769243388
 20
342.3931688447889883
 30
0.0
 40
0.8770770257199521
 50
234.2465181908376906
 51
238.2299409282836962
  0
ARC
  5
2444B
  8
0
 10
4739.8219127318916435
 20
341.7141601723891995
 30
0.0
 40
0.0356809382656406
 50
246.7083314743096878
 51
268.4719489191373896
  0
ARC
  5
2444C
  8
0
 10
4739.8205952073976732
 20
341.6988926281561021
 30
0.0
 40
0.0204039891529283
 50
271.0279306002444741
 51
358.501865588752878
  0
LINE
  5
2444D
  8
0
 10
4739.8409922219952932
 20
341.6983591781267933
 30
0.0
 11
4739.8409922050950627
 21
342.8211804271267056
 31
0.0
  0
ARC
  5
2444E
  8
0
 10
4739.820609598478768
 20
342.8206534670841279
 30
0.0
 40
0.0203894173372595
 50
1.4809618211351869
 51
89.4945181010194659
  0
ARC
  5
2444F
  8
0
 10
4739.8221827821316765
 20
342.8126161304265906
 30
0.0
 40
0.0284600865580023
 50
92.8061179307902364
 51
120.3054267487186024
  0
ARC
  5
24450
  8
0
 10
4739.8584269363118437
 20
342.8480060834336882
 30
0.0
 40
0.0200049400988359
 50
91.7376039173064441
 51
116.5968419922841974
  0
ARC
  5
24451
  8
0
 10
4739.8577607080724192
 20
342.8462828495740951
 30
0.0
 40
0.02171905704386
 50
54.2973993314940202
 51
89.8426848591247307
  0
ARC
  5
24452
  8
0
 10
4739.8578195665522799
 20
342.8477650624091098
 30
0.0
 40
0.0204973635441142
 50
1.1598315451858849
 51
52.0125212305052287
  0
ARC
  5
24453
  8
0
 10
4739.7995133799267933
 20
343.3933228207267803
 30
0.0
 40
0.012
 50
90.0
 51
182.0921402258146884
  0
LINE
  5
24454
  8
0
 10
4739.7348746635943826
 20
348.034314170218579
 30
0.0
 11
4739.622063946308117
 21
343.4668042799136742
 31
0.0
  0
ARC
  5
24455
  8
0
 10
4737.4117457177617325
 20
348.0536277720203771
 30
0.0
 40
2.3231773653159511
 50
359.5236693357906006
 51
8.4998949568055231
  0
LINE
  5
24456
  8
0
 10
4740.0755484884675752
 20
342.1853228207268103
 30
0.0
 11
4740.405100113393928
 21
342.1853228207268103
 31
0.0
  0
LINE
  5
24457
  8
0
 10
4740.405100113393928
 20
342.1853228207268103
 30
0.0
 11
4740.3900737450230736
 21
342.0258998175376064
 31
0.0
  0
LINE
  5
24458
  8
0
 10
4740.0755484884675752
 20
342.1853228207268103
 30
0.0
 11
4740.0905746079943128
 21
342.0258990624267881
 31
0.0
  0
ARC
  5
24459
  8
0
 10
4740.2468374274003509
 20
342.5982446709413125
 30
0.0
 40
0.609953736450029
 50
257.7299526872753859
 51
269.4141415492650253
  0
ARC
  5
2445A
  8
0
 10
4740.1282943977475952
 20
342.0415153827048016
 30
0.0
 40
0.0408246493933634
 50
202.4899793865293987
 51
254.246174265965891
  0
ARC
  5
2445B
  8
0
 10
4740.3659158758946432
 20
342.0309828780947896
 30
0.0
 40
0.0246868415441483
 50
300.4693652241725772
 51
348.1177161488582783
  0
ARC
  5
2445C
  8
0
 10
4740.2323991823141114
 20
342.4961250229225129
 30
0.0
 40
0.5078684286574365
 50
270.9252999064465826
 51
286.7110133808844239
  0
ARC
  5
2445D
  8
0
 10
4740.2410326046556293
 20
350.9500558614258807
 30
0.0
 40
2.078782398069337
 50
90.0119052769728683
 51
92.4040719470569343
  0
ARC
  5
2445E
  8
0
 10
4740.2655786390487265
 20
350.5041639618294766
 30
0.0
 40
2.5253181790591182
 50
92.5361364727912132
 51
104.8530287522796982
  0
ARC
  5
2445F
  8
0
 10
4740.2308887269373372
 20
350.6349696933926907
 30
0.0
 40
2.3899906895676568
 50
104.8530287522796982
 51
132.4829236678415043
  0
ARC
  5
24460
  8
0
 10
4740.1462028843770895
 20
350.7274433901391717
 30
0.0
 40
2.264598997179625
 50
132.4829236678415043
 51
166.4913599311759924
  0
ARC
  5
24461
  8
0
 10
4740.2755748153686
 20
350.6963633033017231
 30
0.0
 40
2.397651875113036
 50
166.4913599311759924
 51
179.360455362838394
  0
ARC
  5
24462
  8
0
 10
4740.3581216513193795
 20
350.6954418640727908
 30
0.0
 40
2.4802038537414308
 50
179.360455362838394
 51
202.5539873888498903
  0
ARC
  5
24463
  8
0
 10
4740.0875297142647469
 20
350.5830601843434806
 30
0.0
 40
2.187202764429788
 50
202.5539873888498903
 51
235.3884994175045051
  0
ARC
  5
24464
  8
0
 10
4740.3157866131596165
 20
350.9137953470589082
 30
0.0
 40
2.5890571656122749
 50
235.3884994175045051
 51
254.1283006440887959
  0
ARC
  5
24465
  8
0
 10
4740.2403717628321829
 20
350.6485522793680047
 30
0.0
 40
2.313301323230128
 50
254.1283006440887959
 51
267.9821932823052748
  0
ARC
  5
24466
  8
0
 10
4740.322827634555324
 20
350.2991345280649966
 30
0.0
 40
2.5328396837950669
 50
91.860396637097935
 51
98.2751194748463917
  0
ARC
  5
24467
  8
0
 10
4740.7004122390999328
 20
348.9902503776003755
 30
0.0
 40
3.8868586970078272
 50
101.0072039993648048
 51
112.2988460801282997
  0
ARC
  5
24468
  8
0
 10
4740.2084673894860316
 20
350.5899933952181868
 30
0.0
 40
2.2252731943546489
 50
116.2115954638278055
 51
146.6897498313506958
  0
ARC
  5
24469
  8
0
 10
4740.152031499504119
 20
350.6296279491197083
 30
0.0
 40
2.1563440573628911
 50
146.7463437520463003
 51
170.35482658709509
  0
ARC
  5
2446A
  8
0
 10
4740.3488578713886454
 20
350.6235074176747162
 30
0.0
 40
2.3515679708077251
 50
171.0113166919419996
 51
195.5261315807877907
  0
ARC
  5
2446B
  8
0
 10
4740.4531024771486045
 20
350.8584712524661882
 30
0.0
 40
2.5227236047407802
 50
200.0387771486834083
 51
227.0943883615431105
  0
ARC
  5
2446C
  8
0
 10
4740.2306365913800619
 20
350.7117868053431948
 30
0.0
 40
2.264706531773129
 50
228.6907176706592111
 51
257.9505344359351966
  0
ARC
  5
2446D
  8
0
 10
4740.2400678301219159
 20
350.7436137428633742
 30
0.0
 40
2.2978025260803312
 50
257.8862174902790798
 51
266.347095112904924
  0
ARC
  5
2446E
  8
0
 10
4743.5651384058019175
 20
348.2798954522871213
 30
0.0
 40
3.4064785458087301
 50
179.3589774117866114
 51
183.8715042995926865
  0
ARC
  5
2446F
  8
0
 10
4739.0808593851288606
 20
348.3300674563960229
 30
0.0
 40
1.078081138847601
 50
359.3589774117864977
 51
5.4684220652069024
  0
LINE
  5
24470
  8
0
 10
4740.1605660309887753
 20
348.747171472274772
 30
0.0
 11
4740.1664335038949503
 21
348.0498931201267965
 31
0.0
  0
ARC
  5
24471
  8
0
 10
4739.9684433177344545
 20
346.5935626131956724
 30
0.0
 40
1.8611347288664879
 50
84.707670090409863
 51
86.1419267077207564
  0
ARC
  5
24472
  8
0
 10
4740.1386881272119354
 20
348.4314208595442892
 30
0.0
 40
0.0154082516154493
 50
5.1557647151664421
 51
84.707670090409863
  0
ARC
  5
24473
  8
0
 10
4740.0172417106941793
 20
348.7430772332714923
 30
0.0
 40
0.1433827869071994
 50
1.63628082848242
 51
42.6987944501354804
  0
ARC
  5
24474
  8
0
 10
4740.3256172371493449
 20
358.3386132100037003
 30
0.0
 40
9.5004707920404705
 50
268.7756509050478257
 51
269.4872721516348975
  0
ARC
  5
24475
  8
0
 10
4740.1832526459802466
 20
348.0510340390185888
 30
0.0
 40
0.0168577945297795
 50
183.8806881982694961
 51
262.6657375166839188
  0
ARC
  5
24476
  8
0
 10
4740.2403996671737332
 20
350.6431955387956805
 30
0.0
 40
2.3019065627487292
 50
89.9949971182128223
 51
91.4565012584591273
  0
ARC
  5
24477
  8
0
 10
4740.2427053488199817
 20
350.5525142784833861
 30
0.0
 40
2.392617130709032
 50
91.4565012584591273
 51
111.9466264861926987
  0
ARC
  5
24478
  8
0
 10
4740.2463374126164126
 20
350.5435004389315736
 30
0.0
 40
2.4023352164709251
 50
111.9466264861926987
 51
145.463652999922914
  0
ARC
  5
24479
  8
0
 10
4740.0928627267530828
 20
350.6491248595854131
 30
0.0
 40
2.216026340035536
 50
145.4636696062977137
 51
178.0863379908466868
  0
CIRCLE
  5
2447A
  8
0
 10
4740.2406006621949928
 20
350.5659984323268077
 30
0.0
 40
0.2713550331390523
  0
CIRCLE
  5
2447B
  8
0
 10
4740.2406006621949928
 20
350.5659984323268077
 30
0.0
 40
0.6395410330738223
  0
ARC
  5
2447C
  8
0
 10
4740.2568112795879642
 20
350.585431307164697
 30
0.0
 40
0.7292780341361221
 50
268.7263068132181729
 51
89.6962120324997443
  0
ARC
  5
2447D
  8
0
 10
4740.2238093954338183
 20
350.5854296417452929
 30
0.0
 40
0.7292895070492238
 50
90.3251986546370347
 51
271.3193028688274921
  0
CIRCLE
  5
2447E
  8
0
 10
4739.7381111572058217
 20
352.4333793834811104
 30
0.0
 40
0.0170051504506104
  0
ARC
  5
2447F
  8
0
 10
4739.7385161570928176
 20
352.4391140218845067
 30
0.0
 40
0.098504034480513
 50
178.618008722315011
 51
2.9328547809149699
  0
ARC
  5
24480
  8
0
 10
4739.7385905982582699
 20
352.4336139837894279
 30
0.0
 40
0.0988640231529602
 50
6.120029500313847
 51
175.4308340029176918
  0
CIRCLE
  5
24481
  8
0
 10
4739.8279815011937899
 20
352.0932171652268039
 30
0.0
 40
0.0170051504506104
  0
ARC
  5
24482
  8
0
 10
4739.8283865010816953
 20
352.0989518036302002
 30
0.0
 40
0.098504034480513
 50
178.618008722315011
 51
2.9328547809149699
  0
ARC
  5
24483
  8
0
 10
4739.8284609422480571
 20
352.0934517655351215
 30
0.0
 40
0.0988640231529602
 50
6.120029500313847
 51
175.4308340029176918
  0
CIRCLE
  5
24484
  8
0
 10
4739.4437391077935899
 20
351.9379989421267965
 30
0.0
 40
0.0170051504506104
  0
ARC
  5
24485
  8
0
 10
4739.4441441076805859
 20
351.9437335805301927
 30
0.0
 40
0.098504034480513
 50
178.618008722315011
 51
2.9328547809149699
  0
ARC
  5
24486
  8
0
 10
4739.4442185488469477
 20
351.938233542435114
 30
0.0
 40
0.0988640231529602
 50
6.120029500313847
 51
175.4308340029176918
  0
CIRCLE
  5
24487
  8
0
 10
4739.2705213846757033
 20
352.2426669113503976
 30
0.0
 40
0.0170051504506104
  0
ARC
  5
24488
  8
0
 10
4739.2709263845617897
 20
352.2484015497539076
 30
0.0
 40
0.098504034480513
 50
178.618008722315011
 51
2.9328547809149699
  0
ARC
  5
24489
  8
0
 10
4739.2710008257281515
 20
352.2429015116587152
 30
0.0
 40
0.0988640231529602
 50
6.120029500313847
 51
175.4308340029176918
  0
CIRCLE
  5
2448A
  8
0
 10
4738.8692462421577147
 20
351.9420668396090832
 30
0.0
 40
0.0170051504506104
  0
ARC
  5
2448B
  8
0
 10
4738.8696512420438012
 20
351.9478014780124795
 30
0.0
 40
0.098504034480513
 50
178.618008722315011
 51
2.9328547809149699
  0
ARC
  5
2448C
  8
0
 10
4738.869725683210163
 20
351.9423014399174008
 30
0.0
 40
0.0988640231529602
 50
6.120029500313847
 51
175.4308340029176918
  0
CIRCLE
  5
2448D
  8
0
 10
4739.1137826842941649
 20
351.6910824065267889
 30
0.0
 40
0.0170051504506104
  0
ARC
  5
2448E
  8
0
 10
4739.1141876841820704
 20
351.6968170449301851
 30
0.0
 40
0.098504034480513
 50
178.618008722315011
 51
2.9328547809149699
  0
ARC
  5
2448F
  8
0
 10
4739.1142621253466132
 20
351.6913170068351064
 30
0.0
 40
0.0988640231529602
 50
6.120029500313847
 51
175.4308340029176918
  0
CIRCLE
  5
24490
  8
0
 10
4739.3561131182887038
 20
351.4412003466376859
 30
0.0
 40
0.0170051504506104
  0
ARC
  5
24491
  8
0
 10
4739.3565181181756998
 20
351.4469349850410822
 30
0.0
 40
0.098504034480513
 50
178.618008722315011
 51
2.9328547809149699
  0
ARC
  5
24492
  8
0
 10
4739.3565925593411521
 20
351.4414349469458898
 30
0.0
 40
0.0988640231529602
 50
6.120029500313847
 51
175.4308340029176918
  0
CIRCLE
  5
24493
  8
0
 10
4739.1583868338320826
 20
351.1894240379633061
 30
0.0
 40
0.0170051504506104
  0
ARC
  5
24494
  8
0
 10
4739.1587918337199881
 20
351.1951586763667024
 30
0.0
 40
0.098504034480513
 50
178.618008722315011
 51
2.9328547809149699
  0
ARC
  5
24495
  8
0
 10
4739.1588662748854404
 20
351.1896586382716237
 30
0.0
 40
0.0988640231529602
 50
6.120029500313847
 51
175.4308340029176918
  0
CIRCLE
  5
24496
  8
0
 10
4738.8605982156932441
 20
351.3692945125267784
 30
0.0
 40
0.0170051504506104
  0
ARC
  5
24497
  8
0
 10
4738.8610032155820591
 20
351.3750291509301746
 30
0.0
 40
0.098504034480513
 50
178.618008722315011
 51
2.9328547809149699
  0
ARC
  5
24498
  8
0
 10
4738.8610776567466019
 20
351.3695291128349822
 30
0.0
 40
0.0988640231529602
 50
6.120029500313847
 51
175.4308340029176918
  0
CIRCLE
  5
24499
  8
0
 10
4738.5607677455518569
 20
351.5493219301172871
 30
0.0
 40
0.0170051504506104
  0
ARC
  5
2449A
  8
0
 10
4738.5611727454388529
 20
351.5550565685206266
 30
0.0
 40
0.098504034480513
 50
178.618008722315011
 51
2.9328547809149699
  0
ARC
  5
2449B
  8
0
 10
4738.5612471866052147
 20
351.549556530425491
 30
0.0
 40
0.0988640231529602
 50
6.120029500313847
 51
175.4308340029176918
  0
CIRCLE
  5
2449C
  8
0
 10
4738.3663872266133694
 20
351.0962147757333014
 30
0.0
 40
0.0170051504506104
  0
ARC
  5
2449D
  8
0
 10
4738.3667922265012749
 20
351.1019494141366977
 30
0.0
 40
0.098504034480513
 50
178.618008722315011
 51
2.9328547809149699
  0
ARC
  5
2449E
  8
0
 10
4738.3668666676667272
 20
351.096449376041619
 30
0.0
 40
0.0988640231529602
 50
6.120029500313847
 51
175.4308340029176918
  0
CIRCLE
  5
2449F
  8
0
 10
4738.7014398050941963
 20
350.9945645731268087
 30
0.0
 40
0.0170051504506104
  0
ARC
  5
244A0
  8
0
 10
4738.7018448049821018
 20
351.0002992115300913
 30
0.0
 40
0.098504034480513
 50
178.618008722315011
 51
2.9328547809149699
  0
ARC
  5
244A1
  8
0
 10
4738.7019192461466446
 20
350.9947991734351262
 30
0.0
 40
0.0988640231529602
 50
6.120029500313847
 51
175.4308340029176918
  0
CIRCLE
  5
244A2
  8
0
 10
4739.034013125097772
 20
350.8962522267453892
 30
0.0
 40
0.0170051504506104
  0
ARC
  5
244A3
  8
0
 10
4739.0344181249856774
 20
350.9019868651487855
 30
0.0
 40
0.098504034480513
 50
178.618008722315011
 51
2.9328547809149699
  0
ARC
  5
244A4
  8
0
 10
4739.0344925661502202
 20
350.8964868270535931
 30
0.0
 40
0.0988640231529602
 50
6.120029500313847
 51
175.4308340029176918
  0
CIRCLE
  5
244A5
  8
0
 10
4738.9888580553715656
 20
350.5818900916694929
 30
0.0
 40
0.0170051504506104
  0
ARC
  5
244A6
  8
0
 10
4738.9892630552585615
 20
350.5876247300728892
 30
0.0
 40
0.098504034480513
 50
178.618008722315011
 51
2.9328547809149699
  0
ARC
  5
244A7
  8
0
 10
4738.9893374964249233
 20
350.5821246919778105
 30
0.0
 40
0.0988640231529602
 50
6.120029500313847
 51
175.4308340029176918
  0
CIRCLE
  5
244A8
  8
0
 10
4738.6462538979776582
 20
350.5952809140662225
 30
0.0
 40
0.0170051504506104
  0
ARC
  5
244A9
  8
0
 10
4738.6466588978655636
 20
350.6010155524696188
 30
0.0
 40
0.098504034480513
 50
178.618008722315011
 51
2.9328547809149699
  0
ARC
  5
244AA
  8
0
 10
4738.6467333390310159
 20
350.5955155143745969
 30
0.0
 40
0.0988640231529602
 50
6.120029500313847
 51
175.4308340029176918
  0
CIRCLE
  5
244AB
  8
0
 10
4738.3006676606937617
 20
350.6056314627268193
 30
0.0
 40
0.0170051504506104
  0
ARC
  5
244AC
  8
0
 10
4738.3010726605816672
 20
350.6113661011302156
 30
0.0
 40
0.098504034480513
 50
178.618008722315011
 51
2.9328547809149699
  0
ARC
  5
244AD
  8
0
 10
4738.3011471017471195
 20
350.6058660630350801
 30
0.0
 40
0.0988640231529602
 50
6.120029500313847
 51
175.4308340029176918
  0
CIRCLE
  5
244AE
  8
0
 10
4738.3672907008485709
 20
350.1165854430212789
 30
0.0
 40
0.0170051504506104
  0
ARC
  5
244AF
  8
0
 10
4738.3676957007373858
 20
350.1223200814246752
 30
0.0
 40
0.098504034480513
 50
178.618008722315011
 51
2.9328547809149699
  0
ARC
  5
244B0
  8
0
 10
4738.3677701419028381
 20
350.1168200433295965
 30
0.0
 40
0.0988640231529602
 50
6.120029500313847
 51
175.4308340029176918
  0
CIRCLE
  5
244B1
  8
0
 10
4738.7014398050941963
 20
350.190295055826823
 30
0.0
 40
0.0170051504506104
  0
ARC
  5
244B2
  8
0
 10
4738.7018448049821018
 20
350.1960296942302193
 30
0.0
 40
0.098504034480513
 50
178.618008722315011
 51
2.9328547809149699
  0
ARC
  5
244B3
  8
0
 10
4738.7019192461466446
 20
350.1905296561350269
 30
0.0
 40
0.0988640231529602
 50
6.120029500313847
 51
175.4308340029176918
  0
CIRCLE
  5
244B4
  8
0
 10
4739.0320486834943949
 20
350.2647071934267728
 30
0.0
 40
0.0170051504506104
  0
ARC
  5
244B5
  8
0
 10
4739.0324536833823004
 20
350.270441831830226
 30
0.0
 40
0.098504034480513
 50
178.618008722315011
 51
2.9328547809149699
  0
ARC
  5
244B6
  8
0
 10
4739.0325281245477527
 20
350.2649417937349767
 30
0.0
 40
0.0988640231529602
 50
6.120029500313847
 51
175.4308340029176918
  0
CIRCLE
  5
244B7
  8
0
 10
4739.1581013774930398
 20
349.9685687704167094
 30
0.0
 40
0.0170051504506104
  0
ARC
  5
244B8
  8
0
 10
4739.1585063773809452
 20
349.9743034088201057
 30
0.0
 40
0.098504034480513
 50
178.618008722315011
 51
2.9328547809149699
  0
ARC
  5
244B9
  8
0
 10
4739.1585808185463975
 20
349.968803370725027
 30
0.0
 40
0.0988640231529602
 50
6.120029500313847
 51
175.4308340029176918
  0
CIRCLE
  5
244BA
  8
0
 10
4738.8605982156932441
 20
349.8155651164267965
 30
0.0
 40
0.0170051504506104
  0
ARC
  5
244BB
  8
0
 10
4738.8610032155820591
 20
349.8212997548301928
 30
0.0
 40
0.098504034480513
 50
178.618008722315011
 51
2.9328547809149699
  0
ARC
  5
244BC
  8
0
 10
4738.8610776567466019
 20
349.8157997167350004
 30
0.0
 40
0.0988640231529602
 50
6.120029500313847
 51
175.4308340029176918
  0
CIRCLE
  5
244BD
  8
0
 10
4738.5639497780666716
 20
349.6615675486510781
 30
0.0
 40
0.0170051504506104
  0
ARC
  5
244BE
  8
0
 10
4738.564354777954577
 20
349.6673021870544744
 30
0.0
 40
0.098504034480513
 50
178.618008722315011
 51
2.9328547809149699
  0
ARC
  5
244BF
  8
0
 10
4738.5644292191200293
 20
349.6618021489593957
 30
0.0
 40
0.0988640231529602
 50
6.120029500313847
 51
175.4308340029176918
  0
CIRCLE
  5
244C0
  8
0
 10
4738.8577365896899209
 20
349.2791672817725157
 30
0.0
 40
0.0170051504506104
  0
ARC
  5
244C1
  8
0
 10
4738.8581415895769169
 20
349.284901920175912
 30
0.0
 40
0.098504034480513
 50
178.618008722315011
 51
2.9328547809149699
  0
ARC
  5
244C2
  8
0
 10
4738.8582160307432787
 20
349.2794018820807764
 30
0.0
 40
0.0988640231529602
 50
6.120029500313847
 51
175.4308340029176918
  0
CIRCLE
  5
244C3
  8
0
 10
4739.2702697771892417
 20
348.9679716288359259
 30
0.0
 40
0.0170051504506104
  0
ARC
  5
244C4
  8
0
 10
4739.2706747770771472
 20
348.9737062672393222
 30
0.0
 40
0.098504034480513
 50
178.618008722315011
 51
2.9328547809149699
  0
ARC
  5
244C5
  8
0
 10
4739.2707492182407805
 20
348.9682062291441866
 30
0.0
 40
0.0988640231529602
 50
6.120029500313847
 51
175.4308340029176918
  0
CIRCLE
  5
244C6
  8
0
 10
4739.4430105136016209
 20
349.2465995086994894
 30
0.0
 40
0.0170051504506104
  0
ARC
  5
244C7
  8
0
 10
4739.4434155134904358
 20
349.2523341471028857
 30
0.0
 40
0.098504034480513
 50
178.618008722315011
 51
2.9328547809149699
  0
ARC
  5
244C8
  8
0
 10
4739.4434899546549786
 20
349.246834109007807
 30
0.0
 40
0.0988640231529602
 50
6.120029500313847
 51
175.4308340029176918
  0
CIRCLE
  5
244C9
  8
0
 10
4739.614204897819036
 20
349.5242494931492274
 30
0.0
 40
0.0170051504506104
  0
ARC
  5
244CA
  8
0
 10
4739.6146098977060319
 20
349.5299841315526237
 30
0.0
 40
0.098504034480513
 50
178.618008722315011
 51
2.9328547809149699
  0
ARC
  5
244CB
  8
0
 10
4739.6146843388733032
 20
349.5244840934574881
 30
0.0
 40
0.0988640231529602
 50
6.120029500313847
 51
175.4308340029176918
  0
CIRCLE
  5
244CC
  8
0
 10
4739.3566034381174177
 20
349.7177319136400229
 30
0.0
 40
0.0170051504506104
  0
ARC
  5
244CD
  8
0
 10
4739.3570084380053231
 20
349.7234665520434191
 30
0.0
 40
0.098504034480513
 50
178.618008722315011
 51
2.9328547809149699
  0
ARC
  5
244CE
  8
0
 10
4739.3570828791698659
 20
349.7179665139482836
 30
0.0
 40
0.0988640231529602
 50
6.120029500313847
 51
175.4308340029176918
  0
CIRCLE
  5
244CF
  8
0
 10
4739.1136930212578591
 20
349.4936872020664964
 30
0.0
 40
0.0170051504506104
  0
ARC
  5
244D0
  8
0
 10
4739.1140980211457645
 20
349.499421840469779
 30
0.0
 40
0.098504034480513
 50
178.618008722315011
 51
2.9328547809149699
  0
ARC
  5
244D1
  8
0
 10
4739.1141724623103073
 20
349.4939218023747003
 30
0.0
 40
0.0988640231529602
 50
6.120029500313847
 51
175.4308340029176918
  0
CIRCLE
  5
244D2
  8
0
 10
4739.8279360483238634
 20
349.0906392356156971
 30
0.0
 40
0.0170051504506104
  0
ARC
  5
244D3
  8
0
 10
4739.8283410482108593
 20
349.0963738740190934
 30
0.0
 40
0.098504034480513
 50
178.618008722315011
 51
2.9328547809149699
  0
ARC
  5
244D4
  8
0
 10
4739.8284154893763116
 20
349.0908738359240147
 30
0.0
 40
0.0988640231529602
 50
6.120029500313847
 51
175.4308340029176918
  0
CIRCLE
  5
244D5
  8
0
 10
4739.9162505083550059
 20
349.4015823035603034
 30
0.0
 40
0.0170051504506104
  0
ARC
  5
244D6
  8
0
 10
4739.9166555082420018
 20
349.407316941963586
 30
0.0
 40
0.098504034480513
 50
178.618008722315011
 51
2.9328547809149699
  0
ARC
  5
244D7
  8
0
 10
4739.9167299494074541
 20
349.401816903868621
 30
0.0
 40
0.0988640231529602
 50
6.120029500313847
 51
175.4308340029176918
  0
CIRCLE
  5
244D8
  8
0
 10
4739.737942811101675
 20
348.7800347875989928
 30
0.0
 40
0.0170051504506104
  0
ARC
  5
244D9
  8
0
 10
4739.7383478109895805
 20
348.7857694260023891
 30
0.0
 40
0.098504034480513
 50
178.618008722315011
 51
2.9328547809149699
  0
ARC
  5
244DA
  8
0
 10
4739.7384222521550328
 20
348.7802693879073104
 30
0.0
 40
0.0988640231529602
 50
6.120029500313847
 51
175.4308340029176918
  0
CIRCLE
  5
244DB
  8
0
 10
4739.6163087139038907
 20
351.6372344455911048
 30
0.0
 40
0.0170051504506104
  0
ARC
  5
244DC
  8
0
 10
4739.6167137137908867
 20
351.6429690839943873
 30
0.0
 40
0.098504034480513
 50
178.618008722315011
 51
2.9328547809149699
  0
ARC
  5
244DD
  8
0
 10
4739.6167881549572485
 20
351.6374690458994223
 30
0.0
 40
0.0988640231529602
 50
6.120029500313847
 51
175.4308340029176918
  0
CIRCLE
  5
244DE
  8
0
 10
4739.9161844131531325
 20
351.7576611811111889
 30
0.0
 40
0.0170051504506104
  0
ARC
  5
244DF
  8
0
 10
4739.9165894130410379
 20
351.7633958195145283
 30
0.0
 40
0.098504034480513
 50
178.618008722315011
 51
2.9328547809149699
  0
ARC
  5
244E0
  8
0
 10
4739.9166638542046712
 20
351.7578957814193927
 30
0.0
 40
0.0988640231529602
 50
6.120029500313847
 51
175.4308340029176918
  0
ARC
  5
244E1
  8
0
 10
4740.2400277052138335
 20
352.49638391489691
 30
0.0
 40
0.0155965653985981
 50
87.8947028219809141
 51
272.1052971780191001
  0
ARC
  5
244E2
  8
0
 10
4740.2391905644371946
 20
352.4996034860113241
 30
0.0
 40
0.0973216856327732
 50
89.1698101328511257
 51
179.2211359705138136
  0
ARC
  5
244E3
  8
0
 10
4740.2380229606324065
 20
352.5005621986853726
 30
0.0
 40
0.0961457797818012
 50
179.7829557813564065
 51
271.5363037225022254
  0
ARC
  5
244E4
  8
0
 10
4740.2420107599518815
 20
352.4996034860113241
 30
0.0
 40
0.0973216856327732
 50
0.7788640294862224
 51
90.8301898671488743
  0
ARC
  5
244E5
  8
0
 10
4740.2431783637566696
 20
352.5005621986853726
 30
0.0
 40
0.0961457797818012
 50
268.4636962774977746
 51
0.2170442186436168
  0
ARC
  5
244E6
  8
0
 10
4740.2411736191752425
 20
352.49638391489691
 30
0.0
 40
0.0155965653985981
 50
267.8947028219808999
 51
92.1052971780190717
  0
ARC
  5
244E7
  8
0
 10
4740.2400277052138335
 20
352.1455325668056275
 30
0.0
 40
0.0155965653985981
 50
87.8947028219809141
 51
272.1052971780191001
  0
ARC
  5
244E8
  8
0
 10
4740.2391905644371946
 20
352.1487521379199848
 30
0.0
 40
0.0973216856327732
 50
89.1698101328511257
 51
179.2211359705138136
  0
ARC
  5
244E9
  8
0
 10
4740.2380229606324065
 20
352.1497108505940901
 30
0.0
 40
0.0961457797818012
 50
179.7829557813564065
 51
271.5363037225022254
  0
ARC
  5
244EA
  8
0
 10
4740.2420107599518815
 20
352.1487521379199848
 30
0.0
 40
0.0973216856327732
 50
0.7788640294862224
 51
90.8301898671488743
  0
ARC
  5
244EB
  8
0
 10
4740.2431783637566696
 20
352.1497108505940901
 30
0.0
 40
0.0961457797818012
 50
268.4636962774977746
 51
0.2170442186436168
  0
ARC
  5
244EC
  8
0
 10
4740.2411736191752425
 20
352.1455325668056275
 30
0.0
 40
0.0155965653985981
 50
267.8947028219808999
 51
92.1052971780190717
  0
ARC
  5
244ED
  8
0
 10
4740.2400277052138335
 20
351.8013283493773997
 30
0.0
 40
0.0155965653985981
 50
87.8947028219809141
 51
272.1052971780191001
  0
ARC
  5
244EE
  8
0
 10
4740.2391905644371946
 20
351.8045479204919275
 30
0.0
 40
0.0973216856327732
 50
89.1698101328511257
 51
179.2211359705138136
  0
ARC
  5
244EF
  8
0
 10
4740.2380229606324065
 20
351.8055066331659191
 30
0.0
 40
0.0961457797818012
 50
179.7829557813564065
 51
271.5363037225022254
  0
ARC
  5
244F0
  8
0
 10
4740.2420107599518815
 20
351.8045479204919275
 30
0.0
 40
0.0973216856327732
 50
0.7788640294862224
 51
90.8301898671488743
  0
ARC
  5
244F1
  8
0
 10
4740.2431783637566696
 20
351.8055066331659191
 30
0.0
 40
0.0961457797818012
 50
268.4636962774977746
 51
0.2170442186436168
  0
ARC
  5
244F2
  8
0
 10
4740.2411736191752425
 20
351.8013283493773997
 30
0.0
 40
0.0155965653985981
 50
267.8947028219808999
 51
92.1052971780190717
  0
ARC
  5
244F3
  8
0
 10
4740.2400277052138335
 20
349.365672396713876
 30
0.0
 40
0.0155965653985981
 50
87.8947028219809141
 51
272.1052971780191001
  0
ARC
  5
244F4
  8
0
 10
4740.2391905644371946
 20
349.36889196782829
 30
0.0
 40
0.0973216856327732
 50
89.1698101328511257
 51
179.2211359705138136
  0
ARC
  5
244F5
  8
0
 10
4740.2380229606324065
 20
349.3698506805023953
 30
0.0
 40
0.0961457797818012
 50
179.7829557813564065
 51
271.5363037225022254
  0
ARC
  5
244F6
  8
0
 10
4740.2420107599518815
 20
349.36889196782829
 30
0.0
 40
0.0973216856327732
 50
0.7788640294862224
 51
90.8301898671488743
  0
ARC
  5
244F7
  8
0
 10
4740.2431783637566696
 20
349.3698506805023953
 30
0.0
 40
0.0961457797818012
 50
268.4636962774977746
 51
0.2170442186436168
  0
ARC
  5
244F8
  8
0
 10
4740.2411736191752425
 20
349.365672396713876
 30
0.0
 40
0.0155965653985981
 50
267.8947028219808999
 51
92.1052971780190717
  0
ARC
  5
244F9
  8
0
 10
4740.2400277052138335
 20
349.0412062717809931
 30
0.0
 40
0.0155965653985981
 50
87.8947028219809141
 51
272.1052971780191001
  0
ARC
  5
244FA
  8
0
 10
4740.2391905644371946
 20
349.0444258428955209
 30
0.0
 40
0.0973216856327732
 50
89.1698101328511257
 51
179.2211359705138136
  0
ARC
  5
244FB
  8
0
 10
4740.2380229606324065
 20
349.0453845555695125
 30
0.0
 40
0.0961457797818012
 50
179.7829557813564065
 51
271.5363037225022254
  0
ARC
  5
244FC
  8
0
 10
4740.2420107599518815
 20
349.0444258428955209
 30
0.0
 40
0.0973216856327732
 50
0.7788640294862224
 51
90.8301898671488743
  0
ARC
  5
244FD
  8
0
 10
4740.2431783637566696
 20
349.0453845555695125
 30
0.0
 40
0.0961457797818012
 50
268.4636962774977746
 51
0.2170442186436168
  0
ARC
  5
244FE
  8
0
 10
4740.2411736191752425
 20
349.0412062717809931
 30
0.0
 40
0.0155965653985981
 50
267.8947028219808999
 51
92.1052971780190717
  0
LINE
  5
244FF
  8
0
 10
4739.9271445071753988
 20
351.0500638993826215
 30
0.0
 11
4739.9880280624938678
 21
350.9456862435267794
 31
0.0
  0
LINE
  5
24500
  8
0
 10
4739.9812309290282428
 20
351.0799725565607901
 30
0.0
 11
4740.0423920345938313
 21
350.9749976276268058
 31
0.0
  0
ARC
  5
24501
  8
0
 10
4740.0151607455818521
 20
350.9614737575292907
 30
0.0
 40
0.0313915297367547
 50
210.1946094463108068
 51
253.1509871078926892
  0
ARC
  5
24502
  8
0
 10
4740.0151522428259341
 20
350.9614456818655981
 30
0.0
 40
0.0313621947789864
 50
253.1509871078926892
 51
314.4210091346678837
  0
ARC
  5
24503
  8
0
 10
4740.0161428570927455
 20
350.9604348416194739
 30
0.0
 40
0.0299468804585016
 50
314.4210091346701006
 51
9.2321147477291259
  0
ARC
  5
24504
  8
0
 10
4740.0149017871917749
 20
350.9602331182147736
 30
0.0
 40
0.031204237539313
 50
9.2321147477291259
 51
28.2394326483092506
  0
ARC
  5
24505
  8
0
 10
4739.953487572506674
 20
351.0654172135618865
 30
0.0
 40
0.0304906764004633
 50
148.087138724550897
 51
210.234566978662798
  0
ARC
  5
24506
  8
0
 10
4739.9529333743212192
 20
351.0657623441754822
 30
0.0
 40
0.0298377975675601
 50
119.8297444152292996
 51
148.087138724550897
  0
ARC
  5
24507
  8
0
 10
4739.9541011271294337
 20
351.0637257851258255
 30
0.0
 40
0.0321853962097832
 50
60.1702555847690235
 51
119.8297444152292996
  0
ARC
  5
24508
  8
0
 10
4739.9499725455871157
 20
351.0613314794686062
 30
0.0
 40
0.0363947288828287
 50
30.8099265931203909
 51
56.4040691957142926
  0
ARC
  5
24509
  8
0
 10
4739.9647531476875884
 20
351.0586797638648022
 30
0.0
 40
0.0315179375745036
 50
211.2160099769018871
 51
292.2361456948920022
  0
ARC
  5
2450A
  8
0
 10
4739.9649888435787943
 20
351.0581032486280719
 30
0.0
 40
0.0308951034302851
 50
292.2361456948908085
 51
354.3728312311515083
  0
LINE
  5
2450B
  8
0
 10
4739.9377983936274177
 20
351.0423450884028966
 30
0.0
 11
4739.937798393484627
 21
351.0914766693423985
 31
0.0
  0
ARC
  5
2450C
  8
0
 10
4740.2402158618770045
 20
351.0571942619837955
 30
0.0
 40
0.0895573701409387
 50
89.7538170010169836
 51
121.0403871448769024
  0
ARC
  5
2450D
  8
0
 10
4740.2401428073635543
 20
351.0573156512119795
 30
0.0
 40
0.0894156933723149
 50
121.0403871448769024
 51
161.0182349177408128
  0
ARC
  5
2450E
  8
0
 10
4740.2368225794971295
 20
351.058457715501504
 30
0.0
 40
0.0859045363089292
 50
161.0182349177376864
 51
192.4834493285648023
  0
ARC
  5
2450F
  8
0
 10
4740.2397956409404287
 20
351.0591159263939858
 30
0.0
 40
0.0889495873632349
 50
192.4834493285648023
 51
218.9306936073299994
  0
ARC
  5
24510
  8
0
 10
4740.2394684266728291
 20
351.0588516082207207
 30
0.0
 40
0.0885289529931866
 50
218.9306936073299994
 51
252.7315468195646133
  0
ARC
  5
24511
  8
0
 10
4740.2406600043022991
 20
351.0626847556961252
 30
0.0
 40
0.0925430377971008
 50
252.7315468195646133
 51
269.9632597696063954
  0
ARC
  5
24512
  8
0
 10
4740.2402654568941216
 20
351.0798778281272803
 30
0.0
 40
0.0199518047993862
 50
107.0397782490585996
 51
116.953611875437602
  0
ARC
  5
24513
  8
0
 10
4740.2395538748942272
 20
351.0805913290267881
 30
0.0
 40
0.0189213715999805
 50
151.8521847738975907
 51
162.1232048894200091
  0
ARC
  5
24514
  8
0
 10
4740.2395814976098336
 20
351.0807010679523046
 30
0.0
 40
0.0189512622872021
 50
197.8849168093584012
 51
208.1396936258537096
  0
ARC
  5
24515
  8
0
 10
4740.2402769151931352
 20
351.0814312016265148
 30
0.0
 40
0.0199822823997143
 50
243.0539673576701887
 51
252.9526424249744139
  0
ARC
  5
24516
  8
0
 10
4740.237759108094906
 20
351.0782484432789943
 30
0.0
 40
0.0930818146711672
 50
204.337247133234996
 51
227.7527741101310141
  0
ARC
  5
24517
  8
0
 10
4740.2400129621619271
 20
351.0807299844976797
 30
0.0
 40
0.096434113132848
 50
227.7527741101310141
 51
270.3491807913788989
  0
LINE
  5
24518
  8
0
 10
4740.2344188685938207
 20
351.098953779426779
 30
0.0
 11
4740.2344188685938207
 21
351.146563817288893
 31
0.0
  0
LINE
  5
24519
  8
0
 10
4740.2312219228606409
 20
351.0976623440594722
 30
0.0
 11
4740.1940363065932615
 21
351.1339273788267974
 31
0.0
  0
LINE
  5
2451A
  8
0
 10
4740.2133535167013179
 20
351.1426280782288813
 30
0.0
 11
4740.2314262975478414
 21
351.1250027140765155
 31
0.0
  0
LINE
  5
2451B
  8
0
 10
4740.2314262975478414
 20
351.1250027140765155
 30
0.0
 11
4740.2312219228952017
 21
351.0976623440768094
 31
0.0
  0
LINE
  5
2451C
  8
0
 10
4740.231426297615144
 20
351.1250027141069836
 30
0.0
 11
4740.2344188685938207
 21
351.1262115904976895
 31
0.0
  0
LINE
  5
2451D
  8
0
 10
4740.2215460496945525
 20
351.0863996450268019
 30
0.0
 11
4740.155589347795285
 21
351.0863996450268019
 31
0.0
  0
LINE
  5
2451E
  8
0
 10
4740.2228702679940398
 20
351.0895174459886903
 30
0.0
 11
4740.1842906997426326
 21
351.127141923456918
 31
0.0
  0
LINE
  5
2451F
  8
0
 10
4740.1982553818688757
 20
351.1135229564267775
 30
0.0
 11
4740.1706021353666074
 21
351.1135229564267775
 31
0.0
  0
LINE
  5
24520
  8
0
 10
4740.2228702679840353
 20
351.0717632187760842
 30
0.0
 11
4740.16723175415882
 21
351.0175021136003011
 31
0.0
  0
LINE
  5
24521
  8
0
 10
4740.1632050715952573
 20
351.0411148024268186
 30
0.0
 11
4740.1978284384949802
 21
351.0748810197267744
 31
0.0
  0
LINE
  5
24522
  8
0
 10
4740.2215460497118329
 20
351.0748810197267744
 30
0.0
 11
4740.1524946461940999
 21
351.0748402984252721
 31
0.0
  0
ARC
  5
24523
  8
0
 10
4740.2378237887633077
 20
351.1407775438638055
 30
0.0
 40
0.1025692530552762
 50
220.0021981991216933
 51
235.1002873248280025
  0
ARC
  5
24524
  8
0
 10
4740.2378807808217971
 20
351.1079359662261936
 30
0.0
 40
0.1002074322604594
 50
209.7935316180600864
 51
221.822750194894212
  0
LINE
  5
24525
  8
0
 10
4740.1632050715952573
 20
351.0411148024268186
 30
0.0
 11
4740.1632050715952573
 21
351.0225176630580108
 31
0.0
  0
LINE
  5
24526
  8
0
 10
4740.231221922925215
 20
351.0636183207561771
 30
0.0
 11
4740.1753811531780229
 21
351.0091599667302944
 31
0.0
  0
LINE
  5
24527
  8
0
 10
4740.2344188686365669
 20
351.0623268853489094
 30
0.0
 11
4740.2344188686365669
 21
350.9844582633468235
 31
0.0
  0
ARC
  5
24528
  8
0
 10
4740.2402999201949569
 20
351.1483514236264227
 30
0.0
 40
0.1076694445995616
 50
254.5826421249354894
 51
266.8688682974209883
  0
ARC
  5
24529
  8
0
 10
4740.2409854625120715
 20
351.0571942619837955
 30
0.0
 40
0.0895573701409387
 50
58.9596128551230976
 51
90.2461829989830164
  0
ARC
  5
2452A
  8
0
 10
4740.2410585170264312
 20
351.0573156512119795
 30
0.0
 40
0.0894156933723149
 50
18.9817650822592014
 51
58.9596128551230976
  0
ARC
  5
2452B
  8
0
 10
4740.2443787448919466
 20
351.058457715501504
 30
0.0
 40
0.0859045363089292
 50
347.516550671435084
 51
18.9817650822622817
  0
ARC
  5
2452C
  8
0
 10
4740.2414056834477378
 20
351.0591159263939858
 30
0.0
 40
0.0889495873632349
 50
321.0693063926698869
 51
347.516550671435084
  0
ARC
  5
2452D
  8
0
 10
4740.241732897716247
 20
351.0588516082207207
 30
0.0
 40
0.0885289529931866
 50
287.2684531804353014
 51
321.0693063926698869
  0
ARC
  5
2452E
  8
0
 10
4740.240541320086777
 20
351.0626847556961252
 30
0.0
 40
0.0925430377971008
 50
270.0367402303934909
 51
287.2684531804353014
  0
ARC
  5
2452F
  8
0
 10
4740.2409358674949544
 20
351.0798778281272803
 30
0.0
 40
0.0199518047993862
 50
63.0463881245623412
 51
72.9602217509414004
  0
ARC
  5
24530
  8
0
 10
4740.2416474494948488
 20
351.0805913290267881
 30
0.0
 40
0.0189213715999805
 50
17.8767951105799803
 51
28.1478152261023489
  0
ARC
  5
24531
  8
0
 10
4740.2416198267783329
 20
351.0807010679523046
 30
0.0
 40
0.0189512622872021
 50
331.8603063741463188
 51
342.1150831906415988
  0
ARC
  5
24532
  8
0
 10
4740.2409244091950313
 20
351.0814312016265148
 30
0.0
 40
0.0199822823997143
 50
287.0473575750256146
 51
296.9460326423297261
  0
ARC
  5
24533
  8
0
 10
4740.2434422162941701
 20
351.0782484432789943
 30
0.0
 40
0.0930818146711672
 50
312.2472258898690143
 51
335.6627528667651177
  0
ARC
  5
24534
  8
0
 10
4740.2411883622271489
 20
351.0807299844976797
 30
0.0
 40
0.096434113132848
 50
269.6508192086211011
 51
312.2472258898690143
  0
LINE
  5
24535
  8
0
 10
4740.2467824557943459
 20
351.098953779426779
 30
0.0
 11
4740.2467824557943459
 21
351.146563817288893
 31
0.0
  0
LINE
  5
24536
  8
0
 10
4740.2499794015284351
 20
351.0976623440594722
 30
0.0
 11
4740.287165017794905
 21
351.1339273788267974
 31
0.0
  0
LINE
  5
24537
  8
0
 10
4740.2678478076877582
 20
351.1426280782288813
 30
0.0
 11
4740.2497750268403252
 21
351.1250027140765155
 31
0.0
  0
LINE
  5
24538
  8
0
 10
4740.2497750268403252
 20
351.1250027140765155
 30
0.0
 11
4740.2499794014929648
 21
351.0976623440768094
 31
0.0
  0
LINE
  5
24539
  8
0
 10
4740.249775026773932
 20
351.1250027141069836
 30
0.0
 11
4740.2467824557943459
 21
351.1262115904976895
 31
0.0
  0
LINE
  5
2453A
  8
0
 10
4740.259655274693614
 20
351.0863996450268019
 30
0.0
 11
4740.3256119765947005
 21
351.0863996450268019
 31
0.0
  0
LINE
  5
2453B
  8
0
 10
4740.2583310563941268
 20
351.0895174459886903
 30
0.0
 11
4740.2969106246464435
 21
351.127141923456918
 31
0.0
  0
LINE
  5
2453C
  8
0
 10
4740.2829459425192908
 20
351.1135229564267775
 30
0.0
 11
4740.3105991890215591
 21
351.1135229564267775
 31
0.0
  0
LINE
  5
2453D
  8
0
 10
4740.2583310564068597
 20
351.0717632187760842
 30
0.0
 11
4740.3139695702293466
 21
351.0175021136003011
 31
0.0
  0
LINE
  5
2453E
  8
0
 10
4740.3179962527947282
 20
351.0411148024268186
 30
0.0
 11
4740.2833728858950053
 21
351.0748810197267744
 31
0.0
  0
LINE
  5
2453F
  8
0
 10
4740.2596552746781526
 20
351.0748810197267744
 30
0.0
 11
4740.3287066781940666
 21
351.0748402984252721
 31
0.0
  0
ARC
  5
24540
  8
0
 10
4740.2433775356257684
 20
351.1407775438638055
 30
0.0
 40
0.1025692530552762
 50
304.8997126751721112
 51
319.9978018008782215
  0
ARC
  5
24541
  8
0
 10
4740.2433205435663695
 20
351.1079359662261936
 30
0.0
 40
0.1002074322604594
 50
318.1772498051058733
 51
330.2064683819370998
  0
LINE
  5
24542
  8
0
 10
4740.3179962527947282
 20
351.0411148024268186
 30
0.0
 11
4740.3179962527947282
 21
351.0225176630580108
 31
0.0
  0
LINE
  5
24543
  8
0
 10
4740.2499794014647705
 20
351.0636183207561771
 30
0.0
 11
4740.3058201712110531
 21
351.0091599667302944
 31
0.0
  0
LINE
  5
24544
  8
0
 10
4740.2467824557515996
 20
351.0623268853489094
 30
0.0
 11
4740.2467824557515996
 21
350.9844582633468235
 31
0.0
  0
ARC
  5
24545
  8
0
 10
4740.2409014041941191
 20
351.1483514236264227
 30
0.0
 40
0.1076694445995616
 50
273.1311317025268863
 51
285.4173578750645106
  0
ARC
  5
24546
  8
0
 10
4739.8150201953212672
 20
350.8112631003053252
 30
0.0
 40
0.0895573701409387
 50
149.753817001006496
 51
181.0403871448698965
  0
ARC
  5
24547
  8
0
 10
4739.8148785419080014
 20
350.8112605278541878
 30
0.0
 40
0.0894156933723149
 50
181.0403871448698965
 51
221.0182349177507035
  0
ARC
  5
24548
  8
0
 10
4739.8122293712858664
 20
350.8089561583205978
 30
0.0
 40
0.0859045363089292
 50
221.0182349177507035
 51
252.4834493285530925
  0
ARC
  5
24549
  8
0
 10
4739.8131458746547651
 20
350.8118600105034943
 30
0.0
 40
0.0889495873632349
 50
252.4834493285530925
 51
278.9306936073376164
  0
ARC
  5
2454A
  8
0
 10
4739.813211173774107
 20
350.8114444755491945
 30
0.0
 40
0.0885289529931866
 50
278.9306936073376164
 51
312.7315468195888002
  0
ARC
  5
2454B
  8
0
 10
4739.8104873594984383
 20
350.8143929857839112
 30
0.0
 40
0.0925430377971008
 50
312.7315468195888002
 51
329.9632597696232779
  0
ARC
  5
2454C
  8
0
 10
4739.7954004482999153
 20
350.8226478339216214
 30
0.0
 40
0.0199518047993862
 50
167.0397782490375107
 51
176.9536118754456027
  0
ARC
  5
2454D
  8
0
 10
4739.7944267473949367
 20
350.8223883362825859
 30
0.0
 40
0.0189213715999805
 50
211.8521847739019108
 51
222.1232048894136142
  0
ARC
  5
2454E
  8
0
 10
4739.7943455220556643
 20
350.822467127719392
 30
0.0
 40
0.0189512622872021
 50
257.8849168093547064
 51
268.1396936258582855
  0
ARC
  5
2454F
  8
0
 10
4739.794060916538001
 20
350.8234344438502035
 30
0.0
 40
0.0199822823997143
 50
303.0539673576726045
 51
312.9526424249784782
  0
ARC
  5
24550
  8
0
 10
4739.7955583625707732
 20
350.8196625797659749
 30
0.0
 40
0.0930818146711672
 50
264.3372471332282885
 51
287.7527741101412744
  0
ARC
  5
24551
  8
0
 10
4739.7945362118689445
 20
350.8228552452540043
 30
0.0
 40
0.096434113132848
 50
287.7527741101412744
 51
330.3491807913866865
  0
LINE
  5
24552
  8
0
 10
4739.7759568957226293
 20
350.82712251557831
 30
0.0
 11
4739.7347253934603941
 21
350.8509275345093101
 31
0.0
  0
LINE
  5
24553
  8
0
 10
4739.7754768386921569
 20
350.8237081616748014
 30
0.0
 11
4739.7254775891806275
 21
350.8096369907163989
 31
0.0
  0
LINE
  5
24554
  8
0
 10
4739.727601167521243
 20
350.8307165351001231
 30
0.0
 11
4739.7519015710522581
 21
350.8375553403549816
 31
0.0
  0
LINE
  5
24555
  8
0
 10
4739.7519015710522581
 20
350.8375553403549816
 30
0.0
 11
4739.7754768386930664
 21
350.8237081617127728
 31
0.0
  0
LINE
  5
24556
  8
0
 10
4739.751901571057715
 20
350.8375553404272864
 30
0.0
 11
4739.7523509388838647
 21
350.84075142111368
 31
0.0
  0
LINE
  5
24557
  8
0
 10
4739.7803926855849568
 20
350.809697260192479
 30
0.0
 11
4739.7474143346362325
 21
350.7525770807973231
 31
0.0
  0
LINE
  5
24558
  8
0
 10
4739.778354699898955
 20
350.8124029673609812
 30
0.0
 11
4739.7264811624818321
 21
350.7978043199225908
 31
0.0
  0
LINE
  5
24559
  8
0
 10
4739.7452578749671375
 20
350.8030886058854776
 30
0.0
 11
4739.7314312517146391
 21
350.7791401919163263
 31
0.0
  0
LINE
  5
2455A
  8
0
 10
4739.7937303116841576
 20
350.8035258537448726
 30
0.0
 11
4739.812902550292165
 21
350.7282109347574988
 31
0.0
  0
LINE
  5
2455B
  8
0
 10
4739.790440020634378
 20
350.7365300697762791
 30
0.0
 11
4739.7785093021120701
 21
350.7833978937263169
 31
0.0
  0
LINE
  5
2455C
  8
0
 10
4739.7903681077223155
 20
350.803937947557074
 30
0.0
 11
4739.7558776716441571
 21
350.7441173172932736
 31
0.0
  0
ARC
  5
2455D
  8
0
 10
4739.7414389133227814
 20
350.8509831451603986
 30
0.0
 40
0.1025692530552762
 50
280.0021981991444022
 51
295.100287324819476
  0
ARC
  5
2455E
  8
0
 10
4739.7699090498872465
 20
350.8346117129132153
 30
0.0
 40
0.1002074322604594
 50
269.7935316180791006
 51
281.8227501949273233
  0
LINE
  5
2455F
  8
0
 10
4739.790440020634378
 20
350.7365300697762791
 30
0.0
 11
4739.8065456157655717
 21
350.7272315000918752
 31
0.0
  0
LINE
  5
24560
  8
0
 10
4739.804959827750281
 20
350.8066861500784057
 30
0.0
 11
4739.8242017609127288
 21
350.7310974478979801
 31
0.0
  0
LINE
  5
24561
  8
0
 10
4739.8076767164766352
 20
350.8088090685760108
 30
0.0
 11
4739.8751129212878368
 21
350.7698747575749962
 31
0.0
  0
ARC
  5
24562
  8
0
 10
4739.736117806758557
 20
350.8569144777645192
 30
0.0
 40
0.1076694445995616
 50
314.5826421249453801
 51
326.8688682974553785
  0
ARC
  5
24563
  8
0
 10
4739.815404995638346
 20
350.811929594005278
 30
0.0
 40
0.0895573701409387
 50
118.959612855145707
 51
150.2461829990035937
  0
ARC
  5
24564
  8
0
 10
4739.8153363967394398
 20
350.8120535556844857
 30
0.0
 40
0.0894156933723149
 50
78.9817650822856052
 51
118.959612855145707
  0
ARC
  5
24565
  8
0
 10
4739.8160074539837296
 20
350.815499989507714
 30
0.0
 40
0.0859045363089292
 50
47.5165506714564003
 51
78.9817650822862163
  0
ARC
  5
24566
  8
0
 10
4739.8139508959102386
 20
350.8132543482171855
 30
0.0
 40
0.0889495873632349
 50
21.0693063926738304
 51
47.5165506714564003
  0
ARC
  5
24567
  8
0
 10
4739.8143434092953612
 20
350.813405564998277
 30
0.0
 40
0.0885289529931866
 50
347.2684531804159747
 51
21.0693063926738304
  0
ARC
  5
24568
  8
0
 10
4739.810428017391132
 20
350.8142902022390217
 30
0.0
 40
0.0925430377971008
 50
330.03674023039639
 51
347.2684531804159747
  0
ARC
  5
24569
  8
0
 10
4739.795735653599877
 20
350.8232284265325234
 30
0.0
 40
0.0199518047993862
 50
123.0463881245736957
 51
132.960221750980395
  0
ARC
  5
2456A
  8
0
 10
4739.7954735346947928
 20
350.8242014250710099
 30
0.0
 40
0.0189213715999805
 50
77.8767951105852347
 51
88.1478152260759344
  0
ARC
  5
2456B
  8
0
 10
4739.7953646866390045
 20
350.8242323725597203
 30
0.0
 40
0.0189512622872021
 50
31.8603063741293013
 51
42.1150831906574226
  0
ARC
  5
2456C
  8
0
 10
4739.7943846635380396
 20
350.8239951901031759
 30
0.0
 40
0.0199822823997143
 50
347.0473575750052078
 51
356.9460326423464949
  0
ARC
  5
2456D
  8
0
 10
4739.79839991667086
 20
350.8245842958398271
 30
0.0
 40
0.0930818146711672
 50
12.2472258898484192
 51
35.6627528667786109
  0
ARC
  5
2456E
  8
0
 10
4739.7951239119020101
 20
350.8238731715704262
 30
0.0
 40
0.096434113132848
 50
329.6508192086108124
 51
12.2472258898484192
  0
LINE
  5
2456F
  8
0
 10
4739.7821386893228919
 20
350.8378296961752767
 30
0.0
 11
4739.7409071870588377
 21
350.8616347151065042
 31
0.0
  0
LINE
  5
24570
  8
0
 10
4739.7848555780246897
 20
350.8399526147114784
 30
0.0
 11
4739.7720419447814493
 21
350.8902888204373198
 31
0.0
  0
LINE
  5
24571
  8
0
 10
4739.7548483130140085
 20
350.8779099754556228
 30
0.0
 11
4739.7610759356975905
 21
350.853445806048228
 31
0.0
  0
LINE
  5
24572
  8
0
 10
4739.7610759356975905
 20
350.853445806048228
 30
0.0
 11
4739.7848555779928574
 21
350.8399526146906737
 31
0.0
  0
LINE
  5
24573
  8
0
 10
4739.7610759356375638
 20
350.8534458060065049
 30
0.0
 11
4739.7585327324841273
 21
350.8514586017108172
 31
0.0
  0
LINE
  5
24574
  8
0
 10
4739.7994472980863065
 20
350.8427008171610737
 30
0.0
 11
4739.8324256490359403
 21
350.8998209965562864
 31
0.0
  0
LINE
  5
24575
  8
0
 10
4739.7960850940989985
 20
350.8431129109544031
 30
0.0
 11
4739.7827911249332828
 21
350.895336035861078
 31
0.0
  0
LINE
  5
24576
  8
0
 10
4739.7876031552914355
 20
350.8764327828679939
 30
0.0
 11
4739.8014297785430244
 21
350.9003811968373157
 31
0.0
  0
LINE
  5
24577
  8
0
 10
4739.8114607058960246
 20
350.8342357973580192
 30
0.0
 11
4739.8862714583274283
 21
350.8552896111697237
 31
0.0
  0
LINE
  5
24578
  8
0
 10
4739.8678356112341135
 20
350.8705831649772904
 30
0.0
 11
4739.8212815258129922
 21
350.8574815583273221
 31
0.0
  0
LINE
  5
24579
  8
0
 10
4739.8094227202036564
 20
350.8369415044963944
 30
0.0
 11
4739.8439836876441404
 21
350.8967214134588062
 31
0.0
  0
ARC
  5
2457A
  8
0
 10
4739.744215786753557
 20
350.8557928310303282
 30
0.0
 40
0.1025692530552762
 50
4.8997126751642011
 51
19.9978018008689489
  0
ARC
  5
2457B
  8
0
 10
4739.7726289312586232
 20
350.839322685639786
 30
0.0
 40
0.1002074322604594
 50
18.1772498050976914
 51
30.2064683819366913
  0
LINE
  5
2457C
  8
0
 10
4739.8678356112341135
 20
350.8705831649772904
 30
0.0
 11
4739.8839412063653072
 21
350.8612845952928865
 31
0.0
  0
LINE
  5
2457D
  8
0
 10
4739.8143385670209682
 20
350.8229306030045791
 30
0.0
 11
4739.8894212699287891
 21
350.8440609511591219
 31
0.0
  0
LINE
  5
2457E
  8
0
 10
4739.813858510035061
 20
350.8195162490997063
 30
0.0
 11
4739.8812947148462627
 21
350.7805819380985781
 31
0.0
  0
ARC
  5
2457F
  8
0
 10
4739.7364185487585928
 20
350.8574353781885975
 30
0.0
 40
0.1076694445995616
 50
333.1311317025488847
 51
345.4173578750555862
  0
ARC
  5
24580
  8
0
 10
4739.815404995638346
 20
350.3200672706482806
 30
0.0
 40
0.0895573701409387
 50
209.7538170009964063
 51
241.040387144854293
  0
ARC
  5
24581
  8
0
 10
4739.8153363967394398
 20
350.319943308969016
 30
0.0
 40
0.0894156933723149
 50
241.040387144854293
 51
281.0182349177143806
  0
ARC
  5
24582
  8
0
 10
4739.8160074539837296
 20
350.3164968751459014
 30
0.0
 40
0.0859045363089292
 50
281.0182349177138121
 51
312.4834493285435997
  0
ARC
  5
24583
  8
0
 10
4739.8139508959102386
 20
350.3187425164363731
 30
0.0
 40
0.0889495873632349
 50
312.4834493285435997
 51
338.9306936073260772
  0
ARC
  5
24584
  8
0
 10
4739.8143434092953612
 20
350.3185912996552815
 30
0.0
 40
0.0885289529931866
 50
338.9306936073260772
 51
12.7315468195840094
  0
ARC
  5
24585
  8
0
 10
4739.810428017391132
 20
350.3177066624145937
 30
0.0
 40
0.0925430377971008
 50
12.7315468195840094
 51
29.9632597696035816
  0
ARC
  5
24586
  8
0
 10
4739.795735653599877
 20
350.3087684381209783
 30
0.0
 40
0.0199518047993862
 50
227.039778249019605
 51
236.9536118754263043
  0
ARC
  5
24587
  8
0
 10
4739.7954735346947928
 20
350.3077954395826055
 30
0.0
 40
0.0189213715999805
 50
271.8521847739240229
 51
282.1232048894148079
  0
ARC
  5
24588
  8
0
 10
4739.7953646866390045
 20
350.3077644920938951
 30
0.0
 40
0.0189512622872021
 50
317.8849168093424851
 51
328.1396936258706774
  0
ARC
  5
24589
  8
0
 10
4739.7943846635380396
 20
350.3080016745503826
 30
0.0
 40
0.0199822823997143
 50
3.0539673576535771
 51
12.9526424249947905
  0
ARC
  5
2458A
  8
0
 10
4739.79839991667086
 20
350.3074125688137883
 30
0.0
 40
0.0930818146711672
 50
324.3372471332214104
 51
347.7527741101515062
  0
ARC
  5
2458B
  8
0
 10
4739.7951239119020101
 20
350.3081236930830755
 30
0.0
 40
0.096434113132848
 50
347.7527741101515062
 51
30.3491807913892018
  0
LINE
  5
2458C
  8
0
 10
4739.7821386893228919
 20
350.294167168478225
 30
0.0
 11
4739.7409071870588377
 21
350.2703621495472248
 31
0.0
  0
LINE
  5
2458D
  8
0
 10
4739.7848555780246897
 20
350.2920442499420801
 30
0.0
 11
4739.7720419447814493
 21
350.2417080442162955
 31
0.0
  0
LINE
  5
2458E
  8
0
 10
4739.7548483130140085
 20
350.2540868891978789
 30
0.0
 11
4739.7610759356975905
 21
350.2785510586052737
 31
0.0
  0
LINE
  5
2458F
  8
0
 10
4739.7610759356975905
 20
350.2785510586052737
 30
0.0
 11
4739.7848555779928574
 21
350.292044249962828
 31
0.0
  0
LINE
  5
24590
  8
0
 10
4739.7610759356375638
 20
350.2785510586471105
 30
0.0
 11
4739.7585327324841273
 21
350.2805382629427982
 31
0.0
  0
LINE
  5
24591
  8
0
 10
4739.7994472980863065
 20
350.2892960474924848
 30
0.0
 11
4739.8324256490359403
 21
350.2321758680972721
 31
0.0
  0
LINE
  5
24592
  8
0
 10
4739.796085094098089
 20
350.2888839536990986
 30
0.0
 11
4739.7827911249332828
 21
350.2366608287924237
 31
0.0
  0
LINE
  5
24593
  8
0
 10
4739.7876031552914355
 20
350.2555640817855078
 30
0.0
 11
4739.8014297785430244
 21
350.2316156678162997
 31
0.0
  0
LINE
  5
24594
  8
0
 10
4739.8114607058960246
 20
350.2977610672954825
 30
0.0
 11
4739.8862714583274283
 21
350.2767072534838917
 31
0.0
  0
LINE
  5
24595
  8
0
 10
4739.8678356112341135
 20
350.261413699676325
 30
0.0
 11
4739.8212815258129922
 21
350.2745153063261796
 31
0.0
  0
LINE
  5
24596
  8
0
 10
4739.8094227202036564
 20
350.295055360157221
 30
0.0
 11
4739.8439836876441404
 21
350.2352754511948092
 31
0.0
  0
ARC
  5
24597
  8
0
 10
4739.744215786753557
 20
350.2762040336232872
 30
0.0
 40
0.1025692530552762
 50
340.0021981991279745
 51
355.1002873248357901
  0
ARC
  5
24598
  8
0
 10
4739.7726289312586232
 20
350.2926741790137726
 30
0.0
 40
0.1002074322604594
 50
329.7935316180632981
 51
341.8227501949023122
  0
LINE
  5
24599
  8
0
 10
4739.8678356112341135
 20
350.261413699676325
 30
0.0
 11
4739.8839412063653072
 21
350.2707122693606721
 31
0.0
  0
LINE
  5
2459A
  8
0
 10
4739.8143385670209682
 20
350.3090662616489226
 30
0.0
 11
4739.8894212699287891
 21
350.2879359134943797
 31
0.0
  0
LINE
  5
2459B
  8
0
 10
4739.813858510035061
 20
350.312480615553909
 30
0.0
 11
4739.8812947148462627
 21
350.3514149265549804
 31
0.0
  0
ARC
  5
2459C
  8
0
 10
4739.7364185487585928
 20
350.2745614864650179
 30
0.0
 40
0.1076694445995616
 50
14.5826421249444493
 51
26.8688682974511188
  0
ARC
  5
2459D
  8
0
 10
4739.8150201953212672
 20
350.3207337643482902
 30
0.0
 40
0.0895573701409387
 50
178.9596128551301035
 51
210.246182998993504
  0
ARC
  5
2459E
  8
0
 10
4739.8148785419080014
 20
350.3207363367993139
 30
0.0
 40
0.0894156933723149
 50
138.9817650822492965
 51
178.9596128551301035
  0
ARC
  5
2459F
  8
0
 10
4739.8122293712858664
 20
350.3230407063330176
 30
0.0
 40
0.0859045363089292
 50
107.5165506714467938
 51
138.9817650822492965
  0
ARC
  5
245A0
  8
0
 10
4739.8131458746547651
 20
350.3201368541500074
 30
0.0
 40
0.0889495873632349
 50
81.0693063926623552
 51
107.5165506714467938
  0
ARC
  5
245A1
  8
0
 10
4739.813211173774107
 20
350.3205523891044209
 30
0.0
 40
0.0885289529931866
 50
47.2684531804112495
 51
81.0693063926623552
  0
ARC
  5
245A2
  8
0
 10
4739.8104873594984383
 20
350.3176038788697042
 30
0.0
 40
0.0925430377971008
 50
30.0367402303766795
 51
47.2684531804112495
  0
ARC
  5
245A3
  8
0
 10
4739.7954004482999153
 20
350.3093490307319939
 30
0.0
 40
0.0199518047993862
 50
183.0463881245543973
 51
192.9602217509624893
  0
ARC
  5
245A4
  8
0
 10
4739.7944267473949367
 20
350.3096085283709726
 30
0.0
 40
0.0189213715999805
 50
137.8767951105863006
 51
148.1478152260980892
  0
ARC
  5
245A5
  8
0
 10
4739.7943455220556643
 20
350.3095297369342234
 30
0.0
 40
0.0189512622872021
 50
91.8603063741416435
 51
102.1150831906452936
  0
ARC
  5
245A6
  8
0
 10
4739.794060916538001
 20
350.3085624208034119
 30
0.0
 40
0.0199822823997143
 50
47.0473575750214934
 51
56.9460326423274168
  0
ARC
  5
245A7
  8
0
 10
4739.7955583625707732
 20
350.3123342848875268
 30
0.0
 40
0.0930818146711672
 50
72.2472258898586688
 51
95.6627528667717257
  0
ARC
  5
245A8
  8
0
 10
4739.7945362118689445
 20
350.309141619399611
 30
0.0
 40
0.096434113132848
 50
29.65081920861331
 51
72.2472258898586688
  0
LINE
  5
245A9
  8
0
 10
4739.7759568957226293
 20
350.3048743490754191
 30
0.0
 11
4739.7347253934603941
 21
350.2810693301443052
 31
0.0
  0
LINE
  5
245AA
  8
0
 10
4739.7754768386921569
 20
350.3082887029787003
 30
0.0
 11
4739.7254775891806275
 21
350.3223598739372164
 31
0.0
  0
LINE
  5
245AB
  8
0
 10
4739.727601167521243
 20
350.3012803295534923
 30
0.0
 11
4739.7519015710522581
 21
350.294441524298577
 31
0.0
  0
LINE
  5
245AC
  8
0
 10
4739.7519015710522581
 20
350.294441524298577
 30
0.0
 11
4739.7754768386930664
 21
350.308288702940672
 31
0.0
  0
LINE
  5
245AD
  8
0
 10
4739.751901571057715
 20
350.2944415242262721
 30
0.0
 11
4739.7523509388838647
 21
350.2912454435398786
 31
0.0
  0
LINE
  5
245AE
  8
0
 10
4739.7803926855849568
 20
350.3222996044610795
 30
0.0
 11
4739.7474143346362325
 21
350.3794197838562923
 31
0.0
  0
LINE
  5
245AF
  8
0
 10
4739.778354699898955
 20
350.3195938972925205
 30
0.0
 11
4739.7264811624818321
 21
350.3341925447310246
 31
0.0
  0
LINE
  5
245B0
  8
0
 10
4739.7452578749671375
 20
350.3289082587680241
 30
0.0
 11
4739.7314312517146391
 21
350.352856672737289
 31
0.0
  0
LINE
  5
245B1
  8
0
 10
4739.7937303116841576
 20
350.3284710109086859
 30
0.0
 11
4739.812902550292165
 21
350.4037859298961166
 31
0.0
  0
LINE
  5
245B2
  8
0
 10
4739.790440020634378
 20
350.3954667948772794
 30
0.0
 11
4739.7785093021120701
 21
350.3485989709274122
 31
0.0
  0
LINE
  5
245B3
  8
0
 10
4739.7903681077223155
 20
350.3280589170964276
 30
0.0
 11
4739.7558776716441571
 21
350.387879547360285
 31
0.0
  0
ARC
  5
245B4
  8
0
 10
4739.7414389133227814
 20
350.2810137194932167
 30
0.0
 40
0.1025692530552762
 50
64.8997126751804529
 51
79.9978018008555551
  0
ARC
  5
245B5
  8
0
 10
4739.7699090498872465
 20
350.2973851517404
 30
0.0
 40
0.1002074322604594
 50
78.1772498050727478
 51
90.2064683819208284
  0
LINE
  5
245B6
  8
0
 10
4739.790440020634378
 20
350.3954667948772794
 30
0.0
 11
4739.8065456157655717
 21
350.4047653645616265
 31
0.0
  0
LINE
  5
245B7
  8
0
 10
4739.804959827750281
 20
350.3253107145752097
 30
0.0
 11
4739.8242017609127288
 21
350.4008994167555784
 31
0.0
  0
LINE
  5
245B8
  8
0
 10
4739.8076767164766352
 20
350.3231877960774909
 30
0.0
 11
4739.8751129212878368
 21
350.3621221070785055
 31
0.0
  0
ARC
  5
245B9
  8
0
 10
4739.736117806758557
 20
350.2750823868889825
 30
0.0
 40
0.1076694445995616
 50
33.1311317025446073
 51
45.4173578750545701
  0
ARC
  5
245BA
  8
0
 10
4740.2409854625120715
 20
350.101185058363626
 30
0.0
 40
0.0895573701409387
 50
269.753817001017012
 51
301.0403871448768882
  0
ARC
  5
245BB
  8
0
 10
4740.2410585170264312
 20
350.1010636691354989
 30
0.0
 40
0.0894156933723149
 50
301.0403871448768882
 51
341.0182349177408128
  0
ARC
  5
245BC
  8
0
 10
4740.2443787448919466
 20
350.0999216048459743
 30
0.0
 40
0.0859045363089292
 50
341.0182349177376864
 51
12.4834493285648396
  0
ARC
  5
245BD
  8
0
 10
4740.2414056834477378
 20
350.0992633939534926
 30
0.0
 40
0.0889495873632349
 50
12.4834493285648396
 51
38.9306936073300776
  0
ARC
  5
245BE
  8
0
 10
4740.241732897716247
 20
350.0995277121268145
 30
0.0
 40
0.0885289529931866
 50
38.9306936073300776
 51
72.7315468195646133
  0
ARC
  5
245BF
  8
0
 10
4740.240541320086777
 20
350.0956945646512963
 30
0.0
 40
0.0925430377971008
 50
72.7315468195646133
 51
89.9632597696064238
  0
ARC
  5
245C0
  8
0
 10
4740.2409358674949544
 20
350.0785014922200844
 30
0.0
 40
0.0199518047993862
 50
287.0397782490585996
 51
296.953611875437673
  0
ARC
  5
245C1
  8
0
 10
4740.2416474494948488
 20
350.0777879913206903
 30
0.0
 40
0.0189213715999805
 50
331.8521847738975907
 51
342.1232048894199806
  0
ARC
  5
245C2
  8
0
 10
4740.2416198267783329
 20
350.0776782523951169
 30
0.0
 40
0.0189512622872021
 50
17.884916809358451
 51
28.1396936258537202
  0
ARC
  5
245C3
  8
0
 10
4740.2409244091950313
 20
350.0769481187210204
 30
0.0
 40
0.0199822823997143
 50
63.0539673576702384
 51
72.9526424249743712
  0
ARC
  5
245C4
  8
0
 10
4740.2434422162941701
 20
350.0801308770684273
 30
0.0
 40
0.0930818146711672
 50
24.3372471332349782
 51
47.7527741101309999
  0
ARC
  5
245C5
  8
0
 10
4740.2411883622271489
 20
350.0776493358497987
 30
0.0
 40
0.096434113132848
 50
47.7527741101309999
 51
90.3491807913788847
  0
LINE
  5
245C6
  8
0
 10
4740.2467824557943459
 20
350.0594255409206994
 30
0.0
 11
4740.2467824557943459
 21
350.0118155030584717
 31
0.0
  0
LINE
  5
245C7
  8
0
 10
4740.2499794015284351
 20
350.0607169762880062
 30
0.0
 11
4740.287165017794905
 21
350.024451941520681
 31
0.0
  0
LINE
  5
245C8
  8
0
 10
4740.2678478076877582
 20
350.015751242118597
 30
0.0
 11
4740.2497750268403252
 21
350.0333766062710197
 31
0.0
  0
LINE
  5
245C9
  8
0
 10
4740.2497750268403252
 20
350.0333766062710197
 30
0.0
 11
4740.2499794014929648
 21
350.0607169762707258
 31
0.0
  0
LINE
  5
245CA
  8
0
 10
4740.249775026773932
 20
350.0333766062404948
 30
0.0
 11
4740.2467824557943459
 21
350.0321677298497889
 31
0.0
  0
LINE
  5
245CB
  8
0
 10
4740.259655274693614
 20
350.0719796753206765
 30
0.0
 11
4740.3256119765947005
 21
350.0719796753206765
 31
0.0
  0
LINE
  5
245CC
  8
0
 10
4740.2583310563941268
 20
350.0688618743587881
 30
0.0
 11
4740.2969106246464435
 21
350.0312373968906172
 31
0.0
  0
LINE
  5
245CD
  8
0
 10
4740.2829459425192908
 20
350.0448563639207009
 30
0.0
 11
4740.3105991890215591
 21
350.0448563639207009
 31
0.0
  0
LINE
  5
245CE
  8
0
 10
4740.2583310564068597
 20
350.0866161015712805
 30
0.0
 11
4740.3139695702293466
 21
350.1408772067471205
 31
0.0
  0
LINE
  5
245CF
  8
0
 10
4740.3179962527947282
 20
350.1172645179206029
 30
0.0
 11
4740.2833728858950053
 21
350.083498300620704
 31
0.0
  0
LINE
  5
245D0
  8
0
 10
4740.2596552746781526
 20
350.083498300620704
 30
0.0
 11
4740.3287066781940666
 21
350.0835390219222063
 31
0.0
  0
ARC
  5
245D1
  8
0
 10
4740.2433775356257684
 20
350.017601776483616
 30
0.0
 40
0.1025692530552762
 50
40.0021981991217288
 51
55.1002873248279172
  0
ARC
  5
245D2
  8
0
 10
4740.2433205435663695
 20
350.0504433541212848
 30
0.0
 40
0.1002074322604594
 50
29.7935316180601113
 51
41.8227501948941622
  0
LINE
  5
245D3
  8
0
 10
4740.3179962527947282
 20
350.1172645179206029
 30
0.0
 11
4740.3179962527947282
 21
350.1358616572894107
 31
0.0
  0
LINE
  5
245D4
  8
0
 10
4740.2499794014647705
 20
350.0947609995911876
 30
0.0
 11
4740.3058201712110531
 21
350.1492193536171271
 31
0.0
  0
LINE
  5
245D5
  8
0
 10
4740.2467824557515996
 20
350.0960524349985121
 30
0.0
 11
4740.2467824557515996
 21
350.1739210570007117
 31
0.0
  0
ARC
  5
245D6
  8
0
 10
4740.2409014041941191
 20
350.0100278967211125
 30
0.0
 40
0.1076694445995616
 50
74.5826421249355462
 51
86.8688682974730426
  0
ARC
  5
245D7
  8
0
 10
4740.2402158618770045
 20
350.101185058363626
 30
0.0
 40
0.0895573701409387
 50
238.9596128551231118
 51
270.246182998982988
  0
ARC
  5
245D8
  8
0
 10
4740.2401428073635543
 20
350.1010636691354989
 30
0.0
 40
0.0894156933723149
 50
198.9817650822591872
 51
238.9596128551231118
  0
ARC
  5
245D9
  8
0
 10
4740.2368225794971295
 20
350.0999216048459743
 30
0.0
 40
0.0859045363089292
 50
167.5165506714351977
 51
198.9817650822621999
  0
ARC
  5
245DA
  8
0
 10
4740.2397956409404287
 20
350.0992633939534926
 30
0.0
 40
0.0889495873632349
 50
141.0693063926698869
 51
167.5165506714351977
  0
ARC
  5
245DB
  8
0
 10
4740.2394684266728291
 20
350.0995277121268145
 30
0.0
 40
0.0885289529931866
 50
107.2684531804354009
 51
141.0693063926698869
  0
ARC
  5
245DC
  8
0
 10
4740.2406600043022991
 20
350.0956945646512963
 30
0.0
 40
0.0925430377971008
 50
90.0367402303936046
 51
107.2684531804354009
  0
ARC
  5
245DD
  8
0
 10
4740.2402654568941216
 20
350.0785014922200844
 30
0.0
 40
0.0199518047993862
 50
243.0463881245624123
 51
252.9602217509414004
  0
ARC
  5
245DE
  8
0
 10
4740.2395538748942272
 20
350.0777879913206903
 30
0.0
 40
0.0189213715999805
 50
197.8767951105799909
 51
208.1478152261022956
  0
ARC
  5
245DF
  8
0
 10
4740.2395814976098336
 20
350.0776782523951169
 30
0.0
 40
0.0189512622872021
 50
151.8603063741462904
 51
162.1150831906415135
  0
ARC
  5
245E0
  8
0
 10
4740.2402769151931352
 20
350.0769481187210204
 30
0.0
 40
0.0199822823997143
 50
107.0473575750256003
 51
116.9460326423296976
  0
ARC
  5
245E1
  8
0
 10
4740.237759108094906
 20
350.0801308770684273
 30
0.0
 40
0.0930818146711672
 50
132.2472258898689859
 51
155.662752866765004
  0
ARC
  5
245E2
  8
0
 10
4740.2400129621619271
 20
350.0776493358497987
 30
0.0
 40
0.096434113132848
 50
89.6508192086211153
 51
132.2472258898689859
  0
LINE
  5
245E3
  8
0
 10
4740.2344188685938207
 20
350.0594255409206994
 30
0.0
 11
4740.2344188685938207
 21
350.0118155030584717
 31
0.0
  0
LINE
  5
245E4
  8
0
 10
4740.2312219228606409
 20
350.0607169762880062
 30
0.0
 11
4740.1940363065932615
 21
350.024451941520681
 31
0.0
  0
LINE
  5
245E5
  8
0
 10
4740.2133535167013179
 20
350.015751242118597
 30
0.0
 11
4740.2314262975478414
 21
350.0333766062710197
 31
0.0
  0
LINE
  5
245E6
  8
0
 10
4740.2314262975478414
 20
350.0333766062710197
 30
0.0
 11
4740.2312219228952017
 21
350.0607169762707258
 31
0.0
  0
LINE
  5
245E7
  8
0
 10
4740.231426297615144
 20
350.0333766062404948
 30
0.0
 11
4740.2344188685938207
 21
350.0321677298497889
 31
0.0
  0
LINE
  5
245E8
  8
0
 10
4740.2215460496945525
 20
350.0719796753206765
 30
0.0
 11
4740.155589347795285
 21
350.0719796753206765
 31
0.0
  0
LINE
  5
245E9
  8
0
 10
4740.2228702679940398
 20
350.0688618743587881
 30
0.0
 11
4740.1842906997426326
 21
350.0312373968906172
 31
0.0
  0
LINE
  5
245EA
  8
0
 10
4740.1982553818688757
 20
350.0448563639207009
 30
0.0
 11
4740.1706021353666074
 21
350.0448563639207009
 31
0.0
  0
LINE
  5
245EB
  8
0
 10
4740.2228702679840353
 20
350.0866161015712805
 30
0.0
 11
4740.16723175415882
 21
350.1408772067471205
 31
0.0
  0
LINE
  5
245EC
  8
0
 10
4740.1632050715952573
 20
350.1172645179206029
 30
0.0
 11
4740.1978284384949802
 21
350.083498300620704
 31
0.0
  0
LINE
  5
245ED
  8
0
 10
4740.2215460497118329
 20
350.083498300620704
 30
0.0
 11
4740.1524946461940999
 21
350.0835390219222063
 31
0.0
  0
ARC
  5
245EE
  8
0
 10
4740.2378237887633077
 20
350.017601776483616
 30
0.0
 40
0.1025692530552762
 50
124.899712675172097
 51
139.9978018008783067
  0
ARC
  5
245EF
  8
0
 10
4740.2378807808217971
 20
350.0504433541212848
 30
0.0
 40
0.1002074322604594
 50
138.177249805105788
 51
150.2064683819399136
  0
LINE
  5
245F0
  8
0
 10
4740.1632050715952573
 20
350.1172645179206029
 30
0.0
 11
4740.1632050715952573
 21
350.1358616572894107
 31
0.0
  0
LINE
  5
245F1
  8
0
 10
4740.231221922925215
 20
350.0947609995911876
 30
0.0
 11
4740.1753811531780229
 21
350.1492193536171271
 31
0.0
  0
LINE
  5
245F2
  8
0
 10
4740.2344188686365669
 20
350.0960524349985121
 30
0.0
 11
4740.2344188686365669
 21
350.1739210570007117
 31
0.0
  0
ARC
  5
245F3
  8
0
 10
4740.2402999201949569
 20
350.0100278967211125
 30
0.0
 40
0.1076694445995616
 50
93.1311317025269574
 51
105.4173578750643969
  0
ARC
  5
245F4
  8
0
 10
4740.6661811290687183
 20
350.3207337643481765
 30
0.0
 40
0.0895573701409387
 50
329.753817001006496
 51
1.0403871448699189
  0
ARC
  5
245F5
  8
0
 10
4740.6663227824819842
 20
350.3207363367993139
 30
0.0
 40
0.0894156933723149
 50
1.0403871448699189
 51
41.018234917750668
  0
ARC
  5
245F6
  8
0
 10
4740.6689719531023002
 20
350.3230407063329039
 30
0.0
 40
0.0859045363089292
 50
41.018234917750668
 51
72.4834493285531494
  0
ARC
  5
245F7
  8
0
 10
4740.668055449734311
 20
350.3201368541500074
 30
0.0
 40
0.0889495873632349
 50
72.4834493285531494
 51
98.9306936073376306
  0
ARC
  5
245F8
  8
0
 10
4740.667990150614969
 20
350.3205523891044209
 30
0.0
 40
0.0885289529931866
 50
98.9306936073376306
 51
132.7315468195886865
  0
ARC
  5
245F9
  8
0
 10
4740.6707139648906377
 20
350.3176038788697042
 30
0.0
 40
0.0925430377971008
 50
132.7315468195886865
 51
149.9632597696233063
  0
ARC
  5
245FA
  8
0
 10
4740.6858008760891607
 20
350.3093490307319939
 30
0.0
 40
0.0199518047993862
 50
347.0397782490375107
 51
356.9536118754455742
  0
ARC
  5
245FB
  8
0
 10
4740.6867745769941394
 20
350.3096085283709726
 30
0.0
 40
0.0189213715999805
 50
31.8521847739019215
 51
42.1232048894136497
  0
ARC
  5
245FC
  8
0
 10
4740.6868558023334117
 20
350.3095297369342234
 30
0.0
 40
0.0189512622872021
 50
77.884916809354678
 51
88.1396936258583565
  0
ARC
  5
245FD
  8
0
 10
4740.6871404078501655
 20
350.3085624208034119
 30
0.0
 40
0.0199822823997143
 50
123.0539673576726045
 51
132.9526424249785066
  0
ARC
  5
245FE
  8
0
 10
4740.6856429618183029
 20
350.3123342848875268
 30
0.0
 40
0.0930818146711672
 50
84.3372471332282743
 51
107.7527741101413028
  0
ARC
  5
245FF
  8
0
 10
4740.686665112519222
 20
350.309141619399611
 30
0.0
 40
0.096434113132848
 50
107.7527741101413028
 51
150.3491807913866865
  0
LINE
  5
24600
  8
0
 10
4740.7052444286646278
 20
350.3048743490754191
 30
0.0
 11
4740.7464759309286819
 21
350.2810693301443052
 31
0.0
  0
LINE
  5
24601
  8
0
 10
4740.7057244856969191
 20
350.3082887029787003
 30
0.0
 11
4740.7557237352084485
 21
350.3223598739372164
 31
0.0
  0
LINE
  5
24602
  8
0
 10
4740.7536001568669235
 20
350.3012803295534923
 30
0.0
 11
4740.7292997533359085
 21
350.294441524298577
 31
0.0
  0
LINE
  5
24603
  8
0
 10
4740.7292997533359085
 20
350.294441524298577
 30
0.0
 11
4740.7057244856951002
 21
350.308288702940672
 31
0.0
  0
LINE
  5
24604
  8
0
 10
4740.7292997533304515
 20
350.2944415242262721
 30
0.0
 11
4740.7288503855043018
 21
350.2912454435398786
 31
0.0
  0
LINE
  5
24605
  8
0
 10
4740.7008086388032098
 20
350.3222996044610227
 30
0.0
 11
4740.7337869897528435
 21
350.3794197838562923
 31
0.0
  0
LINE
  5
24606
  8
0
 10
4740.702846624490121
 20
350.3195938972925205
 30
0.0
 11
4740.7547201619072439
 21
350.3341925447310246
 31
0.0
  0
LINE
  5
24607
  8
0
 10
4740.7359434494210291
 20
350.3289082587680241
 30
0.0
 11
4740.749770072674437
 21
350.352856672737289
 31
0.0
  0
LINE
  5
24608
  8
0
 10
4740.6874710127040089
 20
350.3284710109086859
 30
0.0
 11
4740.6682987740969111
 21
350.4037859298961166
 31
0.0
  0
LINE
  5
24609
  8
0
 10
4740.6907613037537885
 20
350.3954667948772794
 30
0.0
 11
4740.7026920222760964
 21
350.3485989709274122
 31
0.0
  0
LINE
  5
2460A
  8
0
 10
4740.6908332166667606
 20
350.3280589170964276
 30
0.0
 11
4740.7253236527449189
 21
350.387879547360285
 31
0.0
  0
ARC
  5
2460B
  8
0
 10
4740.7397624110662946
 20
350.2810137194932167
 30
0.0
 40
0.1025692530552762
 50
100.0021981991444022
 51
115.1002873248195044
  0
ARC
  5
2460C
  8
0
 10
4740.7112922745018295
 20
350.2973851517404
 30
0.0
 40
0.1002074322604594
 50
89.7935316180791858
 51
101.8227501949271954
  0
LINE
  5
2460D
  8
0
 10
4740.6907613037537885
 20
350.3954667948772794
 30
0.0
 11
4740.6746557086244138
 21
350.4047653645616265
 31
0.0
  0
LINE
  5
2460E
  8
0
 10
4740.6762414966378856
 20
350.3253107145752097
 30
0.0
 11
4740.6569995634754378
 21
350.4008994167555784
 31
0.0
  0
LINE
  5
2460F
  8
0
 10
4740.6735246079106219
 20
350.3231877960774909
 30
0.0
 11
4740.6060884031003297
 21
350.3621221070785055
 31
0.0
  0
ARC
  5
24610
  8
0
 10
4740.7450835176287001
 20
350.2750823868889825
 30
0.0
 40
0.1076694445995616
 50
134.5826421249454086
 51
146.8688682974554069
  0
ARC
  5
24611
  8
0
 10
4740.66579632875073
 20
350.3200672706482806
 30
0.0
 40
0.0895573701409387
 50
298.9596128551456786
 51
330.246182999003679
  0
ARC
  5
24612
  8
0
 10
4740.6658649276505457
 20
350.319943308969016
 30
0.0
 40
0.0894156933723149
 50
258.9817650822856194
 51
298.9596128551456786
  0
ARC
  5
24613
  8
0
 10
4740.6651938704044369
 20
350.3164968751459014
 30
0.0
 40
0.0859045363089292
 50
227.5165506714564003
 51
258.9817650822861879
  0
ARC
  5
24614
  8
0
 10
4740.6672504284788374
 20
350.3187425164363731
 30
0.0
 40
0.0889495873632349
 50
201.0693063926738091
 51
227.5165506714564003
  0
ARC
  5
24615
  8
0
 10
4740.6668579150928053
 20
350.3185912996552815
 30
0.0
 40
0.0885289529931866
 50
167.2684531804160031
 51
201.0693063926738091
  0
ARC
  5
24616
  8
0
 10
4740.6707733069970345
 20
350.3177066624145937
 30
0.0
 40
0.0925430377971008
 50
150.03674023039639
 51
167.2684531804160031
  0
ARC
  5
24617
  8
0
 10
4740.6854656707891991
 20
350.3087684381209783
 30
0.0
 40
0.0199518047993862
 50
303.0463881245736957
 51
312.960221750980395
  0
ARC
  5
24618
  8
0
 10
4740.6857277896933738
 20
350.3077954395826055
 30
0.0
 40
0.0189213715999805
 50
257.8767951105851921
 51
268.1478152260759202
  0
ARC
  5
24619
  8
0
 10
4740.685836637749162
 20
350.3077644920938951
 30
0.0
 40
0.0189512622872021
 50
211.8603063741292942
 51
222.1150831906574012
  0
ARC
  5
2461A
  8
0
 10
4740.6868166608510364
 20
350.3080016745503826
 30
0.0
 40
0.0199822823997143
 50
167.0473575750052078
 51
176.9460326423464096
  0
ARC
  5
2461B
  8
0
 10
4740.6828014077182161
 20
350.3074125688137883
 30
0.0
 40
0.0930818146711672
 50
192.2472258898484085
 51
215.6627528667785896
  0
ARC
  5
2461C
  8
0
 10
4740.6860774124879754
 20
350.3081236930830755
 30
0.0
 40
0.096434113132848
 50
149.6508192086108124
 51
192.2472258898484085
  0
LINE
  5
2461D
  8
0
 10
4740.6990626350661842
 20
350.294167168478225
 30
0.0
 11
4740.7402941373293288
 21
350.2703621495472248
 31
0.0
  0
LINE
  5
2461E
  8
0
 10
4740.6963457463625673
 20
350.2920442499420801
 30
0.0
 11
4740.7091593796076268
 21
350.2417080442162955
 31
0.0
  0
LINE
  5
2461F
  8
0
 10
4740.7263530113741581
 20
350.2540868891978789
 30
0.0
 11
4740.7201253886905761
 21
350.2785510586052737
 31
0.0
  0
LINE
  5
24620
  8
0
 10
4740.7201253886905761
 20
350.2785510586052737
 30
0.0
 11
4740.6963457463953091
 21
350.292044249962828
 31
0.0
  0
LINE
  5
24621
  8
0
 10
4740.7201253887496932
 20
350.2785510586471105
 30
0.0
 11
4740.7226685919049487
 21
350.2805382629427982
 31
0.0
  0
LINE
  5
24622
  8
0
 10
4740.6817540263027695
 20
350.2892960474924848
 30
0.0
 11
4740.6487756753531357
 21
350.2321758680972721
 31
0.0
  0
LINE
  5
24623
  8
0
 10
4740.6851162302900775
 20
350.2888839536990986
 30
0.0
 11
4740.6984101994548837
 21
350.2366608287924237
 31
0.0
  0
LINE
  5
24624
  8
0
 10
4740.693598169096731
 20
350.2555640817855078
 30
0.0
 11
4740.6797715458451421
 21
350.2316156678162997
 31
0.0
  0
LINE
  5
24625
  8
0
 10
4740.6697406184930514
 20
350.2977610672954825
 30
0.0
 11
4740.5949298660616478
 21
350.2767072534838917
 31
0.0
  0
LINE
  5
24626
  8
0
 10
4740.6133657131540531
 20
350.261413699676325
 30
0.0
 11
4740.6599197985760838
 21
350.2745153063261796
 31
0.0
  0
LINE
  5
24627
  8
0
 10
4740.6717786041854197
 20
350.295055360157221
 30
0.0
 11
4740.6372176367440261
 21
350.2352754511948092
 31
0.0
  0
ARC
  5
24628
  8
0
 10
4740.7369855376337
 20
350.2762040336232872
 30
0.0
 40
0.1025692530552762
 50
184.8997126751642099
 51
199.9978018008688991
  0
ARC
  5
24629
  8
0
 10
4740.7085723931286338
 20
350.2926741790137726
 30
0.0
 40
0.1002074322604594
 50
198.1772498050976878
 51
210.2064683819367019
  0
LINE
  5
2462A
  8
0
 10
4740.6133657131540531
 20
350.261413699676325
 30
0.0
 11
4740.5972601180237689
 21
350.2707122693606721
 31
0.0
  0
LINE
  5
2462B
  8
0
 10
4740.6668627573671984
 20
350.3090662616489226
 30
0.0
 11
4740.5917800544611964
 21
350.2879359134943797
 31
0.0
  0
LINE
  5
2462C
  8
0
 10
4740.6673428143531055
 20
350.312480615553909
 30
0.0
 11
4740.5999066095419039
 21
350.3514149265549804
 31
0.0
  0
ARC
  5
2462D
  8
0
 10
4740.7447827756286642
 20
350.2745614864650179
 30
0.0
 40
0.1076694445995616
 50
153.1311317025489132
 51
165.4173578750555009
  0
ARC
  5
2462E
  8
0
 10
4740.66579632875073
 20
350.811929594005278
 30
0.0
 40
0.0895573701409387
 50
29.7538170009963601
 51
61.0403871448543072
  0
ARC
  5
2462F
  8
0
 10
4740.6658649276505457
 20
350.8120535556844857
 30
0.0
 40
0.0894156933723149
 50
61.0403871448543072
 51
101.0182349177143948
  0
ARC
  5
24630
  8
0
 10
4740.6651938704044369
 20
350.815499989507714
 30
0.0
 40
0.0859045363089292
 50
101.0182349177137979
 51
132.4834493285435997
  0
ARC
  5
24631
  8
0
 10
4740.6672504284788374
 20
350.8132543482171855
 30
0.0
 40
0.0889495873632349
 50
132.4834493285435997
 51
158.9306936073261909
  0
ARC
  5
24632
  8
0
 10
4740.6668579150928053
 20
350.813405564998277
 30
0.0
 40
0.0885289529931865
 50
158.9306936073261909
 51
192.7315468195839969
  0
ARC
  5
24633
  8
0
 10
4740.6707733069970345
 20
350.8142902022390217
 30
0.0
 40
0.0925430377971008
 50
192.7315468195839969
 51
209.96325976960361
  0
ARC
  5
24634
  8
0
 10
4740.6854656707891991
 20
350.8232284265325234
 30
0.0
 40
0.0199518047993861
 50
47.0397782490195695
 51
56.9536118754262617
  0
ARC
  5
24635
  8
0
 10
4740.6857277896933738
 20
350.8242014250710099
 30
0.0
 40
0.0189213715999805
 50
91.852184773924094
 51
102.1232048894146942
  0
ARC
  5
24636
  8
0
 10
4740.685836637749162
 20
350.8242323725597203
 30
0.0
 40
0.0189512622872021
 50
137.8849168093425988
 51
148.1396936258707058
  0
ARC
  5
24637
  8
0
 10
4740.6868166608510364
 20
350.8239951901031759
 30
0.0
 40
0.0199822823997143
 50
183.0539673576535904
 51
192.952642424994707
  0
ARC
  5
24638
  8
0
 10
4740.6828014077182161
 20
350.8245842958398271
 30
0.0
 40
0.0930818146711672
 50
144.3372471332214104
 51
167.7527741101515915
  0
ARC
  5
24639
  8
0
 10
4740.6860774124879754
 20
350.8238731715704262
 30
0.0
 40
0.096434113132848
 50
167.7527741101515915
 51
210.3491807913891876
  0
LINE
  5
2463A
  8
0
 10
4740.6990626350661842
 20
350.8378296961752767
 30
0.0
 11
4740.7402941373293288
 21
350.8616347151065042
 31
0.0
  0
LINE
  5
2463B
  8
0
 10
4740.6963457463625673
 20
350.8399526147114784
 30
0.0
 11
4740.7091593796076268
 21
350.8902888204373198
 31
0.0
  0
LINE
  5
2463C
  8
0
 10
4740.7263530113741581
 20
350.8779099754556228
 30
0.0
 11
4740.7201253886905761
 21
350.853445806048228
 31
0.0
  0
LINE
  5
2463D
  8
0
 10
4740.7201253886905761
 20
350.853445806048228
 30
0.0
 11
4740.6963457463953091
 21
350.8399526146906737
 31
0.0
  0
LINE
  5
2463E
  8
0
 10
4740.7201253887496932
 20
350.8534458060065049
 30
0.0
 11
4740.7226685919049487
 21
350.8514586017108172
 31
0.0
  0
LINE
  5
2463F
  8
0
 10
4740.6817540263027695
 20
350.8427008171610737
 30
0.0
 11
4740.6487756753531357
 21
350.8998209965562864
 31
0.0
  0
LINE
  5
24640
  8
0
 10
4740.6851162302900775
 20
350.8431129109544031
 30
0.0
 11
4740.6984101994548837
 21
350.895336035861078
 31
0.0
  0
LINE
  5
24641
  8
0
 10
4740.693598169096731
 20
350.8764327828679939
 30
0.0
 11
4740.6797715458451421
 21
350.9003811968373157
 31
0.0
  0
LINE
  5
24642
  8
0
 10
4740.6697406184930514
 20
350.8342357973580192
 30
0.0
 11
4740.5949298660616478
 21
350.8552896111697237
 31
0.0
  0
LINE
  5
24643
  8
0
 10
4740.6133657131540531
 20
350.8705831649772904
 30
0.0
 11
4740.6599197985760838
 21
350.8574815583273221
 31
0.0
  0
LINE
  5
24644
  8
0
 10
4740.6717786041854197
 20
350.8369415044963944
 30
0.0
 11
4740.6372176367440261
 21
350.8967214134588062
 31
0.0
  0
ARC
  5
24645
  8
0
 10
4740.7369855376337
 20
350.8557928310303282
 30
0.0
 40
0.1025692530552762
 50
160.0021981991280029
 51
175.1002873248357901
  0
ARC
  5
24646
  8
0
 10
4740.7085723931286338
 20
350.839322685639786
 30
0.0
 40
0.1002074322604594
 50
149.7935316180632981
 51
161.8227501949023122
  0
LINE
  5
24647
  8
0
 10
4740.6133657131540531
 20
350.8705831649772904
 30
0.0
 11
4740.5972601180237689
 21
350.8612845952928865
 31
0.0
  0
LINE
  5
24648
  8
0
 10
4740.6668627573671984
 20
350.8229306030045791
 30
0.0
 11
4740.5917800544611964
 21
350.8440609511591219
 31
0.0
  0
LINE
  5
24649
  8
0
 10
4740.6673428143531055
 20
350.8195162490997063
 30
0.0
 11
4740.5999066095419039
 21
350.7805819380985781
 31
0.0
  0
ARC
  5
2464A
  8
0
 10
4740.7447827756286642
 20
350.8574353781885975
 30
0.0
 40
0.1076694445995616
 50
194.5826421249444138
 51
206.8688682974510868
  0
ARC
  5
2464B
  8
0
 10
4740.6661811290687183
 20
350.8112631003053252
 30
0.0
 40
0.0895573701409387
 50
358.9596128551301035
 51
30.2461829989935396
  0
ARC
  5
2464C
  8
0
 10
4740.6663227824819842
 20
350.8112605278541878
 30
0.0
 40
0.0894156933723149
 50
318.9817650822494102
 51
358.9596128551301035
  0
ARC
  5
2464D
  8
0
 10
4740.6689719531023002
 20
350.8089561583205978
 30
0.0
 40
0.0859045363089292
 50
287.5165506714467938
 51
318.9817650822494102
  0
ARC
  5
2464E
  8
0
 10
4740.668055449734311
 20
350.8118600105034943
 30
0.0
 40
0.0889495873632349
 50
261.0693063926623836
 51
287.5165506714467938
  0
ARC
  5
2464F
  8
0
 10
4740.667990150614969
 20
350.8114444755491945
 30
0.0
 40
0.0885289529931865
 50
227.2684531804111998
 51
261.0693063926623836
  0
ARC
  5
24650
  8
0
 10
4740.6707139648906377
 20
350.8143929857839112
 30
0.0
 40
0.0925430377971008
 50
210.0367402303766937
 51
227.2684531804111998
  0
ARC
  5
24651
  8
0
 10
4740.6858008760891607
 20
350.8226478339216214
 30
0.0
 40
0.0199518047993861
 50
3.046388124554364
 51
12.9602217509625
  0
ARC
  5
24652
  8
0
 10
4740.6867745769941394
 20
350.8223883362825859
 30
0.0
 40
0.0189213715999805
 50
317.8767951105862721
 51
328.1478152260980892
  0
ARC
  5
24653
  8
0
 10
4740.6868558023334117
 20
350.822467127719392
 30
0.0
 40
0.0189512622872021
 50
271.8603063741416008
 51
282.1150831906454073
  0
ARC
  5
24654
  8
0
 10
4740.6871404078501655
 20
350.8234344438502035
 30
0.0
 40
0.0199822823997143
 50
227.0473575750214934
 51
236.9460326423273955
  0
ARC
  5
24655
  8
0
 10
4740.6856429618183029
 20
350.8196625797659749
 30
0.0
 40
0.0930818146711672
 50
252.2472258898586972
 51
275.6627528667717115
  0
ARC
  5
24656
  8
0
 10
4740.686665112519222
 20
350.8228552452540043
 30
0.0
 40
0.096434113132848
 50
209.6508192086133135
 51
252.2472258898586972
  0
LINE
  5
24657
  8
0
 10
4740.7052444286646278
 20
350.82712251557831
 30
0.0
 11
4740.7464759309286819
 21
350.8509275345093101
 31
0.0
  0
LINE
  5
24658
  8
0
 10
4740.7057244856969191
 20
350.8237081616748014
 30
0.0
 11
4740.7557237352084485
 21
350.8096369907163989
 31
0.0
  0
LINE
  5
24659
  8
0
 10
4740.7536001568669235
 20
350.8307165351001231
 30
0.0
 11
4740.7292997533359085
 21
350.8375553403549816
 31
0.0
  0
LINE
  5
2465A
  8
0
 10
4740.7292997533359085
 20
350.8375553403549816
 30
0.0
 11
4740.7057244856951002
 21
350.8237081617127728
 31
0.0
  0
LINE
  5
2465B
  8
0
 10
4740.7292997533304515
 20
350.8375553404272864
 30
0.0
 11
4740.7288503855043018
 21
350.84075142111368
 31
0.0
  0
LINE
  5
2465C
  8
0
 10
4740.7008086388032098
 20
350.809697260192479
 30
0.0
 11
4740.7337869897528435
 21
350.7525770807973231
 31
0.0
  0
LINE
  5
2465D
  8
0
 10
4740.702846624490121
 20
350.8124029673609812
 30
0.0
 11
4740.7547201619072439
 21
350.7978043199225908
 31
0.0
  0
LINE
  5
2465E
  8
0
 10
4740.7359434494210291
 20
350.8030886058854776
 30
0.0
 11
4740.749770072674437
 21
350.7791401919163263
 31
0.0
  0
LINE
  5
2465F
  8
0
 10
4740.6874710127040089
 20
350.8035258537448726
 30
0.0
 11
4740.6682987740969111
 21
350.7282109347574988
 31
0.0
  0
LINE
  5
24660
  8
0
 10
4740.6907613037537885
 20
350.7365300697762791
 30
0.0
 11
4740.7026920222760964
 21
350.7833978937263169
 31
0.0
  0
LINE
  5
24661
  8
0
 10
4740.6908332166667606
 20
350.803937947557074
 30
0.0
 11
4740.7253236527449189
 21
350.7441173172932736
 31
0.0
  0
ARC
  5
24662
  8
0
 10
4740.7397624110662946
 20
350.8509831451603986
 30
0.0
 40
0.1025692530552762
 50
244.8997126751804956
 51
259.9978018008555978
  0
ARC
  5
24663
  8
0
 10
4740.7112922745018295
 20
350.8346117129132153
 30
0.0
 40
0.1002074322604594
 50
258.1772498050726767
 51
270.2064683819207858
  0
LINE
  5
24664
  8
0
 10
4740.6907613037537885
 20
350.7365300697762791
 30
0.0
 11
4740.6746557086244138
 21
350.7272315000918752
 31
0.0
  0
LINE
  5
24665
  8
0
 10
4740.6762414966378856
 20
350.8066861500784057
 30
0.0
 11
4740.6569995634754378
 21
350.7310974478979801
 31
0.0
  0
LINE
  5
24666
  8
0
 10
4740.6735246079106219
 20
350.8088090685760108
 30
0.0
 11
4740.6060884031003297
 21
350.7698747575749962
 31
0.0
  0
ARC
  5
24667
  8
0
 10
4740.7450835176287001
 20
350.8569144777645192
 30
0.0
 40
0.1076694445995616
 50
213.1311317025445931
 51
225.4173578750545062
  0
LINE
  5
24668
  8
0
 10
4740.5540568172127678
 20
351.0500638993826215
 30
0.0
 11
4740.4931732618942988
 21
350.9456862435267794
 31
0.0
  0
LINE
  5
24669
  8
0
 10
4740.4999703953617427
 20
351.0799725565607901
 30
0.0
 11
4740.4388092897943352
 21
350.9749976276268058
 31
0.0
  0
ARC
  5
2466A
  8
0
 10
4740.4660405788063144
 20
350.9614737575292907
 30
0.0
 40
0.0313915297367547
 50
286.8490128921072255
 51
329.8053905536892216
  0
ARC
  5
2466B
  8
0
 10
4740.4660490815622325
 20
350.9614456818655981
 30
0.0
 40
0.0313621947789864
 50
225.5789908653320879
 51
286.8490128921072255
  0
ARC
  5
2466C
  8
0
 10
4740.4650584672963305
 20
350.9604348416194739
 30
0.0
 40
0.0299468804585016
 50
170.7678852522741124
 51
225.5789908653298141
  0
ARC
  5
2466D
  8
0
 10
4740.4662995371963916
 20
350.9602331182147736
 30
0.0
 40
0.031204237539313
 50
151.7605673516906961
 51
170.7678852522707871
  0
ARC
  5
2466E
  8
0
 10
4740.527713751880583
 20
351.0654172135618865
 30
0.0
 40
0.0304906764004633
 50
329.7654330213371736
 51
31.9128612754490888
  0
ARC
  5
2466F
  8
0
 10
4740.5282679500678569
 20
351.0657623441754822
 30
0.0
 40
0.0298377975675601
 50
31.9128612754490888
 51
60.1702555847706506
  0
ARC
  5
24670
  8
0
 10
4740.5271001972596423
 20
351.0637257851258255
 30
0.0
 40
0.0321853962097832
 50
60.1702555847706506
 51
119.829744415231005
  0
ARC
  5
24671
  8
0
 10
4740.5312287788019603
 20
351.0613314794686062
 30
0.0
 40
0.0363947288828287
 50
123.5959308042857003
 51
149.1900734068796055
  0
ARC
  5
24672
  8
0
 10
4740.5164481767005782
 20
351.0586797638648022
 30
0.0
 40
0.0315179375745036
 50
247.7638543051079978
 51
328.7839900230981129
  0
ARC
  5
24673
  8
0
 10
4740.5162124808093722
 20
351.0581032486280719
 30
0.0
 40
0.0308951034302851
 50
185.6271687688484064
 51
247.7638543051091915
  0
LINE
  5
24674
  8
0
 10
4740.5434029307616584
 20
351.0423450884028966
 30
0.0
 11
4740.543402930904449
 21
351.0914766693423985
 31
0.0
  0
LINE
  5
24675
  8
0
 10
4739.9271445071753988
 20
350.1118020241810882
 30
0.0
 11
4739.9880280624938678
 21
350.2161796800368734
 31
0.0
  0
LINE
  5
24676
  8
0
 10
4739.9812309290282428
 20
350.0818933670028059
 30
0.0
 11
4740.0423920345938313
 21
350.1868682959369039
 31
0.0
  0
ARC
  5
24677
  8
0
 10
4740.0151607455818521
 20
350.200392166034419
 30
0.0
 40
0.0313915297367547
 50
106.8490128921072966
 51
149.8053905536891932
  0
ARC
  5
24678
  8
0
 10
4740.0151522428259341
 20
350.2004202416981116
 30
0.0
 40
0.0313621947789864
 50
45.5789908653321234
 51
106.8490128921072966
  0
ARC
  5
24679
  8
0
 10
4740.0161428570927455
 20
350.2014310819441221
 30
0.0
 40
0.0299468804585016
 50
350.7678852522709008
 51
45.5789908653298568
  0
ARC
  5
2467A
  8
0
 10
4740.0149017871917749
 20
350.2016328053488792
 30
0.0
 40
0.031204237539313
 50
331.7605673516907245
 51
350.7678852522709008
  0
ARC
  5
2467B
  8
0
 10
4739.953487572506674
 20
350.0964487100018232
 30
0.0
 40
0.0304906764004633
 50
149.765433021337202
 51
211.912861275449103
  0
ARC
  5
2467C
  8
0
 10
4739.9529333743212192
 20
350.0961035793881138
 30
0.0
 40
0.0298377975675601
 50
211.912861275449103
 51
240.1702555847707004
  0
ARC
  5
2467D
  8
0
 10
4739.9541011271294337
 20
350.0981401384378273
 30
0.0
 40
0.0321853962097832
 50
240.1702555847707004
 51
299.829744415231005
  0
ARC
  5
2467E
  8
0
 10
4739.9499725455871157
 20
350.1005344440951035
 30
0.0
 40
0.0363947288828287
 50
303.5959308042856719
 51
329.1900734068796055
  0
ARC
  5
2467F
  8
0
 10
4739.9647531476875884
 20
350.1031861596989074
 30
0.0
 40
0.0315179375745036
 50
67.763854305108012
 51
148.7839900230979993
  0
ARC
  5
24680
  8
0
 10
4739.9649888435787943
 20
350.103762674935524
 30
0.0
 40
0.0308951034302851
 50
5.6271687688484766
 51
67.7638543051092483
  0
LINE
  5
24681
  8
0
 10
4739.9377983936274177
 20
350.119520835160813
 30
0.0
 11
4739.937798393484627
 21
350.0703892542213111
 31
0.0
  0
LINE
  5
24682
  8
0
 10
4740.5540568172127678
 20
350.1101734500639964
 30
0.0
 11
4740.4931732618942988
 21
350.2145511059197815
 31
0.0
  0
LINE
  5
24683
  8
0
 10
4740.4999703953617427
 20
350.0802647928857141
 30
0.0
 11
4740.4388092897943352
 21
350.1852397218196984
 31
0.0
  0
ARC
  5
24684
  8
0
 10
4740.4660405788063144
 20
350.1987635919172135
 30
0.0
 40
0.0313915297367547
 50
30.1946094463108103
 51
73.1509871078927461
  0
ARC
  5
24685
  8
0
 10
4740.4660490815622325
 20
350.1987916675810197
 30
0.0
 40
0.0313621947789864
 50
73.1509871078927461
 51
134.4210091346679121
  0
ARC
  5
24686
  8
0
 10
4740.4650584672963305
 20
350.1998025078269734
 30
0.0
 40
0.0299468804585016
 50
134.4210091346701006
 51
189.2321147477258876
  0
ARC
  5
24687
  8
0
 10
4740.4662995371963916
 20
350.2000042312317873
 30
0.0
 40
0.031204237539313
 50
189.2321147477290992
 51
208.2394326483091902
  0
ARC
  5
24688
  8
0
 10
4740.527713751880583
 20
350.0948201358846745
 30
0.0
 40
0.0304906764004633
 50
328.0871387245509254
 51
30.2345669786628193
  0
ARC
  5
24689
  8
0
 10
4740.5282679500678569
 20
350.0944750052710219
 30
0.0
 40
0.0298377975675601
 50
299.8297444152294133
 51
328.0871387245509254
  0
ARC
  5
2468A
  8
0
 10
4740.5271001972596423
 20
350.0965115643206786
 30
0.0
 40
0.0321853962097832
 50
240.170255584768995
 51
299.8297444152294133
  0
ARC
  5
2468B
  8
0
 10
4740.5312287788019603
 20
350.098905869977898
 30
0.0
 40
0.0363947288828287
 50
210.8099265931203945
 51
236.4040691957142997
  0
ARC
  5
2468C
  8
0
 10
4740.5164481767005782
 20
350.1015575855817019
 30
0.0
 40
0.0315179375745036
 50
31.2160099769019403
 51
112.2361456948920022
  0
ARC
  5
2468D
  8
0
 10
4740.5162124808093722
 20
350.1021341008183754
 30
0.0
 40
0.0308951034302851
 50
112.2361456948906948
 51
174.3728312311515083
  0
LINE
  5
2468E
  8
0
 10
4740.5434029307616584
 20
350.1178922610436075
 30
0.0
 11
4740.543402930904449
 21
350.0687606801041056
 31
0.0
  0
LINE
  5
2468F
  8
0
 10
4739.789159531016594
 20
350.6133520967828758
 30
0.0
 11
4739.6683240517986633
 21
350.6128142191319057
 31
0.0
  0
LINE
  5
24690
  8
0
 10
4739.7880179770008908
 20
350.5515575528708041
 30
0.0
 11
4739.6665264690000186
 21
350.55107794619272
 31
0.0
  0
ARC
  5
24691
  8
0
 10
4739.6684300984443325
 20
350.5814228693035943
 30
0.0
 40
0.0313915297367546
 50
90.1946094463107357
 51
133.150987107886408
  0
ARC
  5
24692
  8
0
 10
4739.668410035584202
 20
350.5814442707379044
 30
0.0
 40
0.0313621947789864
 50
133.1509871078841911
 51
194.421009134680304
  0
ARC
  5
24693
  8
0
 10
4739.6670393151189273
 20
350.5810917937416775
 30
0.0
 40
0.0299468804585016
 50
194.421009134683402
 51
249.2321147477441059
  0
ARC
  5
24694
  8
0
 10
4739.6674851524758196
 20
350.5822674535053238
 30
0.0
 40
0.031204237539313
 50
249.2321147477441059
 51
268.2394326482988731
  0
ARC
  5
24695
  8
0
 10
4739.7892843584631919
 20
350.5828616759025067
 30
0.0
 40
0.0304906764004633
 50
28.0871387245689093
 51
90.2345669786633096
  0
ARC
  5
24696
  8
0
 10
4739.7898603494350027
 20
350.5831690603038737
 30
0.0
 40
0.0298377975675601
 50
359.8297444152494791
 51
28.0871387245689093
  0
ARC
  5
24697
  8
0
 10
4739.7875127611569042
 20
350.5831760362311798
 30
0.0
 40
0.0321853962097832
 50
300.1702555847288068
 51
359.8297444152494791
  0
ARC
  5
24698
  8
0
 10
4739.7875035224051317
 20
350.5879486455573897
 30
0.0
 40
0.0363947288828287
 50
270.8099265931365949
 51
296.4040691957004015
  0
ARC
  5
24699
  8
0
 10
4739.7778167682781714
 20
350.5764741264559916
 30
0.0
 40
0.0315179375745036
 50
91.2160099768956059
 51
172.236145694912409
  0
ARC
  5
2469A
  8
0
 10
4739.7771996434921675
 20
350.5765582654449872
 30
0.0
 40
0.0308951034302851
 50
172.2361456949059004
 51
234.3728312311403101
  0
LINE
  5
2469B
  8
0
 10
4739.7771479013963472
 20
350.6079849659568026
 30
0.0
 11
4739.8196970986891756
 21
350.583419175610004
 31
0.0
  0
LINE
  5
2469C
  8
0
 10
4740.6920417933715726
 20
350.6133520967828758
 30
0.0
 11
4740.8128772725885938
 21
350.6128142191319057
 31
0.0
  0
LINE
  5
2469D
  8
0
 10
4740.6931833473881852
 20
350.5515575528708041
 30
0.0
 11
4740.814674855388148
 21
350.55107794619272
 31
0.0
  0
ARC
  5
2469E
  8
0
 10
4740.8127712259447435
 20
350.5814228693035943
 30
0.0
 40
0.0313915297367546
 50
46.8490128921135209
 51
89.8053905536892643
  0
ARC
  5
2469F
  8
0
 10
4740.8127912888057836
 20
350.5814442707379044
 30
0.0
 40
0.0313621947789864
 50
345.578990865316598
 51
46.8490128921157378
  0
ARC
  5
246A0
  8
0
 10
4740.8141620092701487
 20
350.5810917937416775
 30
0.0
 40
0.0299468804585016
 50
290.7678852522558941
 51
345.578990865316598
  0
ARC
  5
246A1
  8
0
 10
4740.8137161719132564
 20
350.5822674535053238
 30
0.0
 40
0.031204237539313
 50
271.7605673517011269
 51
290.7678852522558941
  0
ARC
  5
246A2
  8
0
 10
4740.6919169659258841
 20
350.5828616759025067
 30
0.0
 40
0.0304906764004633
 50
89.7654330213366762
 51
151.9128612754311121
  0
ARC
  5
246A3
  8
0
 10
4740.6913409749540733
 20
350.5831690603038737
 30
0.0
 40
0.0298377975675601
 50
151.9128612754311121
 51
180.1702555847504073
  0
ARC
  5
246A4
  8
0
 10
4740.6936885632312624
 20
350.5831760362311798
 30
0.0
 40
0.0321853962097832
 50
180.1702555847504073
 51
239.829744415271108
  0
ARC
  5
246A5
  8
0
 10
4740.6936978019839444
 20
350.5879486455573897
 30
0.0
 40
0.0363947288828287
 50
243.5959308042995985
 51
269.1900734068632914
  0
ARC
  5
246A6
  8
0
 10
4740.7033845561109047
 20
350.5764741264559916
 30
0.0
 40
0.0315179375745036
 50
7.7638543050876452
 51
88.7839900231044368
  0
ARC
  5
246A7
  8
0
 10
4740.7040016808969085
 20
350.5765582654449872
 30
0.0
 40
0.0308951034302851
 50
305.6271687688596899
 51
7.7638543050940996
  0
LINE
  5
246A8
  8
0
 10
4740.7040534229927289
 20
350.6079849659568026
 30
0.0
 11
4740.6615042256999004
 21
350.583419175610004
 31
0.0
  0
CIRCLE
  5
246A9
  8
0
 10
4740.2406006621949928
 20
351.3836732612987817
 30
0.0
 40
0.0326789792248619
  0
LINE
  5
246AA
  8
0
 10
4740.1616058047893603
 20
351.4091016814417117
 30
0.0
 11
4740.1615845878759501
 21
351.3897208565110191
 31
0.0
  0
ARC
  5
246AB
  8
0
 10
4740.2402357096743799
 20
351.4068349091763253
 30
0.0
 40
0.0786625717782985
 50
89.7341770847121865
 51
178.3487132153013022
  0
ARC
  5
246AC
  8
0
 10
4740.2384499963964117
 20
351.389684723063624
 30
0.0
 40
0.076865417013315
 50
179.9730659872998046
 51
214.7471282712479024
  0
ARC
  5
246AD
  8
0
 10
4740.239899734608116
 20
351.390690334618796
 30
0.0
 40
0.0786297853087884
 50
214.7471282712479024
 51
270.5107571411132881
  0
ARC
  5
246AE
  8
0
 10
4740.2409656147146961
 20
351.4068349091763253
 30
0.0
 40
0.0786625717782985
 50
1.6512867846986501
 51
90.2658229152877993
  0
ARC
  5
246AF
  8
0
 10
4740.2427513279917548
 20
351.389684723063624
 30
0.0
 40
0.076865417013315
 50
325.2528717287520976
 51
0.0269340127001792
  0
ARC
  5
246B0
  8
0
 10
4740.2413015897809601
 20
351.390690334618796
 30
0.0
 40
0.0786297853087884
 50
269.4892428588868256
 51
325.2528717287520976
  0
LINE
  5
246B1
  8
0
 10
4740.3195955195997158
 20
351.4091016814417117
 30
0.0
 11
4740.3196167365122164
 21
351.3897208565110191
 31
0.0
  0
CIRCLE
  5
246B2
  8
0
 10
4740.0192937550782517
 20
351.3544517123576725
 30
0.0
 40
0.0326789792248619
  0
LINE
  5
246B3
  8
0
 10
4739.9387266973717487
 20
351.3743449589592842
 30
0.0
 11
4739.9400485498135822
 21
351.3550092528363962
 31
0.0
  0
ARC
  5
246B4
  8
0
 10
4740.0173246646791085
 20
351.3775323927148975
 30
0.0
 40
0.0786625717782985
 50
93.7077438326256669
 51
182.3222799632445117
  0
ARC
  5
246B5
  8
0
 10
4740.0167316874949393
 20
351.3602996902667996
 30
0.0
 40
0.076865417013315
 50
183.9466327352403141
 51
218.7206950191942099
  0
ARC
  5
246B6
  8
0
 10
4740.0181082556164256
 20
351.3614033458698032
 30
0.0
 40
0.0786297853087884
 50
218.7206950191942099
 51
265.0294682220369964
  0
ARC
  5
246B7
  8
0
 10
4740.0180528151222461
 20
351.377582972391906
 30
0.0
 40
0.0786625717782985
 50
5.6248535326348561
 51
94.2393896632423633
  0
ARC
  5
246B8
  8
0
 10
4740.0210226792323738
 20
351.3605977563856868
 30
0.0
 40
0.076865417013315
 50
329.2264384766993999
 51
4.0005007606403007
  0
ARC
  5
246B9
  8
0
 10
4740.0195067409049443
 20
351.3615004891663034
 30
0.0
 40
0.0786297853087884
 50
305.0736397703112175
 51
329.2264384766993999
  0
LINE
  5
246BA
  8
0
 10
4740.0963366248261082
 20
351.385293052608688
 30
0.0
 11
4740.0977008090858362
 21
351.3659602869902869
 31
0.0
  0
CIRCLE
  5
246BB
  8
0
 10
4739.8227728665824543
 20
351.271261626621822
 30
0.0
 40
0.0326789792248619
  0
LINE
  5
246BC
  8
0
 10
4739.7422058088777703
 20
351.2911548732233769
 30
0.0
 11
4739.7435276613186943
 21
351.2718191671003751
 31
0.0
  0
ARC
  5
246BD
  8
0
 10
4739.8208037761851301
 20
351.2943423069788764
 30
0.0
 40
0.0786625717782985
 50
93.7077438326256669
 51
182.3222799632445117
  0
ARC
  5
246BE
  8
0
 10
4739.8202107990000513
 20
351.2771096045307786
 30
0.0
 40
0.076865417013315
 50
183.9466327352403141
 51
218.7206950191942099
  0
ARC
  5
246BF
  8
0
 10
4739.8215873671197187
 20
351.2782132601337821
 30
0.0
 40
0.0786297853087884
 50
218.7206950191942099
 51
274.4843238890762223
  0
ARC
  5
246C0
  8
0
 10
4739.8215319266264487
 20
351.2943928866559986
 30
0.0
 40
0.0786625717782985
 50
5.6248535326348561
 51
94.2393896632423633
  0
ARC
  5
246C1
  8
0
 10
4739.8245017907356669
 20
351.2774076706497794
 30
0.0
 40
0.076865417013315
 50
329.2264384766993999
 51
4.0005007606403007
  0
ARC
  5
246C2
  8
0
 10
4739.8229858524109659
 20
351.278310403430396
 30
0.0
 40
0.0786297853087884
 50
273.4628096068055925
 51
276.1217176712294759
  0
ARC
  5
246C3
  8
0
 10
4739.8229858524109659
 20
351.278310403430396
 30
0.0
 40
0.0786297853087884
 50
323.9760566719634198
 51
329.2264384766993999
  0
LINE
  5
246C4
  8
0
 10
4739.8998157363321297
 20
351.3021029668727806
 30
0.0
 11
4739.9011799205918578
 21
351.2827702012543796
 31
0.0
  0
CIRCLE
  5
246C5
  8
0
 10
4739.4349051674162183
 20
350.8123534408799173
 30
0.0
 40
0.0326789792248619
  0
LINE
  5
246C6
  8
0
 10
4739.3559103100124048
 20
350.8377818610226768
 30
0.0
 11
4739.3558890930989946
 21
350.8184010360919842
 31
0.0
  0
ARC
  5
246C7
  8
0
 10
4739.4345402148956055
 20
350.8355150887571767
 30
0.0
 40
0.0786625717782985
 50
89.7341770847121865
 51
178.3487132153013022
  0
ARC
  5
246C8
  8
0
 10
4739.4327545016203658
 20
350.8183649026447029
 30
0.0
 40
0.076865417013315
 50
179.9730659872998046
 51
214.7471282712479024
  0
ARC
  5
246C9
  8
0
 10
4739.434204239830251
 20
350.819370514199818
 30
0.0
 40
0.0786297853087884
 50
214.7471282712479024
 51
270.5107571411132881
  0
ARC
  5
246CA
  8
0
 10
4739.4352701199377407
 20
350.8355150887571767
 30
0.0
 40
0.0786625717782985
 50
1.6512867846986501
 51
90.2658229152877993
  0
ARC
  5
246CB
  8
0
 10
4739.4370558332147993
 20
350.8183649026447029
 30
0.0
 40
0.076865417013315
 50
325.2528717287520976
 51
0.0269340127001792
  0
ARC
  5
246CC
  8
0
 10
4739.4356060950030951
 20
350.819370514199818
 30
0.0
 40
0.0786297853087884
 50
269.4892428588868256
 51
325.2528717287520976
  0
LINE
  5
246CD
  8
0
 10
4739.5139000248227603
 20
350.8377818610226768
 30
0.0
 11
4739.513921241735261
 21
350.8184010360919842
 31
0.0
  0
CIRCLE
  5
246CE
  8
0
 10
4739.3943954328169639
 20
350.6008508776815802
 30
0.0
 40
0.0326789792248619
  0
LINE
  5
246CF
  8
0
 10
4739.3154005754122409
 20
350.6262792978245102
 30
0.0
 11
4739.3153793584979212
 21
350.6068984728938176
 31
0.0
  0
ARC
  5
246D0
  8
0
 10
4739.3940304802972605
 20
350.6240125255591238
 30
0.0
 40
0.0786625717782985
 50
89.7341770847121865
 51
178.3487132153013022
  0
ARC
  5
246D1
  8
0
 10
4739.3922447670192923
 20
350.6068623394464225
 30
0.0
 40
0.076865417013315
 50
179.9730659872998046
 51
214.7471282712479024
  0
ARC
  5
246D2
  8
0
 10
4739.3936945052300871
 20
350.6078679510017082
 30
0.0
 40
0.0786297853087884
 50
214.7471282712479024
 51
270.5107571411132881
  0
ARC
  5
246D3
  8
0
 10
4739.3947603853375767
 20
350.6240125255591238
 30
0.0
 40
0.0786625717782985
 50
1.6512867846986501
 51
90.2658229152877993
  0
ARC
  5
246D4
  8
0
 10
4739.3965460986164544
 20
350.6068623394464225
 30
0.0
 40
0.076865417013315
 50
325.2528717287520976
 51
0.0269340127001792
  0
ARC
  5
246D5
  8
0
 10
4739.3950963604038407
 20
350.6078679510017082
 30
0.0
 40
0.0786297853087884
 50
269.4892428588868256
 51
325.2528717287520976
  0
LINE
  5
246D6
  8
0
 10
4739.4733902902244154
 20
350.6262792978245102
 30
0.0
 11
4739.4734115071360065
 21
350.6068984728938176
 31
0.0
  0
CIRCLE
  5
246D7
  8
0
 10
4739.4149763182567767
 20
350.3858351455101001
 30
0.0
 40
0.0326789792248619
  0
LINE
  5
246D8
  8
0
 10
4739.3359814608520537
 20
350.4112635656529164
 30
0.0
 11
4739.3359602439386435
 21
350.3918827407222238
 31
0.0
  0
ARC
  5
246D9
  8
0
 10
4739.4146113657370734
 20
350.4089967933874732
 30
0.0
 40
0.0786625717782985
 50
89.7341770847121865
 51
178.3487132153013022
  0
ARC
  5
246DA
  8
0
 10
4739.4128256524600147
 20
350.3918466072747719
 30
0.0
 40
0.076865417013315
 50
179.9730659872998046
 51
214.7471282712479024
  0
ARC
  5
246DB
  8
0
 10
4739.4142753906717189
 20
350.3928522188301145
 30
0.0
 40
0.0786297853087884
 50
214.7471282712479024
 51
270.5107571411132881
  0
ARC
  5
246DC
  8
0
 10
4739.4153412707782991
 20
350.4089967933874732
 30
0.0
 40
0.0786625717782985
 50
1.6512867846986501
 51
90.2658229152877993
  0
ARC
  5
246DD
  8
0
 10
4739.4171269840562672
 20
350.3918466072747719
 30
0.0
 40
0.076865417013315
 50
325.2528717287520976
 51
0.0269340127001792
  0
ARC
  5
246DE
  8
0
 10
4739.4156772458436535
 20
350.3928522188301145
 30
0.0
 40
0.0786297853087884
 50
269.4892428588868256
 51
325.2528717287520976
  0
LINE
  5
246DF
  8
0
 10
4739.4939711756633187
 20
350.4112635656529164
 30
0.0
 11
4739.4939923925767289
 21
350.3918827407222238
 31
0.0
  0
ARC
  5
246E0
  8
0
 10
4739.736724715845412
 20
349.9144862458571765
 30
0.0
 40
0.0726755707707617
 50
132.3498754183121946
 51
179.8226337406080972
  0
ARC
  5
246E1
  8
0
 10
4739.7412144045292735
 20
349.9095607626446167
 30
0.0
 40
0.0793402305040823
 50
88.8619793298880154
 51
132.3498754183121946
  0
ARC
  5
246E2
  8
0
 10
4739.7411235397448763
 20
349.9049866067596781
 30
0.0
 40
0.0839152888062889
 50
31.617407802796059
 51
88.8619793298880154
  0
ARC
  5
246E3
  8
0
 10
4739.7719688095412494
 20
349.9239756641761119
 30
0.0
 40
0.04769354160504
 50
8.2836623424170881
 51
31.617407802796059
  0
ARC
  5
246E4
  8
0
 10
4739.7083418931688357
 20
349.9065540383348889
 30
0.0
 40
0.1134542154871036
 50
356.0733370574204741
 51
12.3640134679555196
  0
ARC
  5
246E5
  8
0
 10
4739.7353344175226084
 20
349.8985535354215131
 30
0.0
 40
0.0861956696643944
 50
333.742045363143518
 51
0.1536881829689451
  0
ARC
  5
246E6
  8
0
 10
4739.7460556568294123
 20
349.8932645547033076
 30
0.0
 40
0.0742408259045492
 50
274.8555497554696103
 51
333.742045363143518
  0
ARC
  5
246E7
  8
0
 10
4739.7452990084066187
 20
349.9021716672787079
 30
0.0
 40
0.0831800188921078
 50
204.2729616935590968
 51
274.8555497554696103
  0
ARC
  5
246E8
  8
0
 10
4739.7412953541006573
 20
349.8964512578637027
 30
0.0
 40
0.077261199303182
 50
178.8596288949165967
 51
201.6253967916686918
  0
LINE
  5
246E9
  8
0
 10
4739.6640494932953516
 20
349.9147112218267921
 30
0.0
 11
4739.6640494573630349
 21
349.8979889037955786
 31
0.0
  0
CIRCLE
  5
246EA
  8
0
 10
4739.7428554631642328
 20
349.8873612918071103
 30
0.0
 40
0.0336370433295245
  0
ARC
  5
246EB
  8
0
 10
4739.9307854863964167
 20
349.8130772023358759
 30
0.0
 40
0.0726755707707617
 50
132.3498754183121946
 51
179.8226337406080972
  0
ARC
  5
246EC
  8
0
 10
4739.9352751750802781
 20
349.8081517191233729
 30
0.0
 40
0.0793402305040823
 50
88.8619793298880154
 51
132.3498754183121946
  0
ARC
  5
246ED
  8
0
 10
4739.935184310295881
 20
349.8035775632383775
 30
0.0
 40
0.0839152888062889
 50
31.617407802796059
 51
88.8619793298880154
  0
ARC
  5
246EE
  8
0
 10
4739.966029580092254
 20
349.8225666206548112
 30
0.0
 40
0.04769354160504
 50
8.2836623424170881
 51
31.617407802796059
  0
ARC
  5
246EF
  8
0
 10
4739.9024026637189309
 20
349.8051449948137019
 30
0.0
 40
0.1134542154871036
 50
356.0733370574204741
 51
12.3640134679555196
  0
ARC
  5
246F0
  8
0
 10
4739.9293951880727036
 20
349.7971444919003261
 30
0.0
 40
0.0861956696643944
 50
333.742045363143518
 51
0.1536881829689451
  0
ARC
  5
246F1
  8
0
 10
4739.9401164273813265
 20
349.7918555111820069
 30
0.0
 40
0.0742408259045492
 50
274.8555497554696103
 51
333.742045363143518
  0
ARC
  5
246F2
  8
0
 10
4739.9393597789576233
 20
349.8007626237574073
 30
0.0
 40
0.0831800188921078
 50
204.2729616935590968
 51
274.8555497554696103
  0
ARC
  5
246F3
  8
0
 10
4739.9353561246525715
 20
349.7950422143424021
 30
0.0
 40
0.077261199303182
 50
178.8596288949165967
 51
201.6253967916686918
  0
LINE
  5
246F4
  8
0
 10
4739.8581102638463562
 20
349.8133021783054915
 30
0.0
 11
4739.8581102279158586
 21
349.7965798602743916
 31
0.0
  0
CIRCLE
  5
246F5
  8
0
 10
4739.9369162337152375
 20
349.7859522482859234
 30
0.0
 40
0.0336370433295245
  0
ARC
  5
246F6
  8
0
 10
4740.1451606330338109
 20
349.7640297790954946
 30
0.0
 40
0.0726755707707617
 50
132.3498754183121946
 51
179.8226337406080972
  0
ARC
  5
246F7
  8
0
 10
4740.1496503217185818
 20
349.759104295882878
 30
0.0
 40
0.0793402305040823
 50
88.8619793298880154
 51
132.3498754183121946
  0
ARC
  5
246F8
  8
0
 10
4740.1495594569360037
 20
349.7545301399979962
 30
0.0
 40
0.0839152888062889
 50
31.617407802796059
 51
88.8619793298880154
  0
ARC
  5
246F9
  8
0
 10
4740.1804047267305577
 20
349.7735191974143731
 30
0.0
 40
0.04769354160504
 50
8.2836623424170881
 51
31.617407802796059
  0
ARC
  5
246FA
  8
0
 10
4740.1167778103590535
 20
349.7560975715733207
 30
0.0
 40
0.1134542154871036
 50
356.0733370574204741
 51
12.3640134679555196
  0
ARC
  5
246FB
  8
0
 10
4740.1437703347128263
 20
349.748097068659888
 30
0.0
 40
0.0861956696643944
 50
333.742045363143518
 51
0.1536881829689451
  0
ARC
  5
246FC
  8
0
 10
4740.1544915740196302
 20
349.742808087941512
 30
0.0
 40
0.0742408259045492
 50
274.8555497554696103
 51
333.742045363143518
  0
ARC
  5
246FD
  8
0
 10
4740.1537349255968365
 20
349.751715200517026
 30
0.0
 40
0.0831800188921078
 50
204.2729616935590968
 51
274.8555497554696103
  0
ARC
  5
246FE
  8
0
 10
4740.1497312712917847
 20
349.7459947911020208
 30
0.0
 40
0.077261199303182
 50
178.8596288949165967
 51
201.6253967916686918
  0
LINE
  5
246FF
  8
0
 10
4740.0724854104837505
 20
349.7642547550649965
 30
0.0
 11
4740.0724853745541623
 21
349.7475324370338967
 31
0.0
  0
CIRCLE
  5
24700
  8
0
 10
4740.1512913803544507
 20
349.7369048250453716
 30
0.0
 40
0.0336370433295245
  0
ARC
  5
24701
  8
0
 10
4740.7991556702136222
 20
343.465322820726783
 30
0.0
 40
0.06
 50
270.0
 51
1.4148330980276831
  0
LINE
  5
24702
  8
0
 10
4740.6733797693941597
 20
342.8371870824267944
 30
0.0
 11
4740.6936799453942513
 21
343.3928847412267942
 31
0.0
  0
ARC
  5
24703
  8
0
 10
4740.2997732102094233
 20
342.3397137461089983
 30
0.0
 40
0.6221427339553303
 50
45.3485751625451101
 51
57.7529191855740294
  0
ARC
  5
24704
  8
0
 10
4740.1793548340538109
 20
342.2178211842909263
 30
0.0
 40
0.793485612250893
 50
23.2273472801564083
 51
45.3485751625451101
  0
ARC
  5
24705
  8
0
 10
4740.3024938102462329
 20
342.2706682021200209
 30
0.0
 40
0.6594855572089634
 50
356.8334364792515885
 51
23.2273472801564083
  0
ARC
  5
24706
  8
0
 10
4740.1753386508471522
 20
342.2777028449028762
 30
0.0
 40
0.7868351577614331
 50
332.5603593522462234
 51
356.8334364792515885
  0
ARC
  5
24707
  8
0
 10
4740.2744312726727003
 20
342.2262510983377979
 30
0.0
 40
0.6751810941315611
 50
306.6618050970005243
 51
332.5603593522462234
  0
ARC
  5
24708
  8
0
 10
4740.2553252206153047
 20
342.2229484302192191
 30
0.0
 40
0.6841585450547152
 50
291.0191250569886847
 51
308.1106345857920132
  0
LINE
  5
24709
  8
0
 10
4740.6028885937939776
 20
342.8481799597267923
 30
0.0
 11
4740.5923471238947968
 21
341.6647250158267752
 31
0.0
  0
ARC
  5
2470A
  8
0
 10
4740.6123554426376359
 20
341.6645787525636138
 30
0.0
 40
0.0200091757565157
 50
179.5832996200570904
 51
269.2838965059767133
  0
ARC
  5
2470B
  8
0
 10
4740.6122005621627977
 20
341.6648649476489936
 30
0.0
 40
0.0202940313254545
 50
269.7312367381431955
 51
301.199519672225108
  0
ARC
  5
2470C
  8
0
 10
4740.1609220474638278
 20
342.3931688447889883
 30
0.0
 40
0.8770770257199521
 50
301.7700590717162754
 51
305.7534818091622242
  0
ARC
  5
2470D
  8
0
 10
4740.6592885924956136
 20
341.7141601723891995
 30
0.0
 40
0.0356809382656406
 50
271.5280510808624967
 51
293.2916685256902838
  0
ARC
  5
2470E
  8
0
 10
4740.6606061169895838
 20
341.6988926281561021
 30
0.0
 40
0.0204039891529283
 50
181.4981344112470936
 51
268.9720693997555259
  0
LINE
  5
2470F
  8
0
 10
4740.6402091023937828
 20
341.6983591781267933
 30
0.0
 11
4740.6402092338948933
 21
342.8211803977267778
 31
0.0
  0
ARC
  5
24710
  8
0
 10
4740.6605916411062935
 20
342.8206536717294739
 30
0.0
 40
0.0203892119518937
 50
90.5052486736953767
 51
178.5196811685788987
  0
ARC
  5
24711
  8
0
 10
4740.6590185422555805
 20
342.8126161304265906
 30
0.0
 40
0.0284600865580023
 50
59.6945732512813407
 51
87.1938820692097778
  0
ARC
  5
24712
  8
0
 10
4740.6227743880763228
 20
342.8480060834336882
 30
0.0
 40
0.0200049400988359
 50
63.403158007715831
 51
88.2623960826935701
  0
ARC
  5
24713
  8
0
 10
4740.6234406163166568
 20
342.8462828495740951
 30
0.0
 40
0.02171905704386
 50
90.1573151408752835
 51
125.702600668505994
  0
ARC
  5
24714
  8
0
 10
4740.6233817578367962
 20
342.8477650624091098
 30
0.0
 40
0.0204973635441142
 50
127.9874787694947997
 51
178.8401684548140906
  0
ARC
  5
24715
  8
0
 10
4740.6816879444622828
 20
343.3933228207267803
 30
0.0
 40
0.012
 50
357.9078597741819863
 51
90.0
  0
LINE
  5
24716
  8
0
 10
4740.746326660793784
 20
348.034314170218579
 30
0.0
 11
4740.8591373780818685
 21
343.4668042799136742
 31
0.0
  0
ARC
  5
24717
  8
0
 10
4743.069455606626434
 20
348.0536277720203771
 30
0.0
 40
2.3231773653159511
 50
171.5001050431945089
 51
180.4763306642093994
  0
ARC
  5
24718
  8
0
 10
4740.2375785829162851
 20
350.8272219896139745
 30
0.0
 40
2.2016182991539699
 50
87.6626705790407783
 51
89.9213521969737144
  0
ARC
  5
24719
  8
0
 10
4740.2156226853403496
 20
350.5041639618294766
 30
0.0
 40
2.5253181790591182
 50
75.1469712477203444
 51
87.4638635272088152
  0
ARC
  5
2471A
  8
0
 10
4740.2503125974517388
 20
350.6349696933926907
 30
0.0
 40
2.3899906895676568
 50
47.5170763321584886
 51
75.1469712477203444
  0
ARC
  5
2471B
  8
0
 10
4740.334998440011077
 20
350.7274433901391717
 30
0.0
 40
2.264598997179625
 50
13.5086400688239401
 51
47.5170763321584886
  0
ARC
  5
2471C
  8
0
 10
4740.2056265090186571
 20
350.6963633033017231
 30
0.0
 40
2.397651875113036
 50
0.6395446371615779
 51
13.5086400688239401
  0
ARC
  5
2471D
  8
0
 10
4740.1230796730696966
 20
350.6954418640727908
 30
0.0
 40
2.4802038537414308
 50
337.4460126111500813
 51
0.6395446371615779
  0
ARC
  5
2471E
  8
0
 10
4740.3936716101243292
 20
350.5830601843434806
 30
0.0
 40
2.187202764429788
 50
304.6115005824955233
 51
337.4460126111500813
  0
ARC
  5
2471F
  8
0
 10
4740.16541471122855
 20
350.9137953470589082
 30
0.0
 40
2.5890571656122749
 50
285.8716993559111756
 51
304.6115005824955233
  0
ARC
  5
24720
  8
0
 10
4740.2408295615559837
 20
350.6485522793680047
 30
0.0
 40
2.313301323230128
 50
272.0178067176947252
 51
285.8716993559111756
  0
ARC
  5
24721
  8
0
 10
4740.1583736898328425
 20
350.2991345280649966
 30
0.0
 40
2.5328396837950669
 50
81.7248805251536226
 51
88.139603362902065
  0
ARC
  5
24722
  8
0
 10
4739.7807890852900528
 20
348.9902503776003755
 30
0.0
 40
3.8868586970078272
 50
67.7011539198717003
 51
78.9927960006351668
  0
ARC
  5
24723
  8
0
 10
4740.2727339349039539
 20
350.5899933952181868
 30
0.0
 40
2.2252731943546489
 50
33.3102501686492616
 51
63.7884045361722087
  0
ARC
  5
24724
  8
0
 10
4740.3291698248840476
 20
350.6296279491197083
 30
0.0
 40
2.1563440573628911
 50
9.6451734129049242
 51
33.2536562479537068
  0
ARC
  5
24725
  8
0
 10
4740.1323434530004306
 20
350.6235074176747162
 30
0.0
 40
2.3515679708077251
 50
344.4738684192121809
 51
8.9886833080580235
  0
ARC
  5
24726
  8
0
 10
4740.028098847239562
 20
350.8584712524661882
 30
0.0
 40
2.5227236047407802
 50
312.9056116384568895
 51
339.9612228513166201
  0
ARC
  5
24727
  8
0
 10
4740.2505647330081047
 20
350.7117868053431948
 30
0.0
 40
2.264706531773129
 50
282.0494655640648034
 51
311.3092823293408173
  0
ARC
  5
24728
  8
0
 10
4740.2411334942662506
 20
350.7436137428633742
 30
0.0
 40
2.2978025260803312
 50
273.652904887095076
 51
282.1137825097208065
  0
ARC
  5
24729
  8
0
 10
4736.916062918586249
 20
348.2798954522871213
 30
0.0
 40
3.4064785458087301
 50
356.1284957004073135
 51
0.6410225882134198
  0
ARC
  5
2472A
  8
0
 10
4741.4003419392593059
 20
348.3300674563960229
 30
0.0
 40
1.078081138847601
 50
174.5315779347930913
 51
180.6410225882133886
  0
LINE
  5
2472B
  8
0
 10
4740.3206352934003007
 20
348.747171472274772
 30
0.0
 11
4740.3147678204950353
 21
348.0498931201267965
 31
0.0
  0
ARC
  5
2472C
  8
0
 10
4740.5127580066537121
 20
346.5935626131956724
 30
0.0
 40
1.8611347288664879
 50
93.8580732922792578
 51
95.292329909590137
  0
ARC
  5
2472D
  8
0
 10
4740.3425131971771407
 20
348.4314208595442892
 30
0.0
 40
0.0154082516154493
 50
95.292329909590137
 51
174.8442352848335872
  0
ARC
  5
2472E
  8
0
 10
4740.4639596136958062
 20
348.7430772332714923
 30
0.0
 40
0.1433827869071994
 50
137.3012055498645054
 51
178.3637191715176016
  0
ARC
  5
2472F
  8
0
 10
4740.1555840872388217
 20
358.3386132100037003
 30
0.0
 40
9.5004707920404705
 50
270.5127278483651025
 51
271.2243490949521743
  0
ARC
  5
24730
  8
0
 10
4740.2979486784088294
 20
348.0510340390185888
 30
0.0
 40
0.0168577945297795
 50
277.3342624833160812
 51
356.1193118017304755
  0
ARC
  5
24731
  8
0
 10
4740.2408016572144334
 20
350.6431955387956805
 30
0.0
 40
2.3019065627487292
 50
88.543498741540887
 51
90.0050028817871777
  0
ARC
  5
24732
  8
0
 10
4740.2384959755690943
 20
350.5525142784833861
 30
0.0
 40
2.392617130709032
 50
68.0533735138073155
 51
88.543498741540887
  0
ARC
  5
24733
  8
0
 10
4740.2348639117735729
 20
350.5435004389315736
 30
0.0
 40
2.4023352164709251
 50
34.5363470000770434
 51
68.0533735138073155
  0
ARC
  5
24734
  8
0
 10
4740.3883385976369027
 20
350.6491248595854131
 30
0.0
 40
2.216026340035536
 50
1.9136620091532599
 51
34.5363303937023005
  0
CIRCLE
  5
24735
  8
0
 10
4740.7430901671832544
 20
352.4333793834811104
 30
0.0
 40
0.0170051504506104
  0
ARC
  5
24736
  8
0
 10
4740.7426851672953489
 20
352.4391140218845067
 30
0.0
 40
0.098504034480513
 50
177.0671452190850061
 51
1.381991277684967
  0
ARC
  5
24737
  8
0
 10
4740.7426107261308061
 20
352.4336139837894279
 30
0.0
 40
0.0988640231529602
 50
4.569165997082334
 51
173.8799704996860953
  0
CIRCLE
  5
24738
  8
0
 10
4740.6532198231943767
 20
352.0932171652268039
 30
0.0
 40
0.0170051504506104
  0
ARC
  5
24739
  8
0
 10
4740.6528148233073807
 20
352.0989518036302002
 30
0.0
 40
0.098504034480513
 50
177.0671452190850061
 51
1.381991277684967
  0
ARC
  5
2473A
  8
0
 10
4740.6527403821419284
 20
352.0934517655351215
 30
0.0
 40
0.0988640231529602
 50
4.569165997082334
 51
173.8799704996860953
  0
CIRCLE
  5
2473B
  8
0
 10
4741.0374622165945766
 20
351.9379989421267965
 30
0.0
 40
0.0170051504506104
  0
ARC
  5
2473C
  8
0
 10
4741.0370572167066712
 20
351.9437335805301927
 30
0.0
 40
0.098504034480513
 50
177.0671452190850061
 51
1.381991277684967
  0
ARC
  5
2473D
  8
0
 10
4741.0369827755421284
 20
351.938233542435114
 30
0.0
 40
0.0988640231529602
 50
4.569165997082334
 51
173.8799704996860953
  0
CIRCLE
  5
2473E
  8
0
 10
4741.2106799397142822
 20
352.2426669113503976
 30
0.0
 40
0.0170051504506104
  0
ARC
  5
2473F
  8
0
 10
4741.2102749398272863
 20
352.2484015497539076
 30
0.0
 40
0.098504034480513
 50
177.0671452190850061
 51
1.381991277684967
  0
ARC
  5
24740
  8
0
 10
4741.210200498660015
 20
352.2429015116587152
 30
0.0
 40
0.0988640231529602
 50
4.569165997082334
 51
173.8799704996860953
  0
CIRCLE
  5
24741
  8
0
 10
4741.6119550822313613
 20
351.9420668396090832
 30
0.0
 40
0.0170051504506104
  0
ARC
  5
24742
  8
0
 10
4741.6115500823443654
 20
351.9478014780124795
 30
0.0
 40
0.098504034480513
 50
177.0671452190850061
 51
1.381991277684967
  0
ARC
  5
24743
  8
0
 10
4741.6114756411780036
 20
351.9423014399174008
 30
0.0
 40
0.0988640231529602
 50
4.569165997082334
 51
173.8799704996860953
  0
CIRCLE
  5
24744
  8
0
 10
4741.3674186400940016
 20
351.6910824065267889
 30
0.0
 40
0.0170051504506104
  0
ARC
  5
24745
  8
0
 10
4741.3670136402060962
 20
351.6968170449301851
 30
0.0
 40
0.098504034480513
 50
177.0671452190850061
 51
1.381991277684967
  0
ARC
  5
24746
  8
0
 10
4741.3669391990415534
 20
351.6913170068351064
 30
0.0
 40
0.0988640231529602
 50
4.569165997082334
 51
173.8799704996860953
  0
CIRCLE
  5
24747
  8
0
 10
4741.1250882060985532
 20
351.4412003466376859
 30
0.0
 40
0.0170051504506104
  0
ARC
  5
24748
  8
0
 10
4741.1246832062115573
 20
351.4469349850410822
 30
0.0
 40
0.098504034480513
 50
177.0671452190850061
 51
1.381991277684967
  0
ARC
  5
24749
  8
0
 10
4741.1246087650470145
 20
351.4414349469458898
 30
0.0
 40
0.0988640231529602
 50
4.569165997082334
 51
173.8799704996860953
  0
CIRCLE
  5
2474A
  8
0
 10
4741.3228144905569934
 20
351.1894240379633061
 30
0.0
 40
0.0170051504506104
  0
ARC
  5
2474B
  8
0
 10
4741.322409490669088
 20
351.1951586763667024
 30
0.0
 40
0.098504034480513
 50
177.0671452190850061
 51
1.381991277684967
  0
ARC
  5
2474C
  8
0
 10
4741.3223350495027262
 20
351.1896586382716237
 30
0.0
 40
0.0988640231529602
 50
4.569165997082334
 51
173.8799704996860953
  0
CIRCLE
  5
2474D
  8
0
 10
4741.6206031086949224
 20
351.3692945125267784
 30
0.0
 40
0.0170051504506104
  0
ARC
  5
2474E
  8
0
 10
4741.620198108807017
 20
351.3750291509301746
 30
0.0
 40
0.098504034480513
 50
177.0671452190850061
 51
1.381991277684967
  0
ARC
  5
2474F
  8
0
 10
4741.6201236676406552
 20
351.3695291128349822
 30
0.0
 40
0.0988640231529602
 50
4.569165997082334
 51
173.8799704996860953
  0
CIRCLE
  5
24750
  8
0
 10
4741.9204335788372191
 20
351.5493219301172871
 30
0.0
 40
0.0170051504506104
  0
ARC
  5
24751
  8
0
 10
4741.9200285789493137
 20
351.5550565685206266
 30
0.0
 40
0.098504034480513
 50
177.0671452190850061
 51
1.381991277684967
  0
ARC
  5
24752
  8
0
 10
4741.9199541377838614
 20
351.549556530425491
 30
0.0
 40
0.0988640231529602
 50
4.569165997082334
 51
173.8799704996860953
  0
CIRCLE
  5
24753
  8
0
 10
4742.1148140977747971
 20
351.0962147757333014
 30
0.0
 40
0.0170051504506104
  0
ARC
  5
24754
  8
0
 10
4742.1144090978868917
 20
351.1019494141366977
 30
0.0
 40
0.098504034480513
 50
177.0671452190850061
 51
1.381991277684967
  0
ARC
  5
24755
  8
0
 10
4742.1143346567232584
 20
351.096449376041619
 30
0.0
 40
0.0988640231529602
 50
4.569165997082334
 51
173.8799704996860953
  0
CIRCLE
  5
24756
  8
0
 10
4741.7797615192948797
 20
350.9945645731268087
 30
0.0
 40
0.0170051504506104
  0
ARC
  5
24757
  8
0
 10
4741.7793565194069743
 20
351.0002992115300913
 30
0.0
 40
0.098504034480513
 50
177.0671452190850061
 51
1.381991277684967
  0
ARC
  5
24758
  8
0
 10
4741.7792820782406125
 20
350.9947991734351262
 30
0.0
 40
0.0988640231529602
 50
4.569165997082334
 51
173.8799704996860953
  0
CIRCLE
  5
24759
  8
0
 10
4741.447188199291304
 20
350.8962522267453892
 30
0.0
 40
0.0170051504506104
  0
ARC
  5
2475A
  8
0
 10
4741.4467831994033986
 20
350.9019868651487855
 30
0.0
 40
0.098504034480513
 50
177.0671452190850061
 51
1.381991277684967
  0
ARC
  5
2475B
  8
0
 10
4741.4467087582379463
 20
350.8964868270535931
 30
0.0
 40
0.0988640231529602
 50
4.569165997082334
 51
173.8799704996860953
  0
CIRCLE
  5
2475C
  8
0
 10
4741.492343269016601
 20
350.5818900916694929
 30
0.0
 40
0.0170051504506104
  0
ARC
  5
2475D
  8
0
 10
4741.4919382691286955
 20
350.5876247300728892
 30
0.0
 40
0.098504034480513
 50
177.0671452190850061
 51
1.381991277684967
  0
ARC
  5
2475E
  8
0
 10
4741.4918638279641527
 20
350.5821246919778105
 30
0.0
 40
0.0988640231529602
 50
4.569165997082334
 51
173.8799704996860953
  0
CIRCLE
  5
2475F
  8
0
 10
4741.8349474264095988
 20
350.5952809140662225
 30
0.0
 40
0.0170051504506104
  0
ARC
  5
24760
  8
0
 10
4741.8345424265226029
 20
350.6010155524696188
 30
0.0
 40
0.098504034480513
 50
177.0671452190850061
 51
1.381991277684967
  0
ARC
  5
24761
  8
0
 10
4741.8344679853580601
 20
350.5955155143745969
 30
0.0
 40
0.0988640231529602
 50
4.569165997082334
 51
173.8799704996860953
  0
CIRCLE
  5
24762
  8
0
 10
4742.1805336636944048
 20
350.6056314627268193
 30
0.0
 40
0.0170051504506104
  0
ARC
  5
24763
  8
0
 10
4742.1801286638074089
 20
350.6113661011302156
 30
0.0
 40
0.098504034480513
 50
177.0671452190850061
 51
1.381991277684967
  0
ARC
  5
24764
  8
0
 10
4742.1800542226419566
 20
350.6058660630350801
 30
0.0
 40
0.0988640231529602
 50
4.569165997082334
 51
173.8799704996860953
  0
CIRCLE
  5
24765
  8
0
 10
4742.1139106235386862
 20
350.1165854430212789
 30
0.0
 40
0.0170051504506104
  0
ARC
  5
24766
  8
0
 10
4742.1135056236516903
 20
350.1223200814246752
 30
0.0
 40
0.098504034480513
 50
177.0671452190850061
 51
1.381991277684967
  0
ARC
  5
24767
  8
0
 10
4742.1134311824871475
 20
350.1168200433295965
 30
0.0
 40
0.0988640231529602
 50
4.569165997082334
 51
173.8799704996860953
  0
CIRCLE
  5
24768
  8
0
 10
4741.7797615192948797
 20
350.190295055826823
 30
0.0
 40
0.0170051504506104
  0
ARC
  5
24769
  8
0
 10
4741.7793565194069743
 20
350.1960296942302193
 30
0.0
 40
0.098504034480513
 50
177.0671452190850061
 51
1.381991277684967
  0
ARC
  5
2476A
  8
0
 10
4741.7792820782406125
 20
350.1905296561350269
 30
0.0
 40
0.0988640231529602
 50
4.569165997082334
 51
173.8799704996860953
  0
CIRCLE
  5
2476B
  8
0
 10
4741.4491526408937716
 20
350.2647071934267728
 30
0.0
 40
0.0170051504506104
  0
ARC
  5
2476C
  8
0
 10
4741.4487476410058662
 20
350.270441831830226
 30
0.0
 40
0.098504034480513
 50
177.0671452190850061
 51
1.381991277684967
  0
ARC
  5
2476D
  8
0
 10
4741.4486731998422329
 20
350.2649417937349767
 30
0.0
 40
0.0988640231529602
 50
4.569165997082334
 51
173.8799704996860953
  0
CIRCLE
  5
2476E
  8
0
 10
4741.3230999468951268
 20
349.9685687704167094
 30
0.0
 40
0.0170051504506104
  0
ARC
  5
2476F
  8
0
 10
4741.3226949470072213
 20
349.9743034088201057
 30
0.0
 40
0.098504034480513
 50
177.0671452190850061
 51
1.381991277684967
  0
ARC
  5
24770
  8
0
 10
4741.3226205058426785
 20
349.968803370725027
 30
0.0
 40
0.0988640231529602
 50
4.569165997082334
 51
173.8799704996860953
  0
CIRCLE
  5
24771
  8
0
 10
4741.6206031086949224
 20
349.8155651164267965
 30
0.0
 40
0.0170051504506104
  0
ARC
  5
24772
  8
0
 10
4741.620198108807017
 20
349.8212997548301928
 30
0.0
 40
0.098504034480513
 50
177.0671452190850061
 51
1.381991277684967
  0
ARC
  5
24773
  8
0
 10
4741.6201236676406552
 20
349.8157997167350004
 30
0.0
 40
0.0988640231529602
 50
4.569165997082334
 51
173.8799704996860953
  0
CIRCLE
  5
24774
  8
0
 10
4741.9172515463205855
 20
349.6615675486510781
 30
0.0
 40
0.0170051504506104
  0
ARC
  5
24775
  8
0
 10
4741.91684654643268
 20
349.6673021870544744
 30
0.0
 40
0.098504034480513
 50
177.0671452190850061
 51
1.381991277684967
  0
ARC
  5
24776
  8
0
 10
4741.9167721052690467
 20
349.6618021489593957
 30
0.0
 40
0.0988640231529602
 50
4.569165997082334
 51
173.8799704996860953
  0
CIRCLE
  5
24777
  8
0
 10
4741.6234647346991551
 20
349.2791672817725157
 30
0.0
 40
0.0170051504506104
  0
ARC
  5
24778
  8
0
 10
4741.6230597348112497
 20
349.284901920175912
 30
0.0
 40
0.098504034480513
 50
177.0671452190850061
 51
1.381991277684967
  0
ARC
  5
24779
  8
0
 10
4741.6229852936457974
 20
349.2794018820807764
 30
0.0
 40
0.0988640231529602
 50
4.569165997082334
 51
173.8799704996860953
  0
CIRCLE
  5
2477A
  8
0
 10
4741.2109315471989248
 20
348.9679716288359259
 30
0.0
 40
0.0170051504506104
  0
ARC
  5
2477B
  8
0
 10
4741.2105265473128384
 20
348.9737062672393222
 30
0.0
 40
0.098504034480513
 50
177.0671452190850061
 51
1.381991277684967
  0
ARC
  5
2477C
  8
0
 10
4741.2104521061473861
 20
348.9682062291441866
 30
0.0
 40
0.0988640231529602
 50
4.569165997082334
 51
173.8799704996860953
  0
CIRCLE
  5
2477D
  8
0
 10
4741.0381908107856361
 20
349.2465995086994894
 30
0.0
 40
0.0170051504506104
  0
ARC
  5
2477E
  8
0
 10
4741.0377858108986402
 20
349.2523341471028857
 30
0.0
 40
0.098504034480513
 50
177.0671452190850061
 51
1.381991277684967
  0
ARC
  5
2477F
  8
0
 10
4741.0377113697340974
 20
349.246834109007807
 30
0.0
 40
0.0988640231529602
 50
4.569165997082334
 51
173.8799704996860953
  0
CIRCLE
  5
24780
  8
0
 10
4740.8669964265700401
 20
349.5242494931492274
 30
0.0
 40
0.0170051504506104
  0
ARC
  5
24781
  8
0
 10
4740.8665914266821346
 20
349.5299841315526237
 30
0.0
 40
0.098504034480513
 50
177.0671452190850061
 51
1.381991277684967
  0
ARC
  5
24782
  8
0
 10
4740.8665169855166823
 20
349.5244840934574881
 30
0.0
 40
0.0988640231529602
 50
4.569165997082334
 51
173.8799704996860953
  0
CIRCLE
  5
24783
  8
0
 10
4741.1245978862716584
 20
349.7177319136400229
 30
0.0
 40
0.0170051504506104
  0
ARC
  5
24784
  8
0
 10
4741.1241928863837529
 20
349.7234665520434191
 30
0.0
 40
0.098504034480513
 50
177.0671452190850061
 51
1.381991277684967
  0
ARC
  5
24785
  8
0
 10
4741.1241184452192101
 20
349.7179665139482836
 30
0.0
 40
0.0988640231529602
 50
4.569165997082334
 51
173.8799704996860953
  0
CIRCLE
  5
24786
  8
0
 10
4741.367508303131217
 20
349.4936872020664964
 30
0.0
 40
0.0170051504506104
  0
ARC
  5
24787
  8
0
 10
4741.367103303244221
 20
349.499421840469779
 30
0.0
 40
0.098504034480513
 50
177.0671452190850061
 51
1.381991277684967
  0
ARC
  5
24788
  8
0
 10
4741.3670288620778592
 20
349.4939218023747003
 30
0.0
 40
0.0988640231529602
 50
4.569165997082334
 51
173.8799704996860953
  0
CIRCLE
  5
24789
  8
0
 10
4740.6532652760652127
 20
349.0906392356156971
 30
0.0
 40
0.0170051504506104
  0
ARC
  5
2478A
  8
0
 10
4740.6528602761782167
 20
349.0963738740190934
 30
0.0
 40
0.098504034480513
 50
177.0671452190850061
 51
1.381991277684967
  0
ARC
  5
2478B
  8
0
 10
4740.6527858350118549
 20
349.0908738359240147
 30
0.0
 40
0.0988640231529602
 50
4.569165997082334
 51
173.8799704996860953
  0
CIRCLE
  5
2478C
  8
0
 10
4740.5649508160340702
 20
349.4015823035603034
 30
0.0
 40
0.0170051504506104
  0
ARC
  5
2478D
  8
0
 10
4740.5645458161470742
 20
349.407316941963586
 30
0.0
 40
0.098504034480513
 50
177.0671452190850061
 51
1.381991277684967
  0
ARC
  5
2478E
  8
0
 10
4740.5644713749807124
 20
349.401816903868621
 30
0.0
 40
0.0988640231529602
 50
4.569165997082334
 51
173.8799704996860953
  0
CIRCLE
  5
2478F
  8
0
 10
4740.743258513285582
 20
348.7800347875989928
 30
0.0
 40
0.0170051504506104
  0
ARC
  5
24790
  8
0
 10
4740.7428535133976766
 20
348.7857694260023891
 30
0.0
 40
0.098504034480513
 50
177.0671452190850061
 51
1.381991277684967
  0
ARC
  5
24791
  8
0
 10
4740.7427790722331338
 20
348.7802693879073104
 30
0.0
 40
0.0988640231529602
 50
4.569165997082334
 51
173.8799704996860953
  0
CIRCLE
  5
24792
  8
0
 10
4740.8648926104860948
 20
351.6372344455911048
 30
0.0
 40
0.0170051504506104
  0
ARC
  5
24793
  8
0
 10
4740.8644876105981893
 20
351.6429690839943873
 30
0.0
 40
0.098504034480513
 50
177.0671452190850061
 51
1.381991277684967
  0
ARC
  5
24794
  8
0
 10
4740.864413169432737
 20
351.6374690458994223
 30
0.0
 40
0.0988640231529602
 50
4.569165997082334
 51
173.8799704996860953
  0
CIRCLE
  5
24795
  8
0
 10
4740.5650169112359436
 20
351.7576611811111889
 30
0.0
 40
0.0170051504506104
  0
ARC
  5
24796
  8
0
 10
4740.5646119113480381
 20
351.7633958195145283
 30
0.0
 40
0.098504034480513
 50
177.0671452190850061
 51
1.381991277684967
  0
ARC
  5
24797
  8
0
 10
4740.5645374701825858
 20
351.7578957814193927
 30
0.0
 40
0.0988640231529602
 50
4.569165997082334
 51
173.8799704996860953
  0
ARC
  5
24798
  8
0
 10
4740.2411736191752425
 20
352.49638391489691
 30
0.0
 40
0.0155965653985981
 50
267.8947028219808999
 51
92.1052971780190717
  0
ARC
  5
24799
  8
0
 10
4740.2420107599518815
 20
352.4996034860113241
 30
0.0
 40
0.0973216856327732
 50
0.7788640294862224
 51
90.8301898671488743
  0
ARC
  5
2479A
  8
0
 10
4740.2431783637566696
 20
352.5005621986853726
 30
0.0
 40
0.0961457797818012
 50
268.4636962774977746
 51
0.2170442186436168
  0
ARC
  5
2479B
  8
0
 10
4740.2391905644371946
 20
352.4996034860113241
 30
0.0
 40
0.0973216856327732
 50
89.1698101328511257
 51
179.2211359705138136
  0
ARC
  5
2479C
  8
0
 10
4740.2380229606324065
 20
352.5005621986853726
 30
0.0
 40
0.0961457797818012
 50
179.7829557813564065
 51
271.5363037225022254
  0
ARC
  5
2479D
  8
0
 10
4740.2400277052138335
 20
352.49638391489691
 30
0.0
 40
0.0155965653985981
 50
87.8947028219809141
 51
272.1052971780191001
  0
ARC
  5
2479E
  8
0
 10
4740.2411736191752425
 20
352.1455325668056275
 30
0.0
 40
0.0155965653985981
 50
267.8947028219808999
 51
92.1052971780190717
  0
ARC
  5
2479F
  8
0
 10
4740.2420107599518815
 20
352.1487521379199848
 30
0.0
 40
0.0973216856327732
 50
0.7788640294862224
 51
90.8301898671488743
  0
ARC
  5
247A0
  8
0
 10
4740.2431783637566696
 20
352.1497108505940901
 30
0.0
 40
0.0961457797818012
 50
268.4636962774977746
 51
0.2170442186436168
  0
ARC
  5
247A1
  8
0
 10
4740.2391905644371946
 20
352.1487521379199848
 30
0.0
 40
0.0973216856327732
 50
89.1698101328511257
 51
179.2211359705138136
  0
ARC
  5
247A2
  8
0
 10
4740.2380229606324065
 20
352.1497108505940901
 30
0.0
 40
0.0961457797818012
 50
179.7829557813564065
 51
271.5363037225022254
  0
ARC
  5
247A3
  8
0
 10
4740.2400277052138335
 20
352.1455325668056275
 30
0.0
 40
0.0155965653985981
 50
87.8947028219809141
 51
272.1052971780191001
  0
ARC
  5
247A4
  8
0
 10
4740.2411736191752425
 20
351.8013283493773997
 30
0.0
 40
0.0155965653985981
 50
267.8947028219808999
 51
92.1052971780190717
  0
ARC
  5
247A5
  8
0
 10
4740.2420107599518815
 20
351.8045479204919275
 30
0.0
 40
0.0973216856327732
 50
0.7788640294862224
 51
90.8301898671488743
  0
ARC
  5
247A6
  8
0
 10
4740.2431783637566696
 20
351.8055066331659191
 30
0.0
 40
0.0961457797818012
 50
268.4636962774977746
 51
0.2170442186436168
  0
ARC
  5
247A7
  8
0
 10
4740.2391905644371946
 20
351.8045479204919275
 30
0.0
 40
0.0973216856327732
 50
89.1698101328511257
 51
179.2211359705138136
  0
ARC
  5
247A8
  8
0
 10
4740.2380229606324065
 20
351.8055066331659191
 30
0.0
 40
0.0961457797818012
 50
179.7829557813564065
 51
271.5363037225022254
  0
ARC
  5
247A9
  8
0
 10
4740.2400277052138335
 20
351.8013283493773997
 30
0.0
 40
0.0155965653985981
 50
87.8947028219809141
 51
272.1052971780191001
  0
ARC
  5
247AA
  8
0
 10
4740.2411736191752425
 20
349.365672396713876
 30
0.0
 40
0.0155965653985981
 50
267.8947028219808999
 51
92.1052971780190717
  0
ARC
  5
247AB
  8
0
 10
4740.2420107599518815
 20
349.36889196782829
 30
0.0
 40
0.0973216856327732
 50
0.7788640294862224
 51
90.8301898671488743
  0
ARC
  5
247AC
  8
0
 10
4740.2431783637566696
 20
349.3698506805023953
 30
0.0
 40
0.0961457797818012
 50
268.4636962774977746
 51
0.2170442186436168
  0
ARC
  5
247AD
  8
0
 10
4740.2391905644371946
 20
349.36889196782829
 30
0.0
 40
0.0973216856327732
 50
89.1698101328511257
 51
179.2211359705138136
  0
ARC
  5
247AE
  8
0
 10
4740.2380229606324065
 20
349.3698506805023953
 30
0.0
 40
0.0961457797818012
 50
179.7829557813564065
 51
271.5363037225022254
  0
ARC
  5
247AF
  8
0
 10
4740.2400277052138335
 20
349.365672396713876
 30
0.0
 40
0.0155965653985981
 50
87.8947028219809141
 51
272.1052971780191001
  0
ARC
  5
247B0
  8
0
 10
4740.2411736191752425
 20
349.0412062717809931
 30
0.0
 40
0.0155965653985981
 50
267.8947028219808999
 51
92.1052971780190717
  0
ARC
  5
247B1
  8
0
 10
4740.2420107599518815
 20
349.0444258428955209
 30
0.0
 40
0.0973216856327732
 50
0.7788640294862224
 51
90.8301898671488743
  0
ARC
  5
247B2
  8
0
 10
4740.2431783637566696
 20
349.0453845555695125
 30
0.0
 40
0.0961457797818012
 50
268.4636962774977746
 51
0.2170442186436168
  0
ARC
  5
247B3
  8
0
 10
4740.2391905644371946
 20
349.0444258428955209
 30
0.0
 40
0.0973216856327732
 50
89.1698101328511257
 51
179.2211359705138136
  0
ARC
  5
247B4
  8
0
 10
4740.2380229606324065
 20
349.0453845555695125
 30
0.0
 40
0.0961457797818012
 50
179.7829557813564065
 51
271.5363037225022254
  0
ARC
  5
247B5
  8
0
 10
4740.2400277052138335
 20
349.0412062717809931
 30
0.0
 40
0.0155965653985981
 50
87.8947028219809141
 51
272.1052971780191001
  0
CIRCLE
  5
247B6
  8
0
 10
4740.2406006621949928
 20
351.3836732612987817
 30
0.0
 40
0.0326789792248619
  0
LINE
  5
247B7
  8
0
 10
4740.3195955195997158
 20
351.4091016814417117
 30
0.0
 11
4740.3196167365122164
 21
351.3897208565110191
 31
0.0
  0
ARC
  5
247B8
  8
0
 10
4740.2409656147146961
 20
351.4068349091763253
 30
0.0
 40
0.0786625717782985
 50
1.6512867846986501
 51
90.2658229152877993
  0
ARC
  5
247B9
  8
0
 10
4740.2427513279917548
 20
351.389684723063624
 30
0.0
 40
0.076865417013315
 50
325.2528717287520976
 51
0.0269340127001792
  0
ARC
  5
247BA
  8
0
 10
4740.2413015897809601
 20
351.390690334618796
 30
0.0
 40
0.0786297853087884
 50
269.4892428588868256
 51
325.2528717287520976
  0
ARC
  5
247BB
  8
0
 10
4740.2402357096743799
 20
351.4068349091763253
 30
0.0
 40
0.0786625717782985
 50
89.7341770847121865
 51
178.3487132153013022
  0
ARC
  5
247BC
  8
0
 10
4740.2384499963964117
 20
351.389684723063624
 30
0.0
 40
0.076865417013315
 50
179.9730659872998046
 51
214.7471282712479024
  0
ARC
  5
247BD
  8
0
 10
4740.239899734608116
 20
351.390690334618796
 30
0.0
 40
0.0786297853087884
 50
214.7471282712479024
 51
270.5107571411132881
  0
LINE
  5
247BE
  8
0
 10
4740.1616058047893603
 20
351.4091016814417117
 30
0.0
 11
4740.1615845878759501
 21
351.3897208565110191
 31
0.0
  0
CIRCLE
  5
247BF
  8
0
 10
4740.807754841897804
 20
351.1728708260724261
 30
0.0
 40
0.0326789792248619
  0
LINE
  5
247C0
  8
0
 10
4740.8883218996015785
 20
351.192764072673981
 30
0.0
 11
4740.8870000471606545
 21
351.1734283665509793
 31
0.0
  0
ARC
  5
247C1
  8
0
 10
4740.8097239322951282
 20
351.1959515064294806
 30
0.0
 40
0.0786625717782985
 50
357.6777200367554883
 51
86.2922561673743331
  0
ARC
  5
247C2
  8
0
 10
4740.8103169094811165
 20
351.1787188039813827
 30
0.0
 40
0.076865417013315
 50
321.2793049808058186
 51
356.0533672647595722
  0
ARC
  5
247C3
  8
0
 10
4740.8082848489120806
 20
351.180681721216672
 30
0.0
 40
0.0796791181079152
 50
216.1529524424325075
 51
321.0920750814333928
  0
ARC
  5
247C4
  8
0
 10
4740.8089957818529001
 20
351.1960020861064891
 30
0.0
 40
0.0786625717782985
 50
85.7606103367576367
 51
174.3751464673651128
  0
ARC
  5
247C5
  8
0
 10
4740.8060259177436819
 20
351.1790168701003836
 30
0.0
 40
0.076865417013315
 50
175.9994992393596931
 51
210.7735615233006001
  0
ARC
  5
247C6
  8
0
 10
4740.8075418560702019
 20
351.1799196028810002
 30
0.0
 40
0.0786297853087884
 50
210.7735615233006001
 51
216.0239433280366086
  0
LINE
  5
247C7
  8
0
 10
4740.7307119721499475
 20
351.2037121663233847
 30
0.0
 11
4740.72934778788931
 21
351.1843794007050974
 31
0.0
  0
CIRCLE
  5
247C8
  8
0
 10
4741.0462961569719482
 20
350.8123534408799173
 30
0.0
 40
0.0326789792248619
  0
LINE
  5
247C9
  8
0
 10
4741.1252910143775807
 20
350.8377818610226768
 30
0.0
 11
4741.1253122312891719
 21
350.8184010360919842
 31
0.0
  0
ARC
  5
247CA
  8
0
 10
4741.0466611094916516
 20
350.8355150887571767
 30
0.0
 40
0.0786625717782985
 50
1.6512867846986501
 51
90.2658229152877993
  0
ARC
  5
247CB
  8
0
 10
4741.0484468227696198
 20
350.8183649026447029
 30
0.0
 40
0.076865417013315
 50
325.2528717287520976
 51
0.0269340127001792
  0
ARC
  5
247CC
  8
0
 10
4741.0469970845579155
 20
350.819370514199818
 30
0.0
 40
0.0786297853087884
 50
269.4892428588868256
 51
325.2528717287520976
  0
ARC
  5
247CD
  8
0
 10
4741.0459312044513354
 20
350.8355150887571767
 30
0.0
 40
0.0786625717782985
 50
89.7341770847121865
 51
178.3487132153013022
  0
ARC
  5
247CE
  8
0
 10
4741.0441454911742767
 20
350.8183649026447029
 30
0.0
 40
0.076865417013315
 50
179.9730659872998046
 51
214.7471282712479024
  0
ARC
  5
247CF
  8
0
 10
4741.0455952293859809
 20
350.819370514199818
 30
0.0
 40
0.0786297853087884
 50
214.7471282712479024
 51
270.5107571411132881
  0
LINE
  5
247D0
  8
0
 10
4740.9673012995663157
 20
350.8377818610226768
 30
0.0
 11
4740.967280082653815
 21
350.8184010360919842
 31
0.0
  0
CIRCLE
  5
247D1
  8
0
 10
4740.9523328878540269
 20
351.0098615476802024
 30
0.0
 40
0.0326789792248619
  0
LINE
  5
247D2
  8
0
 10
4741.0313277452596594
 20
351.0352899678230756
 30
0.0
 11
4741.0313489621730696
 21
351.015909142892383
 31
0.0
  0
ARC
  5
247D3
  8
0
 10
4740.9526978403737303
 20
351.0330231955575755
 30
0.0
 40
0.0786625717782985
 50
1.6512867846986501
 51
90.2658229152877993
  0
ARC
  5
247D4
  8
0
 10
4740.954483553652608
 20
351.0158730094449879
 30
0.0
 40
0.076865417013315
 50
325.2528717287520976
 51
0.0269340127001792
  0
ARC
  5
247D5
  8
0
 10
4740.9530338154409037
 20
351.0168786210002168
 30
0.0
 40
0.0786297853087884
 50
269.4892428588868256
 51
325.2528717287520976
  0
ARC
  5
247D6
  8
0
 10
4740.9519679353343236
 20
351.0330231955575755
 30
0.0
 40
0.0786625717782985
 50
89.7341770847121865
 51
178.3487132153013022
  0
ARC
  5
247D7
  8
0
 10
4740.9501822220563554
 20
351.0158730094449879
 30
0.0
 40
0.076865417013315
 50
179.9730659872998046
 51
214.7471282712479024
  0
ARC
  5
247D8
  8
0
 10
4740.9516319602680596
 20
351.0168786210002168
 30
0.0
 40
0.0786297853087884
 50
214.7471282712479024
 51
270.5107571411132881
  0
LINE
  5
247D9
  8
0
 10
4740.8733380304483944
 20
351.0352899678230756
 30
0.0
 11
4740.8733168135358937
 21
351.015909142892383
 31
0.0
  0
ARC
  5
247DA
  8
0
 10
4740.744476608543664
 20
349.9144862458571765
 30
0.0
 40
0.0726755707707617
 50
0.1773662593918556
 51
47.6501245816878125
  0
ARC
  5
247DB
  8
0
 10
4740.7399869198598026
 20
349.9095607626446167
 30
0.0
 40
0.0793402305040823
 50
47.6501245816878125
 51
91.138020670112013
  0
ARC
  5
247DC
  8
0
 10
4740.7400777846432902
 20
349.9049866067596781
 30
0.0
 40
0.0839152888062889
 50
91.138020670112013
 51
148.3825921972039055
  0
ARC
  5
247DD
  8
0
 10
4740.7092325148478267
 20
349.9239756641761119
 30
0.0
 40
0.04769354160504
 50
148.3825921972039055
 51
171.7163376575828977
  0
ARC
  5
247DE
  8
0
 10
4740.7728594312202404
 20
349.9065540383348889
 30
0.0
 40
0.1134542154871036
 50
167.6359865320445124
 51
183.9266629425794122
  0
ARC
  5
247DF
  8
0
 10
4740.7458669068655581
 20
349.8985535354215131
 30
0.0
 40
0.0861956696643944
 50
179.846311817030994
 51
206.2579546368563967
  0
ARC
  5
247E0
  8
0
 10
4740.7351456675587542
 20
349.8932645547033076
 30
0.0
 40
0.0742408259045492
 50
206.2579546368563967
 51
265.1444502445305034
  0
ARC
  5
247E1
  8
0
 10
4740.7359023159815479
 20
349.9021716672787079
 30
0.0
 40
0.0831800188921078
 50
265.1444502445305034
 51
335.7270383064408747
  0
ARC
  5
247E2
  8
0
 10
4740.7399059702865998
 20
349.8964512578637027
 30
0.0
 40
0.077261199303182
 50
338.374603208331223
 51
1.1403711050834251
  0
LINE
  5
247E3
  8
0
 10
4740.8171518310937245
 20
349.9147112218267921
 30
0.0
 11
4740.8171518670251317
 21
349.8979889037955786
 31
0.0
  0
CIRCLE
  5
247E4
  8
0
 10
4740.7383458612248432
 20
349.8873612918071103
 30
0.0
 40
0.0336370433295245
  0
ARC
  5
247E5
  8
0
 10
4741.0186557944853121
 20
350.247234501510377
 30
0.0
 40
0.0726755707707617
 50
0.1773662593918556
 51
47.6501245816878125
  0
ARC
  5
247E6
  8
0
 10
4741.0141661057996316
 20
350.242309018297874
 30
0.0
 40
0.0793402305040823
 50
47.6501245816878125
 51
91.138020670112013
  0
ARC
  5
247E7
  8
0
 10
4741.0142569705840287
 20
350.2377348624129922
 30
0.0
 40
0.0839152888062889
 50
91.138020670112013
 51
148.3825921972039055
  0
ARC
  5
247E8
  8
0
 10
4740.9834117007876557
 20
350.2567239198293123
 30
0.0
 40
0.04769354160504
 50
148.3825921972039055
 51
171.7163376575828977
  0
ARC
  5
247E9
  8
0
 10
4741.0470386171609789
 20
350.239302293988203
 30
0.0
 40
0.1134542154871036
 50
167.6359865320445124
 51
183.9266629425794122
  0
ARC
  5
247EA
  8
0
 10
4741.0200460928072062
 20
350.2313017910748272
 30
0.0
 40
0.0861956696643944
 50
179.846311817030994
 51
206.2579546368563967
  0
ARC
  5
247EB
  8
0
 10
4741.0093248535004022
 20
350.226012810356508
 30
0.0
 40
0.0742408259045492
 50
206.2579546368563967
 51
265.1444502445305034
  0
ARC
  5
247EC
  8
0
 10
4741.0100815019231959
 20
350.234919922932022
 30
0.0
 40
0.0831800188921078
 50
265.1444502445305034
 51
335.7270383064408747
  0
ARC
  5
247ED
  8
0
 10
4741.0140851562282478
 20
350.2291995135170168
 30
0.0
 40
0.077261199303182
 50
338.374603208331223
 51
1.1403711050834251
  0
LINE
  5
247EE
  8
0
 10
4741.0913310170353725
 20
350.2474594774799925
 30
0.0
 11
4741.0913310529658702
 21
350.2307371594488927
 31
0.0
  0
CIRCLE
  5
247EF
  8
0
 10
4741.0125250471655818
 20
350.2201095474604244
 30
0.0
 40
0.0336370433295245
  0
ARC
  5
247F0
  8
0
 10
4740.9051403858284175
 20
350.0645356867336773
 30
0.0
 40
0.0726755707707617
 50
0.1773662593918556
 51
47.6501245816878125
  0
ARC
  5
247F1
  8
0
 10
4740.9006506971436465
 20
350.0596102035211175
 30
0.0
 40
0.0793402305040823
 50
47.6501245816878125
 51
91.138020670112013
  0
ARC
  5
247F2
  8
0
 10
4740.8996842229771573
 20
350.0588618670686856
 30
0.0
 40
0.0800752354223644
 50
90.4359691429011434
 51
164.0276042683123876
  0
ARC
  5
247F3
  8
0
 10
4740.9335232085049938
 20
350.0566034792115033
 30
0.0
 40
0.1134542154871036
 50
167.6359865320445124
 51
183.9266629425794122
  0
ARC
  5
247F4
  8
0
 10
4740.9065306841512211
 20
350.0486029762980138
 30
0.0
 40
0.0861956696643944
 50
179.846311817030994
 51
206.2579546368563967
  0
ARC
  5
247F5
  8
0
 10
4740.8958094448425982
 20
350.0433139955796946
 30
0.0
 40
0.0742408259045492
 50
206.2579546368563967
 51
265.1444502445305034
  0
ARC
  5
247F6
  8
0
 10
4740.8965660932663013
 20
350.0522211081552086
 30
0.0
 40
0.0831800188921078
 50
265.1444502445305034
 51
335.7270383064408747
  0
ARC
  5
247F7
  8
0
 10
4740.9005697475722627
 20
350.0465006987400898
 30
0.0
 40
0.077261199303182
 50
338.374603208331223
 51
1.1403711050834251
  0
LINE
  5
247F8
  8
0
 10
4740.9778156083793874
 20
350.0647606627032928
 30
0.0
 11
4740.9778156443089756
 21
350.0480383446720793
 31
0.0
  0
CIRCLE
  5
247F9
  8
0
 10
4740.8990096385095967
 20
350.0374107326836111
 30
0.0
 40
0.0336370433295245
  0
LINE
  5
247FB
  8
0
 10
4740.6402092338948933
 20
342.8211803977267778
 30
0.0
 11
4740.6028885937939776
 21
342.8481799597267923
 31
0.0
  0
LINE
  5
247FC
  8
0
 10
4739.8409922050950627
 20
342.8211804271267056
 30
0.0
 11
4739.8783127305941889
 21
342.8481799597267923
 31
0.0
  0
ENDSEC
  0
EOF
