  0
SECTION
  2
HEADER
  9
$ACADVER
  1
AC1009
  9
$INSBASE
 10
1485.1197541781159543
 20
154.6517784155713002
 30
0.0
  9
$EXTMIN
 10
1481.6606086426420461
 20
137.7398583321574108
 30
-0.0015258207003583
  9
$EXTMAX
 10
1485.1731008923391073
 20
171.5609643031571068
 30
0.0000000349246037
  9
$LIMMIN
 10
0.0
 20
0.0
  9
$LIMMAX
 10
11.6929133858000007
 20
8.2677165353999982
  9
$ORTHOMODE
 70
     0
  9
$REGENMODE
 70
     1
  9
$FILLMODE
 70
     1
  9
$QTEXTMODE
 70
     0
  9
$MIRRTEXT
 70
     0
  9
$DRAGMODE
 70
     2
  9
$LTSCALE
 40
0.6431102362
  9
$OSMODE
 70
  4095
  9
$ATTMODE
 70
     1
  9
$TEXTSIZE
 40
0.2
  9
$TRACEWID
 40
0.05
  9
$TEXTSTYLE
  7
STANDARD
  9
$CLAYER
  8
0
  9
$CELTYPE
  6
BYLAYER
  9
$CECOLOR
 62
   256
  9
$DIMSCALE
 40
1.0
  9
$DIMASZ
 40
0.1875
  9
$DIMEXO
 40
0.0625
  9
$DIMDLI
 40
0.4443307087
  9
$DIMRND
 40
0.0
  9
$DIMDLE
 40
0.0
  9
$DIMEXE
 40
0.125
  9
$DIMTP
 40
0.01
  9
$DIMTM
 40
0.01
  9
$DIMTXT
 40
1.0
  9
$DIMCEN
 40
0.1052362205
  9
$DIMTSZ
 40
0.0
  9
$DIMTOL
 70
     1
  9
$DIMLIM
 70
     0
  9
$DIMTIH
 70
     0
  9
$DIMTOH
 70
     1
  9
$DIMSE1
 70
     0
  9
$DIMSE2
 70
     0
  9
$DIMTAD
 70
     0
  9
$DIMZIN
 70
     0
  9
$DIMBLK
  1

  9
$DIMASO
 70
     1
  9
$DIMSHO
 70
     1
  9
$DIMPOST
  1
\X
  9
$DIMAPOST
  1

  9
$DIMALT
 70
     1
  9
$DIMALTD
 70
     2
  9
$DIMALTF
 40
25.3999999999999986
  9
$DIMLFAC
 40
1.0
  9
$DIMTOFL
 70
     0
  9
$DIMTVP
 40
0.0
  9
$DIMTIX
 70
     0
  9
$DIMSOXD
 70
     0
  9
$DIMSAH
 70
     0
  9
$DIMBLK1
  1

  9
$DIMBLK2
  1

  9
$DIMSTYLE
  2
STANDARD
  9
$DIMCLRD
 70
     0
  9
$DIMCLRE
 70
     0
  9
$DIMCLRT
 70
     0
  9
$DIMTFAC
 40
1.0
  9
$DIMGAP
 40
0.09
  9
$LUNITS
 70
     2
  9
$LUPREC
 70
     4
  9
$SKETCHINC
 40
0.1
  9
$FILLETRAD
 40
0.0
  9
$AUNITS
 70
     0
  9
$AUPREC
 70
     0
  9
$MENU
  1
.
  9
$ELEVATION
 40
0.0
  9
$PELEVATION
 40
0.0
  9
$THICKNESS
 40
0.0
  9
$LIMCHECK
 70
     0
  9
$BLIPMODE
 70
     0
  9
$CHAMFERA
 40
0.0
  9
$CHAMFERB
 40
0.0
  9
$SKPOLY
 70
     0
  9
$TDCREATE
 40
2458172.5207638889551163
  9
$TDUPDATE
 40
2460057.945150462910533
  9
$TDINDWG
 40
0.5192484028
  9
$TDUSRTIMER
 40
0.5192484028
  9
$USRTIMER
 70
     1
  9
$ANGBASE
 50
0.0
  9
$ANGDIR
 70
     0
  9
$PDMODE
 70
     0
  9
$PDSIZE
 40
0.3125
  9
$PLINEWID
 40
0.0
  9
$COORDS
 70
     1
  9
$SPLFRAME
 70
     0
  9
$SPLINETYPE
 70
     6
  9
$SPLINESEGS
 70
     8
  9
$ATTDIA
 70
     1
  9
$ATTREQ
 70
     1
  9
$HANDLING
 70
     1
  9
$HANDSEED
  5
12738
  9
$SURFTAB1
 70
     6
  9
$SURFTAB2
 70
     6
  9
$SURFTYPE
 70
     6
  9
$SURFU
 70
     6
  9
$SURFV
 70
     6
  9
$UCSNAME
  2

  9
$UCSORG
 10
0.0
 20
0.0
 30
0.0
  9
$UCSXDIR
 10
1.0
 20
0.0
 30
0.0
  9
$UCSYDIR
 10
0.0
 20
1.0
 30
0.0
  9
$PUCSNAME
  2

  9
$PUCSORG
 10
0.0
 20
0.0
 30
0.0
  9
$PUCSXDIR
 10
1.0
 20
0.0
 30
0.0
  9
$PUCSYDIR
 10
0.0
 20
1.0
 30
0.0
  9
$USERI1
 70
     0
  9
$USERI2
 70
     0
  9
$USERI3
 70
     0
  9
$USERI4
 70
     0
  9
$USERI5
 70
     0
  9
$USERR1
 40
0.0
  9
$USERR2
 40
0.0
  9
$USERR3
 40
0.0
  9
$USERR4
 40
0.0
  9
$USERR5
 40
0.0
  9
$WORLDVIEW
 70
     1
  9
$SHADEDGE
 70
     3
  9
$SHADEDIF
 70
    70
  9
$TILEMODE
 70
     1
  9
$MAXACTVP
 70
    64
  9
$PLIMCHECK
 70
     0
  9
$PEXTMIN
 10
1.0000000000000000E+20
 20
1.0000000000000000E+20
 30
1.0000000000000000E+20
  9
$PEXTMAX
 10
-1.0000000000000000E+20
 20
-1.0000000000000000E+20
 30
-1.0000000000000000E+20
  9
$PLIMMIN
 10
0.0
 20
0.0
  9
$PLIMMAX
 10
12.0
 20
9.0
  9
$UNITMODE
 70
     0
  9
$VISRETAIN
 70
     1
  9
$PLINEGEN
 70
     0
  9
$PSLTSCALE
 70
     1
  0
ENDSEC
  0
SECTION
  2
TABLES
  0
TABLE
  2
VPORT
 70
     1
  0
VPORT
  2
*ACTIVE
 70
     0
 10
0.0
 20
0.0
 11
1.0
 21
1.0
 12
1016.6746530596609546
 22
65.5172641977275134
 13
0.0
 23
0.0
 14
1.0
 24
1.0
 15
0.0
 25
0.0
 16
0.0
 26
0.0
 36
24.1179433675886514
 17
466.74220170783002
 27
89.133147119929788
 37
0.0
 40
34.0524932410407715
 41
1.8299086757990859
 42
50.0
 43
0.0
 44
0.0
 50
0.0
 51
0.0
 71
     0
 72
   100
 73
     1
 74
     1
 75
     0
 76
     0
 77
     0
 78
     0
  0
ENDTAB
  0
TABLE
  2
LTYPE
 70
     2
  0
LTYPE
  2
CONTINUOUS
 70
     0
  3
Solid line
 72
    65
 73
     0
 40
0.0
  0
LTYPE
  2
PHANTOM2
 70
     0
  3
___ _ _ ___ _ _ ___ _ _ ___ _ _
 72
    65
 73
     6
 40
1.25
 49
0.625
 49
-0.125
 49
0.125
 49
-0.125
 49
0.125
 49
-0.125
  0
ENDTAB
  0
TABLE
  2
LAYER
 70
     2
  0
LAYER
  2
0
 70
     0
 62
   255
  6
CONTINUOUS
  0
LAYER
  2
DEFPOINTS
 70
     0
 62
     7
  6
CONTINUOUS
  0
ENDTAB
  0
TABLE
  2
STYLE
 70
     1
  0
STYLE
  2
STANDARD
 70
     0
 40
0.0
 41
0.8
 50
0.0
 71
     0
 42
0.2
  3
txt
  4

  0
ENDTAB
  0
TABLE
  2
VIEW
 70
     0
  0
ENDTAB
  0
TABLE
  2
UCS
 70
     0
  0
ENDTAB
  0
TABLE
  2
APPID
 70
    11
  0
APPID
  2
ACAD
 70
     0
  0
APPID
  2
ACAD_MLEADERVER
 70
     0
  0
APPID
  2
ACAD_EXEMPT_FROM_CAD_STANDARDS
 70
     0
  0
APPID
  2
ACAD_DSTYLE_DIMJAG
 70
     0
  0
APPID
  2
ACAD_DSTYLE_DIMTALN
 70
     0
  0
APPID
  2
ACAD_NAV_VCDISPLAY
 70
     0
  0
APPID
  2
ACAECLAYERSTANDARD
 70
     0
  0
APPID
  2
ACCMTRANSPARENCY
 70
     0
  0
APPID
  2
DCO15
 70
     0
  0
APPID
  2
ACDBATTR
 70
     0
  0
APPID
  2
ACADANNOTATIVE
 70
     0
  0
ENDTAB
  0
TABLE
  2
DIMSTYLE
 70
     1
  0
DIMSTYLE
  2
STANDARD
 70
     0
  3

  4

  5

  6

  7

 40
1.0
 41
0.1875
 42
0.0625
 43
0.38
 44
0.125
 45
0.0
 46
0.0
 47
0.01
 48
0.01
140
0.15625
141
0.09
142
0.0
143
25.3999999999999986
144
1.0
145
0.0
146
1.0
147
0.09
 71
     1
 72
     0
 73
     1
 74
     1
 75
     0
 76
     0
 77
     0
 78
     4
170
     0
171
     2
172
     0
173
     0
174
     0
175
     0
176
     0
177
     0
178
     0
  0
ENDTAB
  0
ENDSEC
  0
SECTION
  2
BLOCKS
  0
BLOCK
  8
0
  2
$MODEL_SPACE
 70
     0
 10
0.0
 20
0.0
 30
0.0
  3
$MODEL_SPACE
  1

  0
ENDBLK
  5
21
  8
0
  0
BLOCK
 67
     1
  8
0
  2
$PAPER_SPACE
 70
     0
 10
0.0
 20
0.0
 30
0.0
  3
$PAPER_SPACE
  1

  0
ENDBLK
  5
1D
 67
     1
  8
0
  0
ENDSEC
  0
SECTION
  2
ENTITIES
  0
ATTDEF
  5
829
  8
DEFPOINTS
 10
1485.117108264890021
 20
154.6562152693819883
 30
0.0
 40
0.001
  1
P21654-00
  3

  2
MODELNUMBER
 70
     0
1001
ACDBATTR
1070
     0
1070
     1
  0
ATTDEF
  5
82A
  8
DEFPOINTS
 10
1485.117108264890021
 20
154.6545486027154084
 30
0.0
 40
0.001
  1
TRADITIONAL
  3

  2
TRADENAME
 70
     0
1001
ACDBATTR
1070
     0
1070
     1
  0
ATTDEF
  5
82B
  8
DEFPOINTS
 10
1485.117108264890021
 20
154.6528819360486864
 30
0.0
 40
0.001
  1
SLIDEBAR
  3

  2
PRODUCT
 70
     0
1001
ACDBATTR
1070
     0
1070
     1
  0
LINE
  5
1247D
  8
0
 10
1481.7857541781158943
 20
137.7478283927713107
 30
0.0
 11
1482.661754178116098
 21
137.7478283927713107
 31
0.0
  0
LINE
  5
1247E
  8
0
 10
1481.7707541781160216
 20
137.8618283927712866
 30
0.0
 11
1481.7707541781160216
 21
137.7628283927712971
 31
0.0
  0
LINE
  5
1247F
  8
0
 10
1482.661754178116098
 20
137.8768283927713014
 30
0.0
 11
1481.7857541781158943
 21
137.8768283927713014
 31
0.0
  0
ARC
  5
12480
  8
0
 10
1481.7483481990338987
 20
137.950792924356108
 30
0.0
 40
0.097504154346652
 50
319.3613455270876784
 51
350.9743442488032201
  0
ARC
  5
12481
  8
0
 10
1481.7995725176399446
 20
137.9068283927713026
 30
0.0
 40
0.03
 50
270.0
 51
319.3613455270864279
  0
ARC
  5
12482
  8
0
 10
1482.513122936388072
 20
137.8293134413503935
 30
0.0
 40
0.6768585924886386
 50
166.002657164644404
 51
170.9743442488031917
  0
ARC
  5
12483
  8
0
 10
1482.009823230263919
 20
137.9547753600419071
 30
0.0
 40
0.1581570528470884
 50
155.0507071289582939
 51
166.002657164644404
  0
ARC
  5
12484
  8
0
 10
1481.9199616700709612
 20
137.9965817127921071
 30
0.0
 40
0.0590466541460075
 50
115.6422511780122022
 51
155.0507071289598002
  0
ARC
  5
12485
  8
0
 10
1481.8857541781160307
 20
138.067843350619512
 30
0.0
 40
0.02
 50
295.6422511780123159
 51
0.0
  0
LINE
  5
12486
  8
0
 10
1481.9257541781159944
 20
138.1517784155713002
 30
0.0
 11
1482.521754178115998
 21
138.1517784155713002
 31
0.0
  0
LINE
  5
12487
  8
0
 10
1481.9057541781160126
 20
138.067843350619512
 30
0.0
 11
1481.9057541781160126
 21
138.13177841557129
 31
0.0
  0
LINE
  5
12488
  8
0
 10
1481.9457541781159762
 20
138.1617784155712911
 30
0.0
 11
1481.9457541781159762
 21
171.1417784155713093
 31
0.0
  0
ARC
  5
12489
  8
0
 10
1481.9557541781159671
 20
138.1617784155712911
 30
0.0
 40
0.01
 50
180.0
 51
270.0
  0
ARC
  5
1248A
  8
0
 10
1481.9257541781159944
 20
138.13177841557129
 30
0.0
 40
0.02
 50
90.0
 51
180.0000000000032117
  0
ARC
  5
1248B
  8
0
 10
1481.7857541781158943
 20
137.8618283927712866
 30
0.0
 40
0.015
 50
90.0000000000130314
 51
179.9999999999967031
  0
ARC
  5
1248C
  8
0
 10
1481.7857541781158943
 20
137.7628283927712971
 30
0.0
 40
0.015
 50
180.0000000000065086
 51
270.0
  0
LINE
  5
1248D
  8
0
 10
1481.7707541781160216
 20
171.4417284383713138
 30
0.0
 11
1481.7707541781160216
 21
171.5407284383713034
 31
0.0
  0
LINE
  5
1248E
  8
0
 10
1482.661754178116098
 20
171.426728438371299
 30
0.0
 11
1481.7857541781158943
 21
171.426728438371299
 31
0.0
  0
ARC
  5
1248F
  8
0
 10
1481.7483481990338987
 20
171.3527639067866062
 30
0.0
 40
0.097504154346652
 50
9.0256557511967941
 51
40.6386544729135792
  0
ARC
  5
12490
  8
0
 10
1481.7995725176399446
 20
171.3967284383712979
 30
0.0
 40
0.03
 50
40.6386544729135792
 51
90.0
  0
ARC
  5
12491
  8
0
 10
1482.513122936388072
 20
171.4742433897922069
 30
0.0
 40
0.6768585924886386
 50
189.0256557511968083
 51
193.9973428353555107
  0
ARC
  5
12492
  8
0
 10
1482.009823230263919
 20
171.3487814711006934
 30
0.0
 40
0.1581570528470884
 50
193.9973428353555107
 51
204.9492928710417061
  0
ARC
  5
12493
  8
0
 10
1481.9199616700709612
 20
171.3069751183506071
 30
0.0
 40
0.0590466541460075
 50
204.9492928710401998
 51
244.3577488219877978
  0
ARC
  5
12494
  8
0
 10
1481.8857541781160307
 20
171.2357134805230885
 30
0.0
 40
0.02
 50
0.0
 51
64.3577488219877409
  0
LINE
  5
12495
  8
0
 10
1481.9057541781160126
 20
171.2357134805230885
 30
0.0
 11
1481.9057541781160126
 21
171.1717784155713105
 31
0.0
  0
ARC
  5
12496
  8
0
 10
1481.9557541781159671
 20
171.1417784155713093
 30
0.0
 40
0.01
 50
90.0
 51
180.0
  0
ARC
  5
12497
  8
0
 10
1481.9257541781159944
 20
171.1717784155713105
 30
0.0
 40
0.02
 50
179.9999999999967031
 51
270.0
  0
ARC
  5
12498
  8
0
 10
1481.7857541781158943
 20
171.4417284383713138
 30
0.0
 40
0.015
 50
180.0000000000032117
 51
269.9999999999869829
  0
ARC
  5
12499
  8
0
 10
1481.7857541781158943
 20
171.5407284383713034
 30
0.0
 40
0.015
 50
90.0
 51
179.9999999999934914
  0
LINE
  5
1249A
  8
0
 10
1481.7857541781158943
 20
171.5557284383712897
 30
0.0
 11
1482.661754178116098
 21
171.5557284383712897
 31
0.0
  0
LINE
  5
1249B
  8
0
 10
1481.9257541781159944
 20
171.1517784155713002
 30
0.0
 11
1482.521754178115998
 21
171.1517784155713002
 31
0.0
  0
LINE
  5
1249C
  8
0
 10
1482.6767541781159707
 20
137.8618283927712866
 30
0.0
 11
1482.6767541781159707
 21
137.7628283927712971
 31
0.0
  0
ARC
  5
1249D
  8
0
 10
1482.6991601571969568
 20
137.950792924356108
 30
0.0
 40
0.097504154346652
 50
189.0256557511968083
 51
220.6386544729124068
  0
ARC
  5
1249E
  8
0
 10
1482.6479358385920477
 20
137.9068283927713026
 30
0.0
 40
0.03
 50
220.6386544729134869
 51
270.0
  0
ARC
  5
1249F
  8
0
 10
1481.9343854198430108
 20
137.8293134413503935
 30
0.0
 40
0.6768585924886386
 50
9.0256557511967941
 51
13.9973428353555693
  0
ARC
  5
124A0
  8
0
 10
1482.4376851259680734
 20
137.9547753600419071
 30
0.0
 40
0.1581570528470884
 50
13.9973428353555693
 51
24.9492928710416706
  0
ARC
  5
124A1
  8
0
 10
1482.5275466861610312
 20
137.9965817127921071
 30
0.0
 40
0.0590466541460075
 50
24.9492928710401891
 51
64.3577488219877409
  0
ARC
  5
124A2
  8
0
 10
1482.5617541781159616
 20
138.067843350619512
 30
0.0
 40
0.02
 50
180.0
 51
244.3577488219877978
  0
LINE
  5
124A3
  8
0
 10
1482.5417541781159798
 20
138.067843350619512
 30
0.0
 11
1482.5417541781159798
 21
138.13177841557129
 31
0.0
  0
LINE
  5
124A4
  8
0
 10
1482.5017541781160162
 20
138.1617784155712911
 30
0.0
 11
1482.5017541781160162
 21
152.0356829953720137
 31
0.0
  0
LINE
  5
124A5
  8
0
 10
1482.5017541781160162
 20
153.2278738357709074
 30
0.0
 11
1482.5017541781160162
 21
171.1417784155713093
 31
0.0
  0
ARC
  5
124A6
  8
0
 10
1482.4917541781160253
 20
138.1617784155712911
 30
0.0
 40
0.01
 50
270.0
 51
0.0
  0
ARC
  5
124A7
  8
0
 10
1482.521754178115998
 20
138.13177841557129
 30
0.0
 40
0.02
 50
359.9999999999968168
 51
90.0
  0
ARC
  5
124A8
  8
0
 10
1482.661754178116098
 20
137.8618283927712866
 30
0.0
 40
0.015
 50
0.0000000000032569
 51
89.9999999999869686
  0
ARC
  5
124A9
  8
0
 10
1482.661754178116098
 20
137.7628283927712971
 30
0.0
 40
0.015
 50
270.0
 51
359.9999999999935199
  0
LINE
  5
124AA
  8
0
 10
1482.6767541781159707
 20
171.4417284383713138
 30
0.0
 11
1482.6767541781159707
 21
171.5407284383713034
 31
0.0
  0
ARC
  5
124AB
  8
0
 10
1482.6991601571969568
 20
171.3527639067866062
 30
0.0
 40
0.097504154346652
 50
139.3613455270863994
 51
170.9743442488031917
  0
ARC
  5
124AC
  8
0
 10
1482.6479358385920477
 20
171.3967284383712979
 30
0.0
 40
0.03
 50
90.0
 51
139.3613455270863994
  0
ARC
  5
124AD
  8
0
 10
1481.9343854198430108
 20
171.4742433897922069
 30
0.0
 40
0.6768585924886386
 50
346.0026571646445177
 51
350.9743442488032201
  0
ARC
  5
124AE
  8
0
 10
1482.4376851259680734
 20
171.3487814711006934
 30
0.0
 40
0.1581570528470884
 50
335.0507071289583223
 51
346.0026571646445177
  0
ARC
  5
124AF
  8
0
 10
1482.5275466861610312
 20
171.3069751183506071
 30
0.0
 40
0.0590466541460075
 50
295.6422511780123159
 51
335.0507071289598002
  0
ARC
  5
124B0
  8
0
 10
1482.5617541781159616
 20
171.2357134805230885
 30
0.0
 40
0.02
 50
115.6422511780122022
 51
180.0
  0
LINE
  5
124B1
  8
0
 10
1482.5417541781159798
 20
171.2357134805230885
 30
0.0
 11
1482.5417541781159798
 21
171.1717784155713105
 31
0.0
  0
ARC
  5
124B2
  8
0
 10
1482.4917541781160253
 20
171.1417784155713093
 30
0.0
 40
0.01
 50
0.0
 51
90.0
  0
ARC
  5
124B3
  8
0
 10
1482.521754178115998
 20
171.1717784155713105
 30
0.0
 40
0.02
 50
270.0
 51
0.0000000000032569
  0
ARC
  5
124B4
  8
0
 10
1482.661754178116098
 20
171.4417284383713138
 30
0.0
 40
0.015
 50
270.0000000000130171
 51
359.9999999999968168
  0
ARC
  5
124B5
  8
0
 10
1482.661754178116098
 20
171.5407284383713034
 30
0.0
 40
0.015
 50
0.0000000000065138
 51
90.0
  0
LINE
  5
124B6
  8
0
 10
1482.5530991648649888
 20
138.0498130775870891
 30
0.0
 11
1481.8944091913670036
 21
138.0498130775870891
 31
0.0
  0
LINE
  5
124B7
  8
0
 10
1482.5530991648649888
 20
171.2537437535555114
 30
0.0
 11
1481.8944091913670036
 21
171.2537437535555114
 31
0.0
  0
CIRCLE
  5
124B8
  8
0
 10
1482.6722541781659856
 20
152.6317784155714889
 30
0.0
 40
0.6199999999998571
  0
LINE
  5
124B9
  8
0
 10
1482.3572541781159089
 20
153.120066240492207
 30
0.0
 11
1482.3572541781159089
 21
152.1434905906507993
 31
0.0
  0
LINE
  5
124BA
  8
0
 10
1482.987254178116018
 20
152.1434905905811092
 30
0.0
 11
1482.987254178116018
 21
153.1200662405618118
 31
0.0
  0
ARC
  5
124BB
  8
0
 10
1482.3322541781160453
 20
153.120066240492207
 30
0.0
 40
0.025
 50
0.0000000000244267
 51
124.8499045848782032
  0
ARC
  5
124BC
  8
0
 10
1482.3322541781160453
 20
152.1434905906507993
 30
0.0
 40
0.025
 50
235.1500954151190115
 51
359.9999999999772058
  0
ARC
  5
124BD
  8
0
 10
1483.012254178116109
 20
152.1434905905811092
 30
0.0
 40
0.025
 50
180.0000000000163141
 51
304.8499045731475121
  0
ARC
  5
124BE
  8
0
 10
1483.012254178116109
 20
153.1200662405618118
 30
0.0
 40
0.025
 50
55.1500954268497665
 51
179.9999999999870113
  0
CIRCLE
  5
124BF
  8
0
 10
1482.6722541780659412
 20
152.63177841557129
 30
0.0
 40
0.1259459459286576
  0
CIRCLE
  5
124C0
  8
0
 10
1482.6722541781659856
 20
152.6317784155714889
 30
0.0
 40
0.1699999999833602
  0
LINE
  5
124C1
  8
0
 10
1483.4387543398240723
 20
151.9117784155712911
 30
0.0
 11
1483.4387543398240723
 21
148.9263375595510013
 31
0.0
  0
ARC
  5
124C2
  8
0
 10
1483.3987543398241087
 20
148.9263375595510013
 30
0.0
 40
0.04
 50
267.8278683520990739
 51
0.0
  0
LINE
  5
124C3
  8
0
 10
1482.8085040045859841
 20
151.9117784155712911
 30
0.0
 11
1482.8085040045859841
 21
148.9472080164701993
 31
0.0
  0
LINE
  5
124C4
  8
0
 10
1482.8469879338429109
 20
148.9072367576771114
 30
0.0
 11
1483.3972382690810718
 21
148.8863663007579135
 31
0.0
  0
LINE
  5
124C5
  8
0
 10
1483.3987543398241087
 20
151.9517784155713116
 30
0.0
 11
1482.8485040045859478
 21
151.9517784155713116
 31
0.0
  0
ARC
  5
124C6
  8
0
 10
1483.3987543398241087
 20
151.9117784155712911
 30
0.0
 40
0.04
 50
359.9999999999951115
 51
90.0
  0
ARC
  5
124C7
  8
0
 10
1482.8485040045859478
 20
151.9117784155712911
 30
0.0
 40
0.04
 50
90.0
 51
180.0000000000048885
  0
ARC
  5
124C8
  8
0
 10
1482.8485040045859478
 20
148.9472080164701993
 30
0.0
 40
0.04
 50
179.9999999999967031
 51
267.8278683520990739
  0
LINE
  5
124C9
  8
0
 10
1483.4002695785620745
 20
149.037800735038104
 30
0.0
 11
1482.8500192433239135
 21
149.0169417480865093
 31
0.0
  0
ARC
  5
124CA
  8
0
 10
1483.3987543398241087
 20
149.0777720253796019
 30
0.0
 40
0.04
 50
272.170939032210697
 51
359.9999999999968168
  0
ARC
  5
124CB
  8
0
 10
1482.8485040045859478
 20
149.0569130384280925
 30
0.0
 40
0.04
 50
180.0000000000032117
 51
272.1709390321976798
  0
LINE
  5
124CC
  8
0
 10
1482.6022541781160271
 20
150.8117784155712968
 30
0.0
 11
1482.7322541781159089
 21
150.8117784155712968
 31
0.0
  0
LINE
  5
124CD
  8
0
 10
1482.7922541781160817
 20
150.8717784155712991
 30
0.0
 11
1482.7922541781160817
 21
152.0235021625319121
 31
0.0
  0
LINE
  5
124CE
  8
0
 10
1482.5422541781160817
 20
150.8717784155712991
 30
0.0
 11
1482.5422541781160817
 21
152.0255606329332068
 31
0.0
  0
ARC
  5
124CF
  8
0
 10
1482.6022541781160271
 20
150.8717784155712991
 30
0.0
 40
0.06
 50
180.0000000000048885
 51
269.9999999999869829
  0
ARC
  5
124D0
  8
0
 10
1482.7322541781159089
 20
150.8717784155712991
 30
0.0
 40
0.06
 50
270.0
 51
359.9999999999968168
  0
ARC
  5
124D1
  8
0
 10
1481.865192345665946
 20
151.5923291193145133
 30
0.0
 40
0.9293464564666942
 50
4.0183261625035653
 51
12.4635565907478796
  0
ARC
  5
124D2
  8
0
 10
1462.8939631058710802
 20
147.0663433196415895
 30
0.0
 40
20.4328662023534484
 50
13.3748714207344399
 51
13.9038828476959608
  0
ARC
  5
124D3
  8
0
 10
1482.3337912610759304
 20
151.8786125299525054
 30
0.0
 40
0.4062625547952129
 50
13.9038828476959608
 51
19.3762518172143885
  0
LINE
  5
124D4
  8
0
 10
1482.5422541781160817
 20
151.0592784155712991
 30
0.0
 11
1482.5017541781160162
 21
151.0592784155712991
 31
0.0
  0
LINE
  5
124D5
  8
0
 10
1482.5422541781160817
 20
151.7042784155713093
 30
0.0
 11
1482.5017541781160162
 21
151.7042784155713093
 31
0.0
  0
LINE
  5
124D6
  8
0
 10
1483.4002695785620745
 20
150.9302268037073134
 30
0.0
 11
1482.8500192433239135
 21
150.9093678167556902
 31
0.0
  0
ARC
  5
124D7
  8
0
 10
1483.3987543398241087
 20
150.9701980940488113
 30
0.0
 40
0.04
 50
272.170939032210697
 51
359.9999999999968168
  0
ARC
  5
124D8
  8
0
 10
1482.8485040045859478
 20
150.9493391070971882
 30
0.0
 40
0.04
 50
180.0000000000032117
 51
272.1709390321976798
  0
LINE
  5
124D9
  8
0
 10
1484.8887541781159598
 20
167.3222784155713043
 30
0.0
 11
1484.8887541781159598
 21
169.0112784155712973
 31
0.0
  0
LINE
  5
124DA
  8
0
 10
1484.868754178115978
 20
168.9837784155712939
 30
0.0
 11
1484.8487541781310028
 21
168.9837784155712939
 31
0.0
  0
LINE
  5
124DB
  8
0
 10
1484.9337541781160326
 20
169.0412784155712984
 30
0.0
 11
1484.9187541781159325
 21
169.0412784155712984
 31
0.0
  0
LINE
  5
124DC
  8
0
 10
1484.9537541781160144
 20
169.0740955694751051
 30
0.0
 11
1484.9537541781160144
 21
167.2594612616674965
 31
0.0
  0
LINE
  5
124DD
  8
0
 10
1485.1197541781159543
 20
169.1287784155713041
 30
0.0
 11
1484.9892055626999081
 21
169.113836104169394
 31
0.0
  0
LINE
  5
124DE
  8
0
 10
1485.1197541781159543
 20
169.1287784155713041
 30
0.0
 11
1485.1197541781159543
 21
167.2047784155712975
 31
0.0
  0
ARC
  5
124DF
  8
0
 10
1484.993754178115978
 20
169.0740955694751051
 30
0.0
 40
0.04
 50
96.5295359983179964
 51
180.0000000000065086
  0
ARC
  5
124E0
  8
0
 10
1484.9337541781160326
 20
169.0612784155713086
 30
0.0
 40
0.02
 50
270.0
 51
0.0000000000016284
  0
ARC
  5
124E1
  8
0
 10
1484.868754178115978
 20
169.0037784155713041
 30
0.0
 40
0.02
 50
269.9999999999608917
 51
0.000000000014656
  0
ARC
  5
124E2
  8
0
 10
1484.9187541781159325
 20
169.0112784155712973
 30
0.0
 40
0.03
 50
89.9999999999869686
 51
180.0000000000081002
  0
LINE
  5
124E3
  8
0
 10
1484.6797541781158998
 20
168.8157811216242123
 30
0.0
 11
1484.6797541781158998
 21
167.5177757095181903
 31
0.0
  0
ARC
  5
124E4
  8
0
 10
1484.7048581971980639
 20
168.8982952554673886
 30
0.0
 40
0.0575141994078065
 50
269.9277717528510721
 51
297.9368380107201233
  0
ARC
  5
124E5
  8
0
 10
1484.7058785341639577
 20
168.8963711667448138
 30
0.0
 40
0.0553363093886542
 50
297.9368380107209191
 51
332.8146658105144979
  0
ARC
  5
124E6
  8
0
 10
1484.0681410175300243
 20
169.2239174028603088
 30
0.0
 40
0.7722712275748688
 50
332.8146658105144979
 51
336.2645913949349961
  0
ARC
  5
124E7
  8
0
 10
1485.0040649151549133
 20
168.8123854964032091
 30
0.0
 40
0.2501338057539808
 50
144.1248655240073049
 51
156.2645913949365024
  0
ARC
  5
124E8
  8
0
 10
1484.8495432935978897
 20
168.9241383284476115
 30
0.0
 40
0.0594360684875747
 50
120.7509402338403959
 51
144.1248655240073049
  0
ARC
  5
124E9
  8
0
 10
1484.8503622662910857
 20
168.9227618105203135
 30
0.0
 40
0.0610377918959743
 50
91.5096766230248875
 51
120.7509402338275066
  0
ARC
  5
124EA
  8
0
 10
1484.7047541781150812
 20
168.8157811216244113
 30
0.0
 40
0.025
 50
89.9277717518870361
 51
180.000000000400604
  0
LINE
  5
124EB
  8
0
 10
1484.614454716516093
 20
168.7698221760713011
 30
0.0
 11
1484.6633562675031044
 21
168.7787759811689057
 31
0.0
  0
LINE
  5
124EC
  8
0
 10
1484.6036441954161091
 20
168.7661900076712982
 30
0.0
 11
1484.614454716516093
 21
168.7698221760713011
 31
0.0
  0
LINE
  5
124ED
  8
0
 10
1483.6121951781160533
 20
168.6217784155712991
 30
0.0
 11
1483.4811951781159678
 21
168.6217784155712991
 31
0.0
  0
LINE
  5
124EE
  8
0
 10
1483.461195178115986
 20
168.6017784155712889
 30
0.0
 11
1483.461195178115986
 21
167.7317784155713127
 31
0.0
  0
ARC
  5
124EF
  8
0
 10
1483.6053656735009554
 20
172.2338246360415042
 30
0.0
 40
3.658266288080406
 50
270.7374960629746852
 51
274.4365829790685893
  0
ARC
  5
124F0
  8
0
 10
1483.661083127637994
 20
171.5157061923721074
 30
0.0
 40
2.937989581644842
 50
274.4365829790685893
 51
281.8896195992301159
  0
ARC
  5
124F1
  8
0
 10
1484.0384595248390269
 20
169.7233175215530991
 30
0.0
 40
1.1063045398200211
 50
281.8896195992301159
 51
295.2093354553065865
  0
ARC
  5
124F2
  8
0
 10
1490.3631703125629429
 20
156.288305364128405
 30
0.0
 40
13.7429889860854608
 50
114.7770424710403034
 51
115.2093354553065012
  0
ARC
  5
124F3
  8
0
 10
1484.659754178115918
 20
168.7984489309235983
 30
0.0
 40
0.02
 50
280.3758449056632003
 51
0.0000000000130276
  0
ARC
  5
124F4
  8
0
 10
1483.6521951781160169
 20
168.5958597405978026
 30
0.0
 40
0.02
 50
180.0
 51
270.7374960630007763
  0
ARC
  5
124F5
  8
0
 10
1483.6121951781160533
 20
168.6017784155712889
 30
0.0
 40
0.02
 50
359.9999999999968168
 51
90.0000000000260485
  0
ARC
  5
124F6
  8
0
 10
1483.4811951781159678
 20
168.6017784155712889
 30
0.0
 40
0.02
 50
89.9999999999739515
 51
180.0000000000179057
  0
LINE
  5
124F7
  8
0
 10
1483.4461951781161133
 20
168.5757784155713068
 30
0.0
 11
1483.4211951781169319
 21
168.5757784155713068
 31
0.0
  0
ARC
  5
124F8
  8
0
 10
1483.4461951781161133
 20
168.560778415571292
 30
0.0
 40
0.015
 50
0.0000000000211698
 51
90.0
  0
ARC
  5
124F9
  8
0
 10
1483.4504246309938935
 20
167.6708105058256137
 30
0.0
 40
0.9054398260431931
 50
91.8499465739839422
 51
93.4717146804558894
  0
LINE
  5
124FA
  8
0
 10
1484.9337541781160326
 20
167.2922784155713032
 30
0.0
 11
1484.9187541781159325
 21
167.2922784155713032
 31
0.0
  0
LINE
  5
124FB
  8
0
 10
1485.1197541781159543
 20
167.2047784155712975
 30
0.0
 11
1484.9892055626999081
 21
167.2197207269732075
 31
0.0
  0
ARC
  5
124FC
  8
0
 10
1484.993754178115978
 20
167.2594612616674965
 30
0.0
 40
0.04
 50
179.9999999999934914
 51
263.4704640016821031
  0
ARC
  5
124FD
  8
0
 10
1484.9337541781160326
 20
167.272278415571293
 30
0.0
 40
0.02
 50
359.9999999999968168
 51
90.0
  0
ARC
  5
124FE
  8
0
 10
1484.868754178115978
 20
167.3297784155712975
 30
0.0
 40
0.02
 50
359.9999999999836859
 51
90.0000000000390656
  0
ARC
  5
124FF
  8
0
 10
1484.9187541781159325
 20
167.3222784155713043
 30
0.0
 40
0.03
 50
179.9999999999917861
 51
270.0000000000130171
  0
ARC
  5
12500
  8
0
 10
1484.7048581971980639
 20
167.435261575675213
 30
0.0
 40
0.0575141994078065
 50
62.063161989279152
 51
90.0722282471489137
  0
ARC
  5
12501
  8
0
 10
1484.7058785341639577
 20
167.4371856643977878
 30
0.0
 40
0.0553363093886542
 50
27.1853341894855198
 51
62.063161989279152
  0
ARC
  5
12502
  8
0
 10
1484.0681410175300243
 20
167.1096394282824065
 30
0.0
 40
0.7722712275748688
 50
23.73540860506494
 51
27.1853341894855198
  0
ARC
  5
12503
  8
0
 10
1485.0040649151549133
 20
167.5211713347393925
 30
0.0
 40
0.2501338057539808
 50
203.7354086050634123
 51
215.8751344759926951
  0
ARC
  5
12504
  8
0
 10
1484.8495432935978897
 20
167.4094185026951038
 30
0.0
 40
0.0594360684875747
 50
215.8751344759926951
 51
239.2490597661596041
  0
ARC
  5
12505
  8
0
 10
1484.8503622662910857
 20
167.4107950206224018
 30
0.0
 40
0.0610377918959743
 50
239.2490597661725076
 51
268.4903233910237077
  0
ARC
  5
12506
  8
0
 10
1484.7047541781150812
 20
167.5177757095181903
 30
0.0
 40
0.025
 50
179.999999999599396
 51
270.0722282481129923
  0
LINE
  5
12507
  8
0
 10
1484.614454716516093
 20
167.5637346550713005
 30
0.0
 11
1484.6633562675031044
 21
167.5547808499738096
 31
0.0
  0
LINE
  5
12508
  8
0
 10
1484.6036441954161091
 20
167.5673668234713034
 30
0.0
 11
1484.614454716516093
 21
167.5637346550713005
 31
0.0
  0
LINE
  5
12509
  8
0
 10
1483.6321951781160351
 20
168.6017784155712889
 30
0.0
 11
1483.6321951781160351
 21
167.7317784155713127
 31
0.0
  0
LINE
  5
1250A
  8
0
 10
1483.6121951781160533
 20
167.7117784155713025
 30
0.0
 11
1483.4811951781159678
 21
167.7117784155713025
 31
0.0
  0
ARC
  5
1250B
  8
0
 10
1483.6053656735009554
 20
164.0997321951012111
 30
0.0
 40
3.658266288080406
 50
85.5634170209313538
 51
89.2625039370253148
  0
ARC
  5
1250C
  8
0
 10
1483.661083127637994
 20
164.8178506387704942
 30
0.0
 40
2.937989581644842
 50
78.1103804007698983
 51
85.5634170209313538
  0
ARC
  5
1250D
  8
0
 10
1484.0384595248390269
 20
166.6102393095895025
 30
0.0
 40
1.1063045398200211
 50
64.7906645446934419
 51
78.1103804007698983
  0
ARC
  5
1250E
  8
0
 10
1490.3631703125629429
 20
180.0452514670141966
 30
0.0
 40
13.7429889860854608
 50
244.7906645446934135
 51
245.2229575289597108
  0
ARC
  5
1250F
  8
0
 10
1484.659754178115918
 20
167.5351079002190886
 30
0.0
 40
0.02
 50
359.9999999999869829
 51
79.624155094336885
  0
ARC
  5
12510
  8
0
 10
1483.6521951781160169
 20
167.737697090544799
 30
0.0
 40
0.02
 50
89.2625039369992663
 51
180.0
  0
ARC
  5
12511
  8
0
 10
1483.6121951781160533
 20
167.7317784155713127
 30
0.0
 40
0.02
 50
269.9999999999739089
 51
0.0000000000016284
  0
ARC
  5
12512
  8
0
 10
1483.4811951781159678
 20
167.7317784155713127
 30
0.0
 40
0.02
 50
179.9999999999820943
 51
270.0000000000259774
  0
LINE
  5
12513
  8
0
 10
1483.4461951781161133
 20
167.7577784155712948
 30
0.0
 11
1483.4211951781169319
 21
167.7577784155712948
 31
0.0
  0
ARC
  5
12514
  8
0
 10
1483.4461951781161133
 20
167.7727784155713096
 30
0.0
 40
0.015
 50
270.0
 51
359.9999999999789111
  0
ARC
  5
12515
  8
0
 10
1483.4504246309938935
 20
168.6627463253171015
 30
0.0
 40
0.9054398260431931
 50
266.5282853195441248
 51
268.1500534260159725
  0
LINE
  5
12516
  8
0
 10
1484.868754178115978
 20
167.3497784155713077
 30
0.0
 11
1484.8487541781310028
 21
167.3497784155713077
 31
0.0
  0
LINE
  5
12517
  8
0
 10
1482.9872781781159574
 20
167.5601125411297119
 30
0.0
 11
1482.9872781781159574
 21
168.7734442905951084
 31
0.0
  0
LINE
  5
12518
  8
0
 10
1482.5247541781159271
 20
166.827778415571288
 30
0.0
 11
1482.5732782664260867
 21
166.827778415571288
 31
0.0
  0
ARC
  5
12519
  8
0
 10
1482.5732782664260867
 20
166.9167781081897886
 30
0.0
 40
0.0889996926185409
 50
269.9999431483363992
 51
339.6447279432269966
  0
ARC
  5
1251A
  8
0
 10
1482.5759290709170273
 20
166.9157946377094106
 30
0.0
 40
0.0861723301312825
 50
339.6447279432269966
 51
0.6860342905073898
  0
ARC
  5
1251B
  8
0
 10
1482.7073223030809004
 20
166.8991408211423959
 30
0.0
 40
0.0485620063757718
 50
107.3275681243419939
 51
158.6425310489898948
  0
ARC
  5
1251C
  8
0
 10
1482.7675738103109779
 20
166.7448164226329936
 30
0.0
 40
0.2141396863393124
 50
100.3136192285757033
 51
110.4205052804626064
  0
ARC
  5
1251D
  8
0
 10
1482.7232781781440281
 20
166.98489879016131
 30
0.0
 40
0.0299999999718492
 50
281.4529634843954113
 51
0.0000000177907507
  0
ARC
  5
1251E
  8
0
 10
1493.3454080261381023
 20
167.0213386028709976
 30
0.0
 40
10.5921925292794601
 50
179.8028876848092921
 51
180.1971123151907079
  0
ARC
  5
1251F
  8
0
 10
1483.7216904672609417
 20
167.0861191845283997
 30
0.0
 40
0.9688268993752069
 50
165.9480381080115023
 51
181.6762933879273021
  0
ARC
  5
12520
  8
0
 10
1483.055726984732928
 20
167.2665091920667066
 30
0.0
 40
0.279309337459144
 50
130.9446954176875124
 51
168.6763012459352069
  0
ARC
  5
12521
  8
0
 10
1482.978548904156014
 20
167.3422964653844929
 30
0.0
 40
0.1717038824142085
 50
100.6184685980814066
 51
128.0636774849749031
  0
ARC
  5
12522
  8
0
 10
1482.9373120074219514
 20
167.560095890810004
 30
0.0
 40
0.0499661734676903
 50
281.0739998685539263
 51
0.0190921378649033
  0
LINE
  5
12523
  8
0
 10
1483.0172781781159301
 20
167.6147784155712941
 30
0.0
 11
1483.1109835405529793
 21
167.6147784155712941
 31
0.0
  0
ARC
  5
12524
  8
0
 10
1483.0172781781159301
 20
167.584778415571293
 30
0.0
 40
0.03
 50
90.0000000000130314
 51
180.0000000000065086
  0
ARC
  5
12525
  8
0
 10
1483.2625148341990098
 20
167.5938410612930909
 30
0.0
 40
0.1298635262183326
 50
114.1362608818177051
 51
161.4198919724391033
  0
ARC
  5
12526
  8
0
 10
1483.4409466574259113
 20
167.1956280418287974
 30
0.0
 40
0.5662252161166793
 50
104.0546662361019941
 51
114.1362608818177051
  0
ARC
  5
12527
  8
0
 10
1483.4242366879989277
 20
167.2623766977374089
 30
0.0
 40
0.4974167417559553
 50
93.3009647967932949
 51
104.0546662361019941
  0
ARC
  5
12528
  8
0
 10
1483.1109835405529793
 20
167.6447784155708973
 30
0.0
 40
0.03
 50
269.9999999997525038
 51
341.4198919730632156
  0
LINE
  5
12529
  8
0
 10
1482.5147541781159362
 20
166.8377784155713073
 30
0.0
 11
1482.5147541781159362
 21
169.4957784155712943
 31
0.0
  0
ARC
  5
1252A
  8
0
 10
1482.5247541781159271
 20
166.8377784155713073
 30
0.0
 40
0.01
 50
179.9999999999593001
 51
270.0000000000391083
  0
LINE
  5
1252B
  8
0
 10
1482.5147541781159362
 20
167.4617784155713025
 30
0.0
 11
1482.5017541781160162
 21
167.4617784155713025
 31
0.0
  0
LINE
  5
1252C
  8
0
 10
1482.5247541781159271
 20
169.5057784155713136
 30
0.0
 11
1482.5732782664260867
 21
169.5057784155713136
 31
0.0
  0
ARC
  5
1252D
  8
0
 10
1482.5732782664260867
 20
169.416778722952813
 30
0.0
 40
0.0889996926185409
 50
20.3552720567729892
 51
90.000056851663615
  0
ARC
  5
1252E
  8
0
 10
1482.5759290709170273
 20
169.417762193433191
 30
0.0
 40
0.0861723301312825
 50
359.3139657094926065
 51
20.3552720567729892
  0
ARC
  5
1252F
  8
0
 10
1482.7073223030809004
 20
169.4344160100002057
 30
0.0
 40
0.0485620063757718
 50
201.3574689510101052
 51
252.6724318756579066
  0
ARC
  5
12530
  8
0
 10
1482.7675738103109779
 20
169.588740408509608
 30
0.0
 40
0.2141396863393124
 50
249.5794947195373936
 51
259.686380771424183
  0
ARC
  5
12531
  8
0
 10
1482.7232781781440281
 20
169.3486580409814053
 30
0.0
 40
0.0299999999718492
 50
359.9999999822093173
 51
78.5470365156045744
  0
ARC
  5
12532
  8
0
 10
1493.3454080261381023
 20
169.3122182282716892
 30
0.0
 40
10.5921925292794601
 50
179.8028876848092921
 51
180.1971123151907079
  0
ARC
  5
12533
  8
0
 10
1483.7216904672609417
 20
169.2474376466142871
 30
0.0
 40
0.9688268993752069
 50
178.3237066120742043
 51
194.0519618919884124
  0
ARC
  5
12534
  8
0
 10
1483.055726984732928
 20
169.0670476390758949
 30
0.0
 40
0.279309337459144
 50
191.3236987540647078
 51
229.0553045823124023
  0
ARC
  5
12535
  8
0
 10
1482.978548904156014
 20
168.9912603657581087
 30
0.0
 40
0.1717038824142085
 50
231.9363225150250969
 51
259.3815314019184939
  0
ARC
  5
12536
  8
0
 10
1482.9373120074219514
 20
168.7734609403325976
 30
0.0
 40
0.0499661734676903
 50
359.9809078621350977
 51
78.9260001314332555
  0
LINE
  5
12537
  8
0
 10
1483.0172781781159301
 20
168.7187784155713075
 30
0.0
 11
1483.1109835405529793
 21
168.7187784155713075
 31
0.0
  0
ARC
  5
12538
  8
0
 10
1483.0172781781159301
 20
168.7487784155713086
 30
0.0
 40
0.03
 50
179.9999999999934914
 51
269.9999999999869829
  0
ARC
  5
12539
  8
0
 10
1483.2625148341990098
 20
168.7397157698495107
 30
0.0
 40
0.1298635262183326
 50
198.5801080275608967
 51
245.8637391181823091
  0
ARC
  5
1253A
  8
0
 10
1483.4409466574259113
 20
169.1379287893138041
 30
0.0
 40
0.5662252161166793
 50
245.8637391181823091
 51
255.9453337638979917
  0
ARC
  5
1253B
  8
0
 10
1483.4242366879989277
 20
169.0711801334051927
 30
0.0
 40
0.4974167417559553
 50
255.9453337638979917
 51
266.6990352032066767
  0
ARC
  5
1253C
  8
0
 10
1483.1109835405529793
 20
168.6887784155717043
 30
0.0
 40
0.03
 50
18.5801080269367986
 51
90.0000000002475247
  0
ARC
  5
1253D
  8
0
 10
1482.5247541781159271
 20
169.4957784155712943
 30
0.0
 40
0.01
 50
89.9999999999609201
 51
180.0000000000406999
  0
LINE
  5
1253E
  8
0
 10
1482.5147541781159362
 20
168.8717784155712991
 30
0.0
 11
1482.5017541781160162
 21
168.8717784155712991
 31
0.0
  0
LINE
  5
1253F
  8
0
 10
1483.1394199132319045
 20
168.6983373228761138
 30
0.0
 11
1483.1394199132319045
 21
167.6352195082664878
 31
0.0
  0
LINE
  5
12540
  8
0
 10
1482.6621013984599813
 20
166.9168421840439009
 30
0.0
 11
1482.6620952240270981
 21
169.4167304287672948
 31
0.0
  0
LINE
  5
12541
  8
0
 10
1484.8887541781159598
 20
141.9812784155712961
 30
0.0
 11
1484.8887541781159598
 21
140.2922784155713032
 31
0.0
  0
LINE
  5
12542
  8
0
 10
1484.868754178115978
 20
140.3197784155713066
 30
0.0
 11
1484.8487541781310028
 21
140.3197784155713066
 31
0.0
  0
LINE
  5
12543
  8
0
 10
1484.9337541781160326
 20
140.262278415571302
 30
0.0
 11
1484.9187541781159325
 21
140.262278415571302
 31
0.0
  0
LINE
  5
12544
  8
0
 10
1484.9537541781160144
 20
140.2294612616674954
 30
0.0
 11
1484.9537541781160144
 21
142.044095569475104
 31
0.0
  0
LINE
  5
12545
  8
0
 10
1485.1197541781159543
 20
140.1747784155712964
 30
0.0
 11
1484.9892055626999081
 21
140.1897207269732064
 31
0.0
  0
LINE
  5
12546
  8
0
 10
1485.1197541781159543
 20
140.1747784155712964
 30
0.0
 11
1485.1197541781159543
 21
142.098778415571303
 31
0.0
  0
ARC
  5
12547
  8
0
 10
1484.993754178115978
 20
140.2294612616674954
 30
0.0
 40
0.04
 50
179.9999999999934914
 51
263.4704640016821031
  0
ARC
  5
12548
  8
0
 10
1484.9337541781160326
 20
140.2422784155712918
 30
0.0
 40
0.02
 50
359.9999999999968168
 51
90.0
  0
ARC
  5
12549
  8
0
 10
1484.868754178115978
 20
140.2997784155712964
 30
0.0
 40
0.02
 50
359.9999999999852776
 51
90.0000000000390656
  0
ARC
  5
1254A
  8
0
 10
1484.9187541781159325
 20
140.2922784155713032
 30
0.0
 40
0.03
 50
179.9999999999917861
 51
270.0000000000130171
  0
LINE
  5
1254B
  8
0
 10
1484.6797541781158998
 20
140.4877757095183881
 30
0.0
 11
1484.6797541781158998
 21
141.7857811216244102
 31
0.0
  0
ARC
  5
1254C
  8
0
 10
1484.7048581971980639
 20
140.4052615756752118
 30
0.0
 40
0.0575141994078065
 50
62.063161989279898
 51
90.0722282471489137
  0
ARC
  5
1254D
  8
0
 10
1484.7058785341639577
 20
140.4071856643977867
 30
0.0
 40
0.0553363093886542
 50
27.1853341894855198
 51
62.063161989279152
  0
ARC
  5
1254E
  8
0
 10
1484.0681410175300243
 20
140.0796394282822916
 30
0.0
 40
0.7722712275748688
 50
23.73540860506494
 51
27.1853341894855198
  0
ARC
  5
1254F
  8
0
 10
1485.0040649151549133
 20
140.4911713347393913
 30
0.0
 40
0.2501338057539808
 50
203.7354086050634123
 51
215.8751344759926951
  0
ARC
  5
12550
  8
0
 10
1484.8495432935978897
 20
140.3794185026951027
 30
0.0
 40
0.0594360684875747
 50
215.8751344759926951
 51
239.2490597661596041
  0
ARC
  5
12551
  8
0
 10
1484.8503622662910857
 20
140.3807950206224007
 30
0.0
 40
0.0610377918959743
 50
239.2490597661725076
 51
268.4903233769750841
  0
ARC
  5
12552
  8
0
 10
1484.7047541781150812
 20
140.4877757095181892
 30
0.0
 40
0.025
 50
179.999999999599396
 51
270.0722282481129923
  0
LINE
  5
12553
  8
0
 10
1484.614454716516093
 20
140.5337346550712994
 30
0.0
 11
1484.6633562675031044
 21
140.5247808499736948
 31
0.0
  0
LINE
  5
12554
  8
0
 10
1484.6036441954161091
 20
140.5373668234713023
 30
0.0
 11
1484.614454716516093
 21
140.5337346550712994
 31
0.0
  0
LINE
  5
12555
  8
0
 10
1483.6121951781160533
 20
140.6817784155713014
 30
0.0
 11
1483.4811951781159678
 21
140.6817784155713014
 31
0.0
  0
LINE
  5
12556
  8
0
 10
1483.461195178115986
 20
140.7017784155713116
 30
0.0
 11
1483.461195178115986
 21
141.5717784155712877
 31
0.0
  0
ARC
  5
12557
  8
0
 10
1483.6053656735009554
 20
137.06973219510121
 30
0.0
 40
3.658266288080406
 50
85.5634170209313538
 51
89.2625039370253148
  0
ARC
  5
12558
  8
0
 10
1483.661083127637994
 20
137.7878506387704931
 30
0.0
 40
2.937989581644842
 50
78.1103804007698983
 51
85.5634170209313538
  0
ARC
  5
12559
  8
0
 10
1484.0384595248390269
 20
139.5802393095895013
 30
0.0
 40
1.1063045398200211
 50
64.7906645446934419
 51
78.1103804007698983
  0
ARC
  5
1255A
  8
0
 10
1490.3631703125629429
 20
153.0152514670141954
 30
0.0
 40
13.7429889860854608
 50
244.7906645446934135
 51
245.2229575289597108
  0
ARC
  5
1255B
  8
0
 10
1484.659754178115918
 20
140.5051079002190875
 30
0.0
 40
0.02
 50
359.9999999999869829
 51
79.624155094336885
  0
ARC
  5
1255C
  8
0
 10
1483.6521951781160169
 20
140.7076970905447979
 30
0.0
 40
0.02
 50
89.2625039369992663
 51
180.0
  0
ARC
  5
1255D
  8
0
 10
1483.6121951781160533
 20
140.7017784155713116
 30
0.0
 40
0.02
 50
269.9999999999739089
 51
0.0000000000032569
  0
ARC
  5
1255E
  8
0
 10
1483.4811951781159678
 20
140.7017784155713116
 30
0.0
 40
0.02
 50
179.9999999999820943
 51
270.0000000000259774
  0
LINE
  5
1255F
  8
0
 10
1483.4461951781161133
 20
140.7277784155712936
 30
0.0
 11
1483.4211951781169319
 21
140.7277784155712936
 31
0.0
  0
ARC
  5
12560
  8
0
 10
1483.4461951781161133
 20
140.7427784155713084
 30
0.0
 40
0.015
 50
270.0
 51
359.9999999999789111
  0
ARC
  5
12561
  8
0
 10
1483.4504246309938935
 20
141.6327463253171004
 30
0.0
 40
0.9054398260431931
 50
266.5282853195441248
 51
268.1500534260159725
  0
LINE
  5
12562
  8
0
 10
1484.9337541781160326
 20
142.0112784155712973
 30
0.0
 11
1484.9187541781159325
 21
142.0112784155712973
 31
0.0
  0
LINE
  5
12563
  8
0
 10
1485.1197541781159543
 20
142.098778415571303
 30
0.0
 11
1484.9892055626999081
 21
142.0838361041693929
 31
0.0
  0
ARC
  5
12564
  8
0
 10
1484.993754178115978
 20
142.044095569475104
 30
0.0
 40
0.04
 50
96.5295359983179964
 51
180.0000000000065086
  0
ARC
  5
12565
  8
0
 10
1484.9337541781160326
 20
142.0312784155713075
 30
0.0
 40
0.02
 50
270.0
 51
0.0000000000032569
  0
ARC
  5
12566
  8
0
 10
1484.868754178115978
 20
141.973778415571303
 30
0.0
 40
0.02
 50
269.9999999999608917
 51
0.000000000014656
  0
ARC
  5
12567
  8
0
 10
1484.9187541781159325
 20
141.9812784155712961
 30
0.0
 40
0.03
 50
89.9999999999869686
 51
180.0000000000081002
  0
ARC
  5
12568
  8
0
 10
1484.7048581971980639
 20
141.8682952554673875
 30
0.0
 40
0.0575141994078065
 50
269.9277717528510721
 51
297.9368380107209191
  0
ARC
  5
12569
  8
0
 10
1484.7058785341639577
 20
141.8663711667448126
 30
0.0
 40
0.0553363093886542
 50
297.9368380107209191
 51
332.8146658105144979
  0
ARC
  5
1256A
  8
0
 10
1484.0681410175300243
 20
142.1939174028603077
 30
0.0
 40
0.7722712275748688
 50
332.8146658105144979
 51
336.2645913949349961
  0
ARC
  5
1256B
  8
0
 10
1485.0040649151549133
 20
141.782385496403208
 30
0.0
 40
0.2501338057539808
 50
144.1248655240073049
 51
156.2645913949365024
  0
ARC
  5
1256C
  8
0
 10
1484.8495432935978897
 20
141.8941383284476103
 30
0.0
 40
0.0594360684875747
 50
120.7509402338403959
 51
144.1248655240073049
  0
ARC
  5
1256D
  8
0
 10
1484.8503622662910857
 20
141.8927618105203123
 30
0.0
 40
0.0610377918959743
 50
91.5096766089763065
 51
120.7509402338275066
  0
ARC
  5
1256E
  8
0
 10
1484.7047541781150812
 20
141.7857811216244102
 30
0.0
 40
0.025
 50
89.9277717518870361
 51
180.000000000400604
  0
LINE
  5
1256F
  8
0
 10
1484.614454716516093
 20
141.7398221760713
 30
0.0
 11
1484.6633562675031044
 21
141.7487759811689045
 31
0.0
  0
LINE
  5
12570
  8
0
 10
1484.6036441954161091
 20
141.7361900076712971
 30
0.0
 11
1484.614454716516093
 21
141.7398221760713
 31
0.0
  0
LINE
  5
12571
  8
0
 10
1483.6321951781160351
 20
140.7017784155713116
 30
0.0
 11
1483.6321951781160351
 21
141.5717784155712877
 31
0.0
  0
LINE
  5
12572
  8
0
 10
1483.6121951781160533
 20
141.591778415571298
 30
0.0
 11
1483.4811951781159678
 21
141.591778415571298
 31
0.0
  0
ARC
  5
12573
  8
0
 10
1483.6053656735009554
 20
145.2038246360413893
 30
0.0
 40
3.658266288080406
 50
270.7374960629746852
 51
274.4365829790685893
  0
ARC
  5
12574
  8
0
 10
1483.661083127637994
 20
144.4857061923721062
 30
0.0
 40
2.937989581644842
 50
274.4365829790685893
 51
281.8896195992301159
  0
ARC
  5
12575
  8
0
 10
1484.0384595248390269
 20
142.693317521553098
 30
0.0
 40
1.1063045398200211
 50
281.8896195992301159
 51
295.2093354553065865
  0
ARC
  5
12576
  8
0
 10
1490.3631703125629429
 20
129.2583053641284039
 30
0.0
 40
13.7429889860854608
 50
114.7770424710403034
 51
115.2093354553065012
  0
ARC
  5
12577
  8
0
 10
1484.659754178115918
 20
141.7684489309235971
 30
0.0
 40
0.02
 50
280.3758449056632003
 51
0.0000000000130276
  0
ARC
  5
12578
  8
0
 10
1483.6521951781160169
 20
141.5658597405978867
 30
0.0
 40
0.02
 50
180.0
 51
270.7374960630007763
  0
ARC
  5
12579
  8
0
 10
1483.6121951781160533
 20
141.5717784155712877
 30
0.0
 40
0.02
 50
359.9999999999968168
 51
90.0000000000260485
  0
ARC
  5
1257A
  8
0
 10
1483.4811951781159678
 20
141.5717784155712877
 30
0.0
 40
0.02
 50
89.9999999999739515
 51
180.0000000000179057
  0
LINE
  5
1257B
  8
0
 10
1483.4461951781161133
 20
141.5457784155713057
 30
0.0
 11
1483.4211951781169319
 21
141.5457784155713057
 31
0.0
  0
ARC
  5
1257C
  8
0
 10
1483.4461951781161133
 20
141.5307784155712909
 30
0.0
 40
0.015
 50
0.0000000000211698
 51
90.0
  0
ARC
  5
1257D
  8
0
 10
1483.4504246309938935
 20
140.6408105058256126
 30
0.0
 40
0.9054398260431931
 50
91.8499465739839422
 51
93.4717146804558894
  0
LINE
  5
1257E
  8
0
 10
1484.868754178115978
 20
141.9537784155712927
 30
0.0
 11
1484.8487541781310028
 21
141.9537784155712927
 31
0.0
  0
LINE
  5
1257F
  8
0
 10
1482.9872781781159574
 20
141.7434442900128886
 30
0.0
 11
1482.9872781781159574
 21
140.5301125405476057
 31
0.0
  0
LINE
  5
12580
  8
0
 10
1482.5247541781159271
 20
142.4757784155713125
 30
0.0
 11
1482.5732782664260867
 21
142.4757784155713125
 31
0.0
  0
ARC
  5
12581
  8
0
 10
1482.5732782664260867
 20
142.3867787229528119
 30
0.0
 40
0.0889996926185409
 50
20.3552720567729892
 51
90.000056851663615
  0
ARC
  5
12582
  8
0
 10
1482.5759290709170273
 20
142.3877621934331899
 30
0.0
 40
0.0861723301312825
 50
359.3139657094926065
 51
20.3552720567729892
  0
ARC
  5
12583
  8
0
 10
1482.7073223030809004
 20
142.4044160100002046
 30
0.0
 40
0.0485620063757718
 50
201.3574689510101052
 51
252.6724318756579066
  0
ARC
  5
12584
  8
0
 10
1482.7675738103109779
 20
142.5587404085096068
 30
0.0
 40
0.2141396863393124
 50
249.5794947195373936
 51
259.686380771424183
  0
ARC
  5
12585
  8
0
 10
1482.7232781781440281
 20
142.3186580409814042
 30
0.0
 40
0.0299999999718492
 50
359.9999999822093173
 51
78.5470365156045744
  0
ARC
  5
12586
  8
0
 10
1493.3454080261381023
 20
142.2822182282716881
 30
0.0
 40
10.5921925292794601
 50
179.8028876848092921
 51
180.1971123151907079
  0
ARC
  5
12587
  8
0
 10
1483.7216904672609417
 20
142.2174376466142007
 30
0.0
 40
0.9688268993752069
 50
178.3237066120726126
 51
194.0519618919884124
  0
ARC
  5
12588
  8
0
 10
1483.055726984732928
 20
142.0370476390758938
 30
0.0
 40
0.279309337459144
 50
191.3236987540647078
 51
229.0553045823124023
  0
ARC
  5
12589
  8
0
 10
1482.978548904156014
 20
141.9612603657581076
 30
0.0
 40
0.1717038824142085
 50
231.9363225150250969
 51
259.3815314019184939
  0
ARC
  5
1258A
  8
0
 10
1482.9373120074219514
 20
141.7434609403325965
 30
0.0
 40
0.0499661734676903
 50
359.9809078621350977
 51
78.9260001314332555
  0
LINE
  5
1258B
  8
0
 10
1483.0172781781159301
 20
141.6887784155713064
 30
0.0
 11
1483.1109835405529793
 21
141.6887784155713064
 31
0.0
  0
ARC
  5
1258C
  8
0
 10
1483.0172781781159301
 20
141.7187784155713075
 30
0.0
 40
0.03
 50
179.9999999999934914
 51
269.9999999999869829
  0
ARC
  5
1258D
  8
0
 10
1483.2625148341990098
 20
141.7097157698495096
 30
0.0
 40
0.1298635262183326
 50
198.5801080275608967
 51
245.8637391181823091
  0
ARC
  5
1258E
  8
0
 10
1483.4409466574259113
 20
142.107928789313803
 30
0.0
 40
0.5662252161166793
 50
245.8637391181823091
 51
255.9453337638979917
  0
ARC
  5
1258F
  8
0
 10
1483.4242366879989277
 20
142.0411801334051916
 30
0.0
 40
0.4974167417559553
 50
255.9453337638979917
 51
266.6990352032066767
  0
ARC
  5
12590
  8
0
 10
1483.1109835405529793
 20
141.6587784155717031
 30
0.0
 40
0.03
 50
18.5801080269367986
 51
90.0000000002475247
  0
LINE
  5
12591
  8
0
 10
1482.5147541781159362
 20
142.4657784155712932
 30
0.0
 11
1482.5147541781159362
 21
139.8077784155713061
 31
0.0
  0
ARC
  5
12592
  8
0
 10
1482.5247541781159271
 20
142.4657784155712932
 30
0.0
 40
0.01
 50
89.9999999999609201
 51
180.0000000000406999
  0
LINE
  5
12593
  8
0
 10
1482.5147541781159362
 20
141.841778415571298
 30
0.0
 11
1482.5017541781160162
 21
141.841778415571298
 31
0.0
  0
LINE
  5
12594
  8
0
 10
1482.5247541781159271
 20
139.7977784155712868
 30
0.0
 11
1482.5732782664260867
 21
139.7977784155712868
 31
0.0
  0
ARC
  5
12595
  8
0
 10
1482.5732782664260867
 20
139.8867781081897874
 30
0.0
 40
0.0889996926185409
 50
269.9999431483363992
 51
339.6447279432269966
  0
ARC
  5
12596
  8
0
 10
1482.5759290709170273
 20
139.8857946377094095
 30
0.0
 40
0.0861723301312825
 50
339.6447279432269966
 51
0.6860342905073898
  0
ARC
  5
12597
  8
0
 10
1482.7073223030809004
 20
139.8691408211423948
 30
0.0
 40
0.0485620063757718
 50
107.3275681243419939
 51
158.6425310489898948
  0
ARC
  5
12598
  8
0
 10
1482.7675738103109779
 20
139.7148164226329925
 30
0.0
 40
0.2141396863393124
 50
100.3136192285757033
 51
110.4205052804626064
  0
ARC
  5
12599
  8
0
 10
1482.7232781781440281
 20
139.9548987901611952
 30
0.0
 40
0.0299999999718492
 50
281.4529634843954113
 51
0.0000000177907507
  0
ARC
  5
1259A
  8
0
 10
1493.3454080261381023
 20
139.9913386028709112
 30
0.0
 40
10.5921925292794601
 50
179.8028876848092921
 51
180.1971123151907079
  0
ARC
  5
1259B
  8
0
 10
1483.7216904672609417
 20
140.0561191845283986
 30
0.0
 40
0.9688268993752069
 50
165.9480381080115023
 51
181.6762933879257105
  0
ARC
  5
1259C
  8
0
 10
1483.055726984732928
 20
140.2365091920667055
 30
0.0
 40
0.279309337459144
 50
130.9446954176875124
 51
168.6763012459352069
  0
ARC
  5
1259D
  8
0
 10
1482.978548904156014
 20
140.3122964653844917
 30
0.0
 40
0.1717038824142085
 50
100.6184685980814066
 51
128.0636774849749031
  0
ARC
  5
1259E
  8
0
 10
1482.9373120074219514
 20
140.5300958908100029
 30
0.0
 40
0.0499661734676903
 50
281.0739998685539263
 51
0.0190921378649033
  0
LINE
  5
1259F
  8
0
 10
1483.0172781781159301
 20
140.584778415571293
 30
0.0
 11
1483.1109835405529793
 21
140.584778415571293
 31
0.0
  0
ARC
  5
125A0
  8
0
 10
1483.0172781781159301
 20
140.5547784155712918
 30
0.0
 40
0.03
 50
90.0000000000130314
 51
180.0000000000065086
  0
ARC
  5
125A1
  8
0
 10
1483.2625148341990098
 20
140.5638410612930898
 30
0.0
 40
0.1298635262183326
 50
114.1362608818177051
 51
161.4198919724391033
  0
ARC
  5
125A2
  8
0
 10
1483.4409466574259113
 20
140.1656280418287963
 30
0.0
 40
0.5662252161166793
 50
104.0546662361019941
 51
114.1362608818177051
  0
ARC
  5
125A3
  8
0
 10
1483.4242366879989277
 20
140.2323766977374078
 30
0.0
 40
0.4974167417559553
 50
93.3009647967932949
 51
104.0546662361019941
  0
ARC
  5
125A4
  8
0
 10
1483.1109835405529793
 20
140.6147784155708962
 30
0.0
 40
0.03
 50
269.9999999997525038
 51
341.4198919730632156
  0
ARC
  5
125A5
  8
0
 10
1482.5247541781159271
 20
139.8077784155713061
 30
0.0
 40
0.01
 50
179.9999999999593001
 51
270.0000000000391083
  0
LINE
  5
125A6
  8
0
 10
1482.5147541781159362
 20
140.4317784155713014
 30
0.0
 11
1482.5017541781160162
 21
140.4317784155713014
 31
0.0
  0
LINE
  5
125A7
  8
0
 10
1483.1394199132319045
 20
140.6052195082664866
 30
0.0
 11
1483.1394199132319045
 21
141.6683373228761127
 31
0.0
  0
LINE
  5
125A8
  8
0
 10
1482.6621013984599813
 20
142.3867146470988132
 30
0.0
 11
1482.6620952240270981
 21
139.8868264023753056
 31
0.0
  0
ENDSEC
  0
EOF
