  0
SECTION
  2
HEADER
  9
$ACADVER
  1
AC1009
  9
$INSBASE
 10
4301.6715607895530411
 20
588.2870349409540722
 30
0.0
  9
$EXTMIN
 10
4300.6025607895526264
 20
585.3470392377211056
 30
0.0
  9
$EXTMAX
 10
4302.7405607895516368
 20
588.2914104973945086
 30
0.0
  9
$LIMMIN
 10
0.0
 20
0.0
  9
$LIMMAX
 10
11.6929133858000007
 20
8.2677165353999982
  9
$ORTHOMODE
 70
     0
  9
$REGENMODE
 70
     1
  9
$FILLMODE
 70
     1
  9
$QTEXTMODE
 70
     0
  9
$MIRRTEXT
 70
     0
  9
$DRAGMODE
 70
     2
  9
$LTSCALE
 40
0.6431102362
  9
$OSMODE
 70
     7
  9
$ATTMODE
 70
     1
  9
$TEXTSIZE
 40
0.2
  9
$TRACEWID
 40
0.05
  9
$TEXTSTYLE
  7
STANDARD
  9
$CLAYER
  8
0
  9
$CELTYPE
  6
BYLAYER
  9
$CECOLOR
 62
   256
  9
$DIMSCALE
 40
1.0
  9
$DIMASZ
 40
0.1875
  9
$DIMEXO
 40
0.0625
  9
$DIMDLI
 40
0.4443307087
  9
$DIMRND
 40
0.0
  9
$DIMDLE
 40
0.0
  9
$DIMEXE
 40
0.125
  9
$DIMTP
 40
0.01
  9
$DIMTM
 40
0.01
  9
$DIMTXT
 40
2.0
  9
$DIMCEN
 40
0.1052362205
  9
$DIMTSZ
 40
0.0
  9
$DIMTOL
 70
     1
  9
$DIMLIM
 70
     0
  9
$DIMTIH
 70
     1
  9
$DIMTOH
 70
     1
  9
$DIMSE1
 70
     0
  9
$DIMSE2
 70
     0
  9
$DIMTAD
 70
     0
  9
$DIMZIN
 70
     0
  9
$DIMBLK
  1

  9
$DIMASO
 70
     1
  9
$DIMSHO
 70
     1
  9
$DIMPOST
  1
\X
  9
$DIMAPOST
  1

  9
$DIMALT
 70
     1
  9
$DIMALTD
 70
     2
  9
$DIMALTF
 40
25.3999999999999986
  9
$DIMLFAC
 40
1.0
  9
$DIMTOFL
 70
     0
  9
$DIMTVP
 40
0.0
  9
$DIMTIX
 70
     0
  9
$DIMSOXD
 70
     0
  9
$DIMSAH
 70
     0
  9
$DIMBLK1
  1

  9
$DIMBLK2
  1

  9
$DIMSTYLE
  2
STANDARD
  9
$DIMCLRD
 70
     0
  9
$DIMCLRE
 70
     0
  9
$DIMCLRT
 70
     0
  9
$DIMTFAC
 40
1.0
  9
$DIMGAP
 40
0.09
  9
$LUNITS
 70
     2
  9
$LUPREC
 70
     4
  9
$SKETCHINC
 40
0.1
  9
$FILLETRAD
 40
0.0
  9
$AUNITS
 70
     0
  9
$AUPREC
 70
     0
  9
$MENU
  1
.
  9
$ELEVATION
 40
0.0
  9
$PELEVATION
 40
0.0
  9
$THICKNESS
 40
0.0
  9
$LIMCHECK
 70
     0
  9
$BLIPMODE
 70
     0
  9
$CHAMFERA
 40
0.0
  9
$CHAMFERB
 40
0.0
  9
$SKPOLY
 70
     0
  9
$TDCREATE
 40
2458060.468368056230247
  9
$TDUPDATE
 40
2459681.4726504632271826
  9
$TDINDWG
 40
4.6152501157000003
  9
$TDUSRTIMER
 40
4.6152501157000003
  9
$USRTIMER
 70
     1
  9
$ANGBASE
 50
0.0
  9
$ANGDIR
 70
     0
  9
$PDMODE
 70
     0
  9
$PDSIZE
 40
0.3125
  9
$PLINEWID
 40
0.0
  9
$COORDS
 70
     1
  9
$SPLFRAME
 70
     0
  9
$SPLINETYPE
 70
     6
  9
$SPLINESEGS
 70
     8
  9
$ATTDIA
 70
     1
  9
$ATTREQ
 70
     1
  9
$HANDLING
 70
     1
  9
$HANDSEED
  5
2278A
  9
$SURFTAB1
 70
     6
  9
$SURFTAB2
 70
     6
  9
$SURFTYPE
 70
     6
  9
$SURFU
 70
     6
  9
$SURFV
 70
     6
  9
$UCSNAME
  2

  9
$UCSORG
 10
0.0
 20
0.0
 30
0.0
  9
$UCSXDIR
 10
1.0
 20
0.0
 30
0.0
  9
$UCSYDIR
 10
0.0
 20
1.0
 30
0.0
  9
$PUCSNAME
  2

  9
$PUCSORG
 10
0.0
 20
0.0
 30
0.0
  9
$PUCSXDIR
 10
1.0
 20
0.0
 30
0.0
  9
$PUCSYDIR
 10
0.0
 20
1.0
 30
0.0
  9
$USERI1
 70
     0
  9
$USERI2
 70
     0
  9
$USERI3
 70
     0
  9
$USERI4
 70
     0
  9
$USERI5
 70
     0
  9
$USERR1
 40
0.0
  9
$USERR2
 40
0.0
  9
$USERR3
 40
0.0
  9
$USERR4
 40
0.0
  9
$USERR5
 40
0.0
  9
$WORLDVIEW
 70
     1
  9
$SHADEDGE
 70
     3
  9
$SHADEDIF
 70
    70
  9
$TILEMODE
 70
     1
  9
$MAXACTVP
 70
    64
  9
$PLIMCHECK
 70
     0
  9
$PEXTMIN
 10
1.0000000000000000E+20
 20
1.0000000000000000E+20
 30
1.0000000000000000E+20
  9
$PEXTMAX
 10
-1.0000000000000000E+20
 20
-1.0000000000000000E+20
 30
-1.0000000000000000E+20
  9
$PLIMMIN
 10
0.0
 20
0.0
  9
$PLIMMAX
 10
12.0
 20
9.0
  9
$UNITMODE
 70
     0
  9
$VISRETAIN
 70
     1
  9
$PLINEGEN
 70
     0
  9
$PSLTSCALE
 70
     1
  0
ENDSEC
  0
SECTION
  2
TABLES
  0
TABLE
  2
VPORT
 70
     1
  0
VPORT
  2
*ACTIVE
 70
     0
 10
0.0
 20
0.0
 11
1.0
 21
1.0
 12
65.2401643051775864
 22
-11.9093860457255101
 13
0.0
 23
0.0
 14
1.0
 24
1.0
 15
0.0
 25
0.0
 16
0.0
 26
0.0
 36
98.7941898181710343
 17
4236.431396484375
 27
598.728610913283319
 37
0.0
 40
2.9654526768071028
 41
2.2831541218637992
 42
50.0
 43
0.0
 44
0.0
 50
0.0
 51
0.0
 71
     0
 72
   100
 73
     1
 74
     1
 75
     0
 76
     0
 77
     0
 78
     0
  0
ENDTAB
  0
TABLE
  2
LTYPE
 70
     2
  0
LTYPE
  2
CONTINUOUS
 70
     0
  3
Solid line
 72
    65
 73
     0
 40
0.0
  0
LTYPE
  2
PHANTOM2
 70
     0
  3
___ _ _ ___ _ _ ___ _ _ ___ _ _
 72
    65
 73
     6
 40
1.25
 49
0.625
 49
-0.125
 49
0.125
 49
-0.125
 49
0.125
 49
-0.125
  0
ENDTAB
  0
TABLE
  2
LAYER
 70
     2
  0
LAYER
  2
0
 70
     0
 62
   255
  6
CONTINUOUS
  0
LAYER
  2
DEFPOINTS
 70
     0
 62
     7
  6
CONTINUOUS
  0
ENDTAB
  0
TABLE
  2
STYLE
 70
     1
  0
STYLE
  2
STANDARD
 70
     0
 40
0.0
 41
0.8
 50
0.0
 71
     0
 42
0.2
  3
txt
  4

  0
ENDTAB
  0
TABLE
  2
VIEW
 70
     0
  0
ENDTAB
  0
TABLE
  2
UCS
 70
     0
  0
ENDTAB
  0
TABLE
  2
APPID
 70
    10
  0
APPID
  2
ACAD
 70
     0
  0
APPID
  2
ACAD_MLEADERVER
 70
     0
  0
APPID
  2
ACAD_EXEMPT_FROM_CAD_STANDARDS
 70
     0
  0
APPID
  2
ACAD_NAV_VCDISPLAY
 70
     0
  0
APPID
  2
ACAECLAYERSTANDARD
 70
     0
  0
APPID
  2
ACCMTRANSPARENCY
 70
     0
  0
APPID
  2
ACAD_DSTYLE_DIMJAG
 70
     0
  0
APPID
  2
ACAD_DSTYLE_DIMTALN
 70
     0
  0
APPID
  2
ACDBATTR
 70
     0
  0
APPID
  2
DCO15
 70
     0
  0
ENDTAB
  0
TABLE
  2
DIMSTYLE
 70
     1
  0
DIMSTYLE
  2
STANDARD
 70
     0
  3

  4

  5

  6

  7

 40
1.0
 41
0.1875
 42
0.0625
 43
0.38
 44
0.125
 45
0.0
 46
0.0
 47
0.01
 48
0.01
140
0.15625
141
0.09
142
0.0
143
25.3999999999999986
144
1.0
145
0.0
146
1.0
147
0.09
 71
     1
 72
     0
 73
     1
 74
     1
 75
     0
 76
     0
 77
     0
 78
     4
170
     0
171
     2
172
     0
173
     0
174
     0
175
     0
176
     0
177
     0
178
     0
  0
ENDTAB
  0
ENDSEC
  0
SECTION
  2
BLOCKS
  0
BLOCK
  8
0
  2
$MODEL_SPACE
 70
     0
 10
0.0
 20
0.0
 30
0.0
  3
$MODEL_SPACE
  1

  0
ENDBLK
  5
21
  8
0
  0
BLOCK
 67
     1
  8
0
  2
$PAPER_SPACE
 70
     0
 10
0.0
 20
0.0
 30
0.0
  3
$PAPER_SPACE
  1

  0
ENDBLK
  5
1D
 67
     1
  8
0
  0
ENDSEC
  0
SECTION
  2
ENTITIES
  0
ATTDEF
  5
3930
  8
DEFPOINTS
 10
4301.6715981745173849
 20
588.2904104973941912
 30
0.0
 40
0.001
  1
P21651-00
  3

  2
MODELNUMBER
 70
     0
1001
ACDBATTR
1070
     0
1070
     1
  0
ATTDEF
  5
3931
  8
DEFPOINTS
 10
4301.6715981745173849
 20
588.2887438307275261
 30
0.0
 40
0.001
  1

  3

  2
TRADENAME
 70
     0
1001
ACDBATTR
1070
     0
1070
     1
  0
ATTDEF
  5
3932
  8
DEFPOINTS
 10
4301.6715981745173849
 20
588.2870771640607472
 30
0.0
 40
0.001
  1
SUPPLY ELBOW
  3

  2
PRODUCT
 70
     0
1001
ACDBATTR
1070
     0
1070
     1
  0
LINE
  5
225F7
  8
0
 10
4302.7405607895516368
 20
588.2870349409540722
 30
0.0
 11
4300.6025607895526264
 21
588.2870349409540722
 31
0.0
  0
LINE
  5
225F8
  8
0
 10
4300.6861230674039689
 20
588.0329581067542222
 30
0.0
 11
4302.6569985117002943
 21
588.0329581067542222
 31
0.0
  0
LINE
  5
225F9
  8
0
 10
4300.9035845308835633
 20
587.731413451054209
 30
0.0
 11
4302.439537048218881
 21
587.731413451054209
 31
0.0
  0
LINE
  5
225FA
  8
0
 10
4301.0410607895528301
 20
586.3770349409553546
 30
0.0
 11
4301.0410607895528301
 21
585.3850254932178814
 31
0.0
  0
LINE
  5
225FB
  8
0
 10
4301.289845424304076
 20
585.3634681522704568
 30
0.0
 11
4301.3356598416521592
 21
585.6196346656615788
 31
0.0
  0
ARC
  5
225FC
  8
0
 10
4301.0610609197219674
 20
585.3850254932170856
 30
0.0
 40
0.0200001301692625
 50
179.9999999978504945
 51
264.0656236487473052
  0
ARC
  5
225FD
  8
0
 10
4301.6717734462108638
 20
591.260633577839144
 30
0.0
 40
5.9272617761504831
 50
264.065966144934805
 51
266.1017584180061135
  0
ARC
  5
225FE
  8
0
 10
4301.270167339001091
 20
585.367038619680784
 30
0.0
 40
0.0199993819596486
 50
266.1098381663426267
 51
349.7159166248869724
  0
ARC
  5
225FF
  8
0
 10
4301.2774601070823337
 20
585.6300076507880021
 30
0.0
 40
0.0591169004971275
 50
349.894243050263583
 51
34.4174291083356394
  0
ARC
  5
22600
  8
0
 10
4301.2543095806368001
 20
585.3681399942740882
 30
0.0
 40
0.0199991227934297
 50
266.3078406114645986
 51
350.0058691011229257
  0
LINE
  5
22601
  8
0
 10
4301.2740052274530171
 20
585.3646692005542036
 30
0.0
 11
4301.3134376380521644
 21
585.591707263554099
 31
0.0
  0
ARC
  5
22602
  8
0
 10
4301.2533517522551847
 20
585.6021430965979562
 30
0.0
 40
0.0609854104142998
 50
350.1470462337171057
 51
34.4030540710777188
  0
ARC
  5
22603
  8
0
 10
4279.4281871570183284
 20
586.3401965247888938
 30
0.0
 40
21.612905027433019
 50
0.0976586344868523
 51
1.154998883715038
  0
ARC
  5
22604
  8
0
 10
4204.074623899483413
 20
584.8209734120586063
 30
0.0
 40
96.981781458446946
 50
1.1549988837085261
 51
1.321728757458855
  0
ARC
  5
22605
  8
0
 10
4301.0065607897222435
 20
587.6637999785692728
 30
0.0
 40
0.0700000001692942
 50
180.0000000123370967
 51
200.3460522858900106
  0
ARC
  5
22606
  8
0
 10
4297.6473025673321899
 20
586.9732444874631483
 30
0.0
 40
3.3843606601024949
 50
1.4350419795053131
 51
5.1545575079793542
  0
ARC
  5
22607
  8
0
 10
4299.5951862336651175
 20
587.1638815613882798
 30
0.0
 40
1.4273043381502999
 50
4.5579059576070824
 51
19.4632182554597684
  0
LINE
  5
22608
  8
0
 10
4300.9365607895515495
 20
587.6920349409540449
 30
0.0
 11
4300.9365607895515495
 21
587.6637999785692728
 31
0.0
  0
ARC
  5
22609
  8
0
 10
4300.8965607895515859
 20
587.6920349409540449
 30
0.0
 40
0.04
 50
0.0
 51
79.8868000801320761
  0
ARC
  5
2260A
  8
0
 10
4300.908852336138807
 20
587.7609473337472537
 30
0.0
 40
0.0299999999853708
 50
189.0262732331673874
 51
259.8868015211696729
  0
ARC
  5
2260B
  8
0
 10
4300.7540692302982279
 20
587.7364162317749106
 30
0.0
 40
0.1267149819573204
 50
9.000865623893155
 51
42.7770019647312409
  0
ARC
  5
2260C
  8
0
 10
4300.6225264638760564
 20
587.61529201158055
 30
0.0
 40
0.3055291283370062
 50
42.6961097346361171
 51
51.7173048288499828
  0
ARC
  5
2260D
  8
0
 10
4301.3388529592530176
 20
588.5228821153327772
 30
0.0
 40
0.850690333706577
 50
227.8669420076770962
 51
231.7173048288499899
  0
ARC
  5
2260E
  8
0
 10
4300.8801227744534117
 20
588.0179327330986325
 30
0.0
 40
0.1684903862710465
 50
186.1419873302116912
 51
228.357167642878494
  0
ARC
  5
2260F
  8
0
 10
4300.6729792405703847
 20
587.9952986879617356
 30
0.0
 40
0.0398872411641491
 50
6.6322129654232622
 51
70.7600773425035783
  0
ARC
  5
22610
  8
0
 10
4300.7165637294228873
 20
588.1219382360532109
 30
0.0
 40
0.0940430609572838
 50
231.3085111115080963
 51
251.1138599397783935
  0
ARC
  5
22611
  8
0
 10
4300.7205412920629897
 20
588.1238218648825296
 30
0.0
 40
0.0980187030019407
 50
201.3940350225942097
 51
230.1819884179099063
  0
ARC
  5
22612
  8
0
 10
4300.8177292067657618
 20
588.1631062862472845
 30
0.0
 40
0.2028430543131005
 50
188.2338461544752874
 51
201.7118895470192115
  0
ARC
  5
22613
  8
0
 10
4301.5462917869099329
 20
588.2642767401010815
 30
0.0
 40
0.9383939078316536
 50
184.4764979117485098
 51
187.9766416087850018
  0
LINE
  5
22614
  8
0
 10
4300.6107605126526323
 20
588.1910349409540686
 30
0.0
 11
4300.6025607895526264
 21
588.2870349409540722
 31
0.0
  0
LINE
  5
22616
  8
0
 10
4302.3020607895532521
 20
586.3770349409553546
 30
0.0
 11
4302.3020607895532521
 21
585.3850254932178814
 31
0.0
  0
LINE
  5
22617
  8
0
 10
4302.0532761548010967
 20
585.3634681522704568
 30
0.0
 11
4302.0074617374530135
 21
585.6196346656615788
 31
0.0
  0
ARC
  5
22618
  8
0
 10
4302.2820606593832053
 20
585.3850254932170856
 30
0.0
 40
0.0200001301692625
 50
275.9343763512525811
 51
0.0000000021495461
  0
ARC
  5
22619
  8
0
 10
4301.6713481328943089
 20
591.260633577839144
 30
0.0
 40
5.9272617761504831
 50
273.8982415819938865
 51
275.9340338550650813
  0
ARC
  5
2261A
  8
0
 10
4302.0729542401049912
 20
585.367038619680784
 30
0.0
 40
0.0199993819596486
 50
190.2840833751129992
 51
273.8901618336573165
  0
ARC
  5
2261B
  8
0
 10
4302.065661472022839
 20
585.6300076507880021
 30
0.0
 40
0.0591169004971275
 50
145.5825708916642895
 51
190.1057569497363886
  0
ARC
  5
2261C
  8
0
 10
4302.0888119984665536
 20
585.3681399942740882
 30
0.0
 40
0.0199991227934297
 50
189.9941308988771027
 51
273.6921593885352877
  0
LINE
  5
2261D
  8
0
 10
4302.0691163516521556
 20
585.3646692005542036
 30
0.0
 11
4302.0296839410530083
 21
585.591707263554099
 31
0.0
  0
ARC
  5
2261E
  8
0
 10
4302.0897698268490785
 20
585.6021430965979562
 30
0.0
 40
0.0609854104142998
 50
145.5969459289223096
 51
189.8529537662828091
  0
ARC
  5
2261F
  8
0
 10
4323.9149344220868443
 20
586.3401965247888938
 30
0.0
 40
21.612905027433019
 50
178.8450011162850046
 51
179.9023413655131094
  0
ARC
  5
22620
  8
0
 10
4399.2684976796217597
 20
584.8209734120586063
 30
0.0
 40
96.981781458446946
 50
178.6782712425410864
 51
178.8450011162915132
  0
ARC
  5
22621
  8
0
 10
4302.3365607893829292
 20
587.6637999785692728
 30
0.0
 40
0.0700000001692942
 50
339.6539477141100178
 51
359.9999999876628749
  0
ARC
  5
22622
  8
0
 10
4305.6958190117729828
 20
586.9732444874631483
 30
0.0
 40
3.3843606601024949
 50
174.8454424920205952
 51
178.5649580204946858
  0
ARC
  5
22623
  8
0
 10
4303.7479353454400552
 20
587.1638815613882798
 30
0.0
 40
1.4273043381502999
 50
160.5367817445402068
 51
175.4420940423929096
  0
LINE
  5
22624
  8
0
 10
4302.4065607895518042
 20
587.6920349409540449
 30
0.0
 11
4302.4065607895518042
 21
587.6637999785692728
 31
0.0
  0
ARC
  5
22625
  8
0
 10
4302.4465607895526773
 20
587.6920349409540449
 30
0.0
 40
0.04
 50
100.1131999198678955
 51
180.0
  0
ARC
  5
22626
  8
0
 10
4302.4342692429663657
 20
587.7609473337472537
 30
0.0
 40
0.0299999999853708
 50
280.1131984788303271
 51
350.9737267668324989
  0
ARC
  5
22627
  8
0
 10
4302.5890523488069448
 20
587.7364162317749106
 30
0.0
 40
0.1267149819573204
 50
137.2229980352688017
 51
170.9991343761068094
  0
ARC
  5
22628
  8
0
 10
4302.7205951152282069
 20
587.61529201158055
 30
0.0
 40
0.3055291283370062
 50
128.2826951711500101
 51
137.30389026536389
  0
ARC
  5
22629
  8
0
 10
4302.0042686198521551
 20
588.5228821153327772
 30
0.0
 40
0.850690333706577
 50
308.2826951711500101
 51
312.1330579923229038
  0
ARC
  5
2262A
  8
0
 10
4302.462998804651761
 20
588.0179327330986325
 30
0.0
 40
0.1684903862710465
 50
311.6428323571216197
 51
353.8580126697881951
  0
ARC
  5
2262B
  8
0
 10
4302.6701423385338785
 20
587.9952986879617356
 30
0.0
 40
0.0398872411641491
 50
109.2399226574963933
 51
173.3677870345767076
  0
ARC
  5
2262C
  8
0
 10
4302.626557849681376
 20
588.1219382360532109
 30
0.0
 40
0.0940430609572838
 50
288.8861400602215781
 51
308.6914888884920174
  0
ARC
  5
2262D
  8
0
 10
4302.6225802870412736
 20
588.1238218648825296
 30
0.0
 40
0.0980187030019407
 50
309.8180115820900937
 51
338.6059649774057903
  0
ARC
  5
2262E
  8
0
 10
4302.525392372337592
 20
588.1631062862472845
 30
0.0
 40
0.2028430543131005
 50
338.2881104529809022
 51
351.7661538455246841
  0
ARC
  5
2262F
  8
0
 10
4301.7968297921952399
 20
588.2642767401010815
 30
0.0
 40
0.9383939078316536
 50
352.0233583912150266
 51
355.523502088251405
  0
LINE
  5
22630
  8
0
 10
4302.7323610664516309
 20
588.1910349409540686
 30
0.0
 11
4302.7405607895516368
 21
588.2870349409540722
 31
0.0
  0
ARC
  5
22631
  8
0
 10
4301.6715607895530411
 20
585.8905501058834489
 30
0.0
 40
0.4133304162004121
 50
326.6667088392841833
 51
213.3332911607103881
  0
ARC
  5
22632
  8
0
 10
4301.6715607895530411
 20
585.8962780926818823
 30
0.0
 40
0.4503068059723362
 50
324.7834659917256772
 51
215.2165340082742944
  0
LINE
  5
22633
  8
0
 10
4301.3352515176584348
 20
585.6424559754990469
 30
0.0
 11
4301.3129429293021531
 21
585.6151088939712963
 31
0.0
  0
LINE
  5
22634
  8
0
 10
4302.007870061446738
 20
585.6424559754990469
 30
0.0
 11
4302.0301786498030197
 21
585.6151088939712963
 31
0.0
  0
VIEWPORT
  5
7BC8
 67
     1
  8
0
 10
8.4975296442687753
 20
4.5
 30
0.0
 40
16.9950592885375507
 41
9.0
 68
     1
 69
     1
1001
ACAD
1000
MVIEW
1002
{
1070
    16
1010
0.0
1020
0.0
1030
0.0
1010
0.0
1020
0.0
1030
1.0
1040
0.0
1040
9.0
1040
8.4975296442687753
1040
4.5
1040
50.0
1040
0.0
1040
0.0
1070
     0
1070
   100
1070
     1
1070
     1
1070
     0
1070
     0
1070
     0
1070
     0
1040
0.0
1040
0.0
1040
0.0
1040
1.0
1040
1.0
1040
0.0
1040
0.0
1070
     0
1002
{
1002
}
1002
}
  0
ENDSEC
  0
EOF
