  0
SECTION
  2
HEADER
  9
$ACADVER
  1
AC1009
  9
$INSBASE
 10
4297.8383139471870891
 20
587.4793065350031611
 30
0.0
  9
$EXTMIN
 10
4296.7693139471866743
 20
586.1844230865032159
 30
0.0
  9
$EXTMAX
 10
4298.9073139471884133
 20
588.5483065350032348
 30
0.0
  9
$LIMMIN
 10
0.0
 20
0.0
  9
$LIMMAX
 10
11.6929133858000007
 20
8.2677165353999982
  9
$ORTHOMODE
 70
     0
  9
$REGENMODE
 70
     1
  9
$FILLMODE
 70
     1
  9
$QTEXTMODE
 70
     0
  9
$MIRRTEXT
 70
     0
  9
$DRAGMODE
 70
     2
  9
$LTSCALE
 40
0.6431102362
  9
$OSMODE
 70
     7
  9
$ATTMODE
 70
     1
  9
$TEXTSIZE
 40
0.2
  9
$TRACEWID
 40
0.05
  9
$TEXTSTYLE
  7
STANDARD
  9
$CLAYER
  8
0
  9
$CELTYPE
  6
BYLAYER
  9
$CECOLOR
 62
   256
  9
$DIMSCALE
 40
1.0
  9
$DIMASZ
 40
0.1875
  9
$DIMEXO
 40
0.0625
  9
$DIMDLI
 40
0.4443307087
  9
$DIMRND
 40
0.0
  9
$DIMDLE
 40
0.0
  9
$DIMEXE
 40
0.125
  9
$DIMTP
 40
0.01
  9
$DIMTM
 40
0.01
  9
$DIMTXT
 40
2.0
  9
$DIMCEN
 40
0.1052362205
  9
$DIMTSZ
 40
0.0
  9
$DIMTOL
 70
     1
  9
$DIMLIM
 70
     0
  9
$DIMTIH
 70
     1
  9
$DIMTOH
 70
     1
  9
$DIMSE1
 70
     0
  9
$DIMSE2
 70
     0
  9
$DIMTAD
 70
     0
  9
$DIMZIN
 70
     0
  9
$DIMBLK
  1

  9
$DIMASO
 70
     1
  9
$DIMSHO
 70
     1
  9
$DIMPOST
  1
\X
  9
$DIMAPOST
  1

  9
$DIMALT
 70
     1
  9
$DIMALTD
 70
     2
  9
$DIMALTF
 40
25.3999999999999986
  9
$DIMLFAC
 40
1.0
  9
$DIMTOFL
 70
     0
  9
$DIMTVP
 40
0.0
  9
$DIMTIX
 70
     0
  9
$DIMSOXD
 70
     0
  9
$DIMSAH
 70
     0
  9
$DIMBLK1
  1

  9
$DIMBLK2
  1

  9
$DIMSTYLE
  2
STANDARD
  9
$DIMCLRD
 70
     0
  9
$DIMCLRE
 70
     0
  9
$DIMCLRT
 70
     0
  9
$DIMTFAC
 40
1.0
  9
$DIMGAP
 40
0.09
  9
$LUNITS
 70
     2
  9
$LUPREC
 70
     4
  9
$SKETCHINC
 40
0.1
  9
$FILLETRAD
 40
0.0
  9
$AUNITS
 70
     0
  9
$AUPREC
 70
     0
  9
$MENU
  1
.
  9
$ELEVATION
 40
0.0
  9
$PELEVATION
 40
0.0
  9
$THICKNESS
 40
0.0
  9
$LIMCHECK
 70
     0
  9
$BLIPMODE
 70
     0
  9
$CHAMFERA
 40
0.0
  9
$CHAMFERB
 40
0.0
  9
$SKPOLY
 70
     0
  9
$TDCREATE
 40
2458060.468368056230247
  9
$TDUPDATE
 40
2459681.4724652781151235
  9
$TDINDWG
 40
4.6143936342999998
  9
$TDUSRTIMER
 40
4.6143936342999998
  9
$USRTIMER
 70
     1
  9
$ANGBASE
 50
0.0
  9
$ANGDIR
 70
     0
  9
$PDMODE
 70
     0
  9
$PDSIZE
 40
0.3125
  9
$PLINEWID
 40
0.0
  9
$COORDS
 70
     1
  9
$SPLFRAME
 70
     0
  9
$SPLINETYPE
 70
     6
  9
$SPLINESEGS
 70
     8
  9
$ATTDIA
 70
     1
  9
$ATTREQ
 70
     1
  9
$HANDLING
 70
     1
  9
$HANDSEED
  5
22672
  9
$SURFTAB1
 70
     6
  9
$SURFTAB2
 70
     6
  9
$SURFTYPE
 70
     6
  9
$SURFU
 70
     6
  9
$SURFV
 70
     6
  9
$UCSNAME
  2

  9
$UCSORG
 10
0.0
 20
0.0
 30
0.0
  9
$UCSXDIR
 10
1.0
 20
0.0
 30
0.0
  9
$UCSYDIR
 10
0.0
 20
1.0
 30
0.0
  9
$PUCSNAME
  2

  9
$PUCSORG
 10
0.0
 20
0.0
 30
0.0
  9
$PUCSXDIR
 10
1.0
 20
0.0
 30
0.0
  9
$PUCSYDIR
 10
0.0
 20
1.0
 30
0.0
  9
$USERI1
 70
     0
  9
$USERI2
 70
     0
  9
$USERI3
 70
     0
  9
$USERI4
 70
     0
  9
$USERI5
 70
     0
  9
$USERR1
 40
0.0
  9
$USERR2
 40
0.0
  9
$USERR3
 40
0.0
  9
$USERR4
 40
0.0
  9
$USERR5
 40
0.0
  9
$WORLDVIEW
 70
     1
  9
$SHADEDGE
 70
     3
  9
$SHADEDIF
 70
    70
  9
$TILEMODE
 70
     1
  9
$MAXACTVP
 70
    64
  9
$PLIMCHECK
 70
     0
  9
$PEXTMIN
 10
1.0000000000000000E+20
 20
1.0000000000000000E+20
 30
1.0000000000000000E+20
  9
$PEXTMAX
 10
-1.0000000000000000E+20
 20
-1.0000000000000000E+20
 30
-1.0000000000000000E+20
  9
$PLIMMIN
 10
0.0
 20
0.0
  9
$PLIMMAX
 10
12.0
 20
9.0
  9
$UNITMODE
 70
     0
  9
$VISRETAIN
 70
     1
  9
$PLINEGEN
 70
     0
  9
$PSLTSCALE
 70
     1
  0
ENDSEC
  0
SECTION
  2
TABLES
  0
TABLE
  2
VPORT
 70
     1
  0
VPORT
  2
*ACTIVE
 70
     0
 10
0.0
 20
0.0
 11
1.0
 21
1.0
 12
61.4069174628129986
 22
-11.36224610253009
 13
0.0
 23
0.0
 14
1.0
 24
1.0
 15
0.0
 25
0.0
 16
0.0
 26
0.0
 36
98.7941898181710343
 17
4236.431396484375
 27
598.728610913283319
 37
0.0
 40
2.3815646507458661
 41
2.2831541218637992
 42
50.0
 43
0.0
 44
0.0
 50
0.0
 51
0.0
 71
     0
 72
   100
 73
     1
 74
     1
 75
     0
 76
     0
 77
     0
 78
     0
  0
ENDTAB
  0
TABLE
  2
LTYPE
 70
     2
  0
LTYPE
  2
CONTINUOUS
 70
     0
  3
Solid line
 72
    65
 73
     0
 40
0.0
  0
LTYPE
  2
PHANTOM2
 70
     0
  3
___ _ _ ___ _ _ ___ _ _ ___ _ _
 72
    65
 73
     6
 40
1.25
 49
0.625
 49
-0.125
 49
0.125
 49
-0.125
 49
0.125
 49
-0.125
  0
ENDTAB
  0
TABLE
  2
LAYER
 70
     2
  0
LAYER
  2
0
 70
     0
 62
   255
  6
CONTINUOUS
  0
LAYER
  2
DEFPOINTS
 70
     0
 62
     7
  6
CONTINUOUS
  0
ENDTAB
  0
TABLE
  2
STYLE
 70
     1
  0
STYLE
  2
STANDARD
 70
     0
 40
0.0
 41
0.8
 50
0.0
 71
     0
 42
0.2
  3
txt
  4

  0
ENDTAB
  0
TABLE
  2
VIEW
 70
     0
  0
ENDTAB
  0
TABLE
  2
UCS
 70
     0
  0
ENDTAB
  0
TABLE
  2
APPID
 70
    10
  0
APPID
  2
ACAD
 70
     0
  0
APPID
  2
ACAD_MLEADERVER
 70
     0
  0
APPID
  2
ACAD_EXEMPT_FROM_CAD_STANDARDS
 70
     0
  0
APPID
  2
ACAD_NAV_VCDISPLAY
 70
     0
  0
APPID
  2
ACAECLAYERSTANDARD
 70
     0
  0
APPID
  2
ACCMTRANSPARENCY
 70
     0
  0
APPID
  2
ACAD_DSTYLE_DIMJAG
 70
     0
  0
APPID
  2
ACAD_DSTYLE_DIMTALN
 70
     0
  0
APPID
  2
ACDBATTR
 70
     0
  0
APPID
  2
DCO15
 70
     0
  0
ENDTAB
  0
TABLE
  2
DIMSTYLE
 70
     1
  0
DIMSTYLE
  2
STANDARD
 70
     0
  3

  4

  5

  6

  7

 40
1.0
 41
0.1875
 42
0.0625
 43
0.38
 44
0.125
 45
0.0
 46
0.0
 47
0.01
 48
0.01
140
0.15625
141
0.09
142
0.0
143
25.3999999999999986
144
1.0
145
0.0
146
1.0
147
0.09
 71
     1
 72
     0
 73
     1
 74
     1
 75
     0
 76
     0
 77
     0
 78
     4
170
     0
171
     2
172
     0
173
     0
174
     0
175
     0
176
     0
177
     0
178
     0
  0
ENDTAB
  0
ENDSEC
  0
SECTION
  2
BLOCKS
  0
BLOCK
  8
0
  2
$MODEL_SPACE
 70
     0
 10
0.0
 20
0.0
 30
0.0
  3
$MODEL_SPACE
  1

  0
ENDBLK
  5
21
  8
0
  0
BLOCK
 67
     1
  8
0
  2
$PAPER_SPACE
 70
     0
 10
0.0
 20
0.0
 30
0.0
  3
$PAPER_SPACE
  1

  0
ENDBLK
  5
1D
 67
     1
  8
0
  0
ENDSEC
  0
SECTION
  2
ENTITIES
  0
ATTDEF
  5
3930
  8
DEFPOINTS
 10
4297.8383513321523424
 20
587.4826820914431664
 30
0.0
 40
0.001
  1
P21651-00
  3

  2
MODELNUMBER
 70
     0
1001
ACDBATTR
1070
     0
1070
     1
  0
ATTDEF
  5
3931
  8
DEFPOINTS
 10
4297.8383513321523424
 20
587.481015424776615
 30
0.0
 40
0.001
  1

  3

  2
TRADENAME
 70
     0
1001
ACDBATTR
1070
     0
1070
     1
  0
ATTDEF
  5
3932
  8
DEFPOINTS
 10
4297.8383513321523424
 20
587.4793487581099498
 30
0.0
 40
0.001
  1
SUPPLY ELBOW
  3

  2
PRODUCT
 70
     0
1001
ACDBATTR
1070
     0
1070
     1
  0
LINE
  5
224DB
  8
0
 10
4297.3263139471873728
 20
586.4353086350032527
 30
0.0
 11
4298.3503139471877148
 21
586.4353086350032527
 31
0.0
  0
LINE
  5
224DC
  8
0
 10
4297.4833139471866161
 20
586.1844230865032159
 30
0.0
 11
4298.1933139471866525
 21
586.1844230865032159
 31
0.0
  0
LINE
  5
224DD
  8
0
 10
4297.4720657331872644
 20
586.421096431520823
 30
0.0
 11
4297.4720657331872644
 21
586.4114382347123637
 31
0.0
  0
LINE
  5
224DE
  8
0
 10
4297.4720657331872644
 20
586.3496603257981405
 30
0.0
 11
4297.4720657331872644
 21
586.3395978418529921
 31
0.0
  0
LINE
  5
224DF
  8
0
 10
4297.4720657331872644
 20
586.2778199329387689
 30
0.0
 11
4297.4720657331872644
 21
586.2685067617413779
 31
0.0
  0
LINE
  5
224E0
  8
0
 10
4297.4720657331872644
 20
586.2067288528271547
 30
0.0
 11
4297.4720657331872644
 21
586.1956713005032498
 31
0.0
  0
LINE
  5
224E1
  8
0
 10
4297.4286139471878414
 20
586.3863319853196572
 30
0.0
 11
4297.4286139471878414
 21
586.3748298237536574
 31
0.0
  0
LINE
  5
224E2
  8
0
 10
4297.4286139471878414
 20
586.3144915924602856
 30
0.0
 11
4297.4286139471878414
 21
586.3029894308942858
 31
0.0
  0
LINE
  5
224E3
  8
0
 10
4297.4286139471878414
 20
586.2434005123486713
 30
0.0
 11
4297.4286139471878414
 21
586.2391230865032412
 31
0.0
  0
LINE
  5
224E4
  8
0
 10
4297.4720657331872644
 20
586.4114382347123637
 30
0.0
 11
4297.4286139471878414
 21
586.3863319853196572
 31
0.0
  0
LINE
  5
224E5
  8
0
 10
4297.4720657331872644
 20
586.3496603257981405
 30
0.0
 11
4297.4286139471878414
 21
586.3748298237536574
 31
0.0
  0
LINE
  5
224E6
  8
0
 10
4297.4720657331872644
 20
586.421096431520823
 30
0.0
 11
4297.4475360706874199
 21
586.4353086350032527
 31
0.0
  0
LINE
  5
224E7
  8
0
 10
4297.4720657331872644
 20
586.3395978418529921
 30
0.0
 11
4297.4286139471878414
 21
586.3144915924602856
 31
0.0
  0
LINE
  5
224E8
  8
0
 10
4297.4720657331872644
 20
586.2778199329387689
 30
0.0
 11
4297.4286139471878414
 21
586.3029894308942858
 31
0.0
  0
LINE
  5
224E9
  8
0
 10
4297.4720657331872644
 20
586.2685067617413779
 30
0.0
 11
4297.4286139471878414
 21
586.2434005123486713
 31
0.0
  0
LINE
  5
224EA
  8
0
 10
4297.4720657331872644
 20
586.2067288528271547
 30
0.0
 11
4297.4457850838298327
 21
586.2219519497615465
 31
0.0
  0
LINE
  5
224EB
  8
0
 10
4297.4457850838298327
 20
586.2219519497615465
 30
0.0
 11
4297.4286139471878414
 21
586.2391230865032412
 31
0.0
  0
LINE
  5
224EC
  8
0
 10
4297.4720657331872644
 20
586.1956713005032498
 30
0.0
 11
4297.4833139471866161
 21
586.1844230865032159
 31
0.0
  0
LINE
  5
224ED
  8
0
 10
4298.2045621611869137
 20
586.313594738632105
 30
0.0
 11
4298.2045621611869137
 21
586.30387902242785
 31
0.0
  0
LINE
  5
224EE
  8
0
 10
4298.2480139471872462
 20
586.3502663981535079
 30
0.0
 11
4298.2480139471872462
 21
586.3387642365876218
 31
0.0
  0
LINE
  5
224EF
  8
0
 10
4298.2045621611869137
 20
586.3753726475464418
 30
0.0
 11
4298.2480139471872462
 21
586.3502663981535079
 31
0.0
  0
LINE
  5
224F0
  8
0
 10
4298.2045621611869137
 20
586.313594738632105
 30
0.0
 11
4298.2480139471872462
 21
586.3387642365876218
 31
0.0
  0
LINE
  5
224F1
  8
0
 10
4298.2045621611869137
 20
586.2421011135136268
 30
0.0
 11
4298.2045621611869137
 21
586.2328080077436425
 31
0.0
  0
LINE
  5
224F2
  8
0
 10
4298.2480139471872462
 20
586.2787727730351435
 30
0.0
 11
4298.2480139471872462
 21
586.2672706114691437
 31
0.0
  0
LINE
  5
224F3
  8
0
 10
4298.2045621611869137
 20
586.30387902242785
 30
0.0
 11
4298.2480139471872462
 21
586.2787727730351435
 31
0.0
  0
LINE
  5
224F4
  8
0
 10
4298.2045621611869137
 20
586.2421011135136268
 30
0.0
 11
4298.2480139471872462
 21
586.2672706114691437
 31
0.0
  0
LINE
  5
224F5
  8
0
 10
4298.2045621611869137
 20
586.2328080077436425
 30
0.0
 11
4298.2280912908499886
 21
586.2192004301658699
 31
0.0
  0
LINE
  5
224F6
  8
0
 10
4298.1933139471866525
 20
586.1844230865032159
 30
0.0
 11
4298.2280912908499886
 21
586.2192004301658699
 31
0.0
  0
LINE
  5
224F7
  8
0
 10
4298.2045621611869137
 20
586.3849025621045712
 30
0.0
 11
4298.2045621611869137
 21
586.3753726475464418
 31
0.0
  0
LINE
  5
224F8
  8
0
 10
4298.2480139471872462
 20
586.4215742216263152
 30
0.0
 11
4298.2480139471872462
 21
586.4100720600602017
 31
0.0
  0
LINE
  5
224F9
  8
0
 10
4298.2242435790385571
 20
586.4353086350032527
 30
0.0
 11
4298.2480139471872462
 21
586.4215742216263152
 31
0.0
  0
LINE
  5
224FA
  8
0
 10
4298.2045621611869137
 20
586.3849025621045712
 30
0.0
 11
4298.2480139471872462
 21
586.4100720600602017
 31
0.0
  0
LINE
  5
224FB
  8
0
 10
4298.2280912908499886
 20
586.2192004301658699
 30
0.0
 11
4297.4720657331872644
 21
586.1956713005032498
 31
0.0
  0
LINE
  5
224FC
  8
0
 10
4297.4720657331872644
 20
586.2012000766651454
 30
0.0
 11
4298.2045621611869137
 21
586.2374545606286347
 31
0.0
  0
LINE
  5
224FD
  8
0
 10
4298.2480139471872462
 20
586.2730216922520867
 30
0.0
 11
4297.4286139471878414
 21
586.2412617994259563
 31
0.0
  0
LINE
  5
224FE
  8
0
 10
4297.4720657331872644
 20
586.2731633473399597
 30
0.0
 11
4298.2045621611869137
 21
586.3087368805299775
 31
0.0
  0
LINE
  5
224FF
  8
0
 10
4298.2480139471872462
 20
586.3445153173706785
 30
0.0
 11
4297.4286139471878414
 21
586.3087405116773425
 31
0.0
  0
LINE
  5
22500
  8
0
 10
4297.4720657331872644
 20
586.34462908382568
 30
0.0
 11
4298.2045621611869137
 21
586.3801376048255634
 31
0.0
  0
LINE
  5
22501
  8
0
 10
4298.2480139471872462
 20
586.4158231408431448
 30
0.0
 11
4297.4286139471878414
 21
586.3805809045366004
 31
0.0
  0
LINE
  5
22502
  8
0
 10
4297.4720657331872644
 20
586.4162673331167071
 30
0.0
 11
4297.864864003112416
 21
586.4353086350032527
 31
0.0
  0
ARC
  5
22503
  8
0
 10
4297.3723139472122057
 20
586.4945454478929605
 30
0.0
 40
0.0750000000238182
 50
132.2250989485621062
 51
232.1690830947732991
  0
ARC
  5
22504
  8
0
 10
4297.2553139470101087
 20
586.6234649347476307
 30
0.0
 40
0.0990954741793308
 50
312.2250990018147832
 51
357.1899999793877782
  0
LINE
  5
22505
  8
0
 10
4297.3542902683866487
 20
586.6186068689032709
 30
0.0
 11
4297.372479975186252
 21
586.9891967977032436
 31
0.0
  0
ARC
  5
22506
  8
0
 10
4297.1708829672743377
 20
586.9840260344954004
 30
0.0
 40
0.2016633094835253
 50
1.469257751959042
 51
31.5116428060465914
  0
CIRCLE
  5
22507
  8
0
 10
4297.8383139471870891
 20
587.4793065350031611
 30
0.0
 40
0.6305000000000005
  0
ARC
  5
22508
  8
0
 10
4297.8383139471870891
 20
587.4793065350031611
 30
0.0
 40
0.7350000000000004
 50
309.7039369940196138
 51
230.2960630059803862
  0
ARC
  5
22509
  8
0
 10
4297.8383139471870891
 20
587.4793065350031611
 30
0.0
 40
1.069
 50
299.1557112071167808
 51
240.8442887928831908
  0
ARC
  5
2250A
  8
0
 10
4297.8383139471870891
 20
587.4793065350031611
 30
0.0
 40
0.9589612337000001
 50
300.2054852738069144
 51
239.794514726193114
  0
ARC
  5
2250B
  8
0
 10
4298.304313947162882
 20
586.4945454478929605
 30
0.0
 40
0.0750000000238182
 50
307.8309169052266725
 51
47.7749010514378867
  0
ARC
  5
2250C
  8
0
 10
4298.421313947364979
 20
586.6234649347476307
 30
0.0
 40
0.0990954741793308
 50
182.8100000206121933
 51
227.7749009981851032
  0
LINE
  5
2250D
  8
0
 10
4298.322337625988439
 20
586.6186068689032709
 30
0.0
 11
4298.3041479191879262
 21
586.9891967977032436
 31
0.0
  0
LINE
  5
2250E
  8
0
 10
4298.2358695092862035
 20
587.9253224587032491
 30
0.0
 11
4298.2200115771865967
 21
587.0196624342032692
 31
0.0
  0
LINE
  5
2250F
  8
0
 10
4298.1732989427318898
 20
586.9830771115032348
 30
0.0
 11
4298.1955375740708405
 21
587.9597796718030622
 31
0.0
  0
ARC
  5
22510
  8
0
 10
4298.2155823989996861
 20
587.9592399147823016
 30
0.0
 40
0.0200520907655104
 50
54.2349341211926017
 51
178.4575406395842094
  0
ARC
  5
22511
  8
0
 10
4298.256102260782427
 20
587.9244367267530151
 30
0.0
 40
0.0202521296188643
 50
55.6736156085573271
 51
177.4933552238348113
  0
ARC
  5
22512
  8
0
 10
4298.2402413397076089
 20
587.0198219623622435
 30
0.0
 40
0.0202303915161381
 50
180.4518145358030949
 51
303.0062820202609259
  0
ARC
  5
22513
  8
0
 10
4298.1935098792591816
 20
586.9828556249436815
 30
0.0
 40
0.0202121500980755
 50
179.372135126596703
 51
298.6149761208425275
  0
LINE
  5
22515
  8
0
 10
4298.322337625988439
 20
586.6186068689032709
 30
0.0
 11
4297.3542902683866487
 21
586.6186068689032709
 31
0.0
  0
LINE
  5
22516
  8
0
 10
4297.4407583850879746
 20
587.9253224587032491
 30
0.0
 11
4297.4566163171866719
 21
587.0196624342032692
 31
0.0
  0
LINE
  5
22517
  8
0
 10
4297.5033289516431978
 20
586.9830771115032348
 30
0.0
 11
4297.4810903203042471
 21
587.9597796718030622
 31
0.0
  0
ARC
  5
22518
  8
0
 10
4297.4610454953754015
 20
587.9592399147823016
 30
0.0
 40
0.0200520907655104
 50
1.542459360415789
 51
125.7650658788074054
  0
ARC
  5
22519
  8
0
 10
4297.4205256335926606
 20
587.9244367267530151
 30
0.0
 40
0.0202521296188643
 50
2.5066447761651518
 51
124.3263843914427014
  0
ARC
  5
2251A
  8
0
 10
4297.4363865546656598
 20
587.0198219623622435
 30
0.0
 40
0.0202303915161381
 50
236.9937179797391025
 51
359.5481854641968198
  0
ARC
  5
2251B
  8
0
 10
4297.483118015115906
 20
586.9828556249436815
 30
0.0
 40
0.0202121500980755
 50
241.3850238791575009
 51
0.627864873403261
  0
ARC
  5
2251C
  8
0
 10
4298.5057449270998404
 20
586.9840260344954004
 30
0.0
 40
0.2016633094835253
 50
148.4883571939533908
 51
178.5307422480410082
  0
VIEWPORT
  5
7BC8
 67
     1
  8
0
 10
8.4975296442687753
 20
4.5
 30
0.0
 40
16.9950592885375507
 41
9.0
 68
     1
 69
     1
1001
ACAD
1000
MVIEW
1002
{
1070
    16
1010
0.0
1020
0.0
1030
0.0
1010
0.0
1020
0.0
1030
1.0
1040
0.0
1040
9.0
1040
8.4975296442687753
1040
4.5
1040
50.0
1040
0.0
1040
0.0
1070
     0
1070
   100
1070
     1
1070
     1
1070
     0
1070
     0
1070
     0
1070
     0
1040
0.0
1040
0.0
1040
0.0
1040
1.0
1040
1.0
1040
0.0
1040
0.0
1070
     0
1002
{
1002
}
1002
}
  0
ENDSEC
  0
EOF
