  0
SECTION
  2
HEADER
  9
$ACADVER
  1
AC1009
  9
$INSBASE
 10
639.9467858494654138
 20
40.5054190232275886
 30
0.0
  9
$EXTMIN
 10
639.3690329456472909
 20
34.3691146225446431
 30
-0.0000000000000058
  9
$EXTMAX
 10
640.925668817916744
 20
40.5116246972665692
 30
0.0000000000000104
  9
$LIMMIN
 10
0.0
 20
0.0
  9
$LIMMAX
 10
11.6929133858000007
 20
8.2677165353999982
  9
$ORTHOMODE
 70
     0
  9
$REGENMODE
 70
     1
  9
$FILLMODE
 70
     1
  9
$QTEXTMODE
 70
     0
  9
$MIRRTEXT
 70
     0
  9
$DRAGMODE
 70
     2
  9
$LTSCALE
 40
0.6431102362
  9
$OSMODE
 70
  4095
  9
$ATTMODE
 70
     1
  9
$TEXTSIZE
 40
0.2
  9
$TRACEWID
 40
0.05
  9
$TEXTSTYLE
  7
STANDARD
  9
$CLAYER
  8
0
  9
$CELTYPE
  6
BYLAYER
  9
$CECOLOR
 62
   256
  9
$DIMSCALE
 40
1.0
  9
$DIMASZ
 40
0.1875
  9
$DIMEXO
 40
0.0625
  9
$DIMDLI
 40
0.4443307087
  9
$DIMRND
 40
0.0
  9
$DIMDLE
 40
0.0
  9
$DIMEXE
 40
0.125
  9
$DIMTP
 40
0.01
  9
$DIMTM
 40
0.01
  9
$DIMTXT
 40
2.0
  9
$DIMCEN
 40
0.1052362205
  9
$DIMTSZ
 40
0.0
  9
$DIMTOL
 70
     1
  9
$DIMLIM
 70
     0
  9
$DIMTIH
 70
     1
  9
$DIMTOH
 70
     1
  9
$DIMSE1
 70
     0
  9
$DIMSE2
 70
     0
  9
$DIMTAD
 70
     0
  9
$DIMZIN
 70
     0
  9
$DIMBLK
  1

  9
$DIMASO
 70
     1
  9
$DIMSHO
 70
     1
  9
$DIMPOST
  1
\X
  9
$DIMAPOST
  1

  9
$DIMALT
 70
     1
  9
$DIMALTD
 70
     2
  9
$DIMALTF
 40
25.3999999999999986
  9
$DIMLFAC
 40
1.0
  9
$DIMTOFL
 70
     0
  9
$DIMTVP
 40
0.0
  9
$DIMTIX
 70
     0
  9
$DIMSOXD
 70
     0
  9
$DIMSAH
 70
     0
  9
$DIMBLK1
  1

  9
$DIMBLK2
  1

  9
$DIMSTYLE
  2
STANDARD
  9
$DIMCLRD
 70
     0
  9
$DIMCLRE
 70
     0
  9
$DIMCLRT
 70
     0
  9
$DIMTFAC
 40
1.0
  9
$DIMGAP
 40
0.09
  9
$LUNITS
 70
     2
  9
$LUPREC
 70
     4
  9
$SKETCHINC
 40
0.1
  9
$FILLETRAD
 40
0.0
  9
$AUNITS
 70
     0
  9
$AUPREC
 70
     0
  9
$MENU
  1
.
  9
$ELEVATION
 40
0.0
  9
$PELEVATION
 40
0.0
  9
$THICKNESS
 40
0.0
  9
$LIMCHECK
 70
     0
  9
$BLIPMODE
 70
     0
  9
$CHAMFERA
 40
0.0
  9
$CHAMFERB
 40
0.0
  9
$SKPOLY
 70
     0
  9
$TDCREATE
 40
2458106.4931018520146608
  9
$TDUPDATE
 40
2460003.7690740739926696
  9
$TDINDWG
 40
0.3041652315
  9
$TDUSRTIMER
 40
0.3041652315
  9
$USRTIMER
 70
     1
  9
$ANGBASE
 50
0.0
  9
$ANGDIR
 70
     0
  9
$PDMODE
 70
     0
  9
$PDSIZE
 40
0.3125
  9
$PLINEWID
 40
0.0
  9
$COORDS
 70
     1
  9
$SPLFRAME
 70
     0
  9
$SPLINETYPE
 70
     6
  9
$SPLINESEGS
 70
     8
  9
$ATTDIA
 70
     1
  9
$ATTREQ
 70
     1
  9
$HANDLING
 70
     1
  9
$HANDSEED
  5
751E
  9
$SURFTAB1
 70
     6
  9
$SURFTAB2
 70
     6
  9
$SURFTYPE
 70
     6
  9
$SURFU
 70
     6
  9
$SURFV
 70
     6
  9
$UCSNAME
  2

  9
$UCSORG
 10
0.0
 20
0.0
 30
0.0
  9
$UCSXDIR
 10
1.0
 20
0.0
 30
0.0
  9
$UCSYDIR
 10
0.0
 20
1.0
 30
0.0
  9
$PUCSNAME
  2

  9
$PUCSORG
 10
0.0
 20
0.0
 30
0.0
  9
$PUCSXDIR
 10
1.0
 20
0.0
 30
0.0
  9
$PUCSYDIR
 10
0.0
 20
1.0
 30
0.0
  9
$USERI1
 70
     0
  9
$USERI2
 70
     0
  9
$USERI3
 70
     0
  9
$USERI4
 70
     0
  9
$USERI5
 70
     0
  9
$USERR1
 40
0.0
  9
$USERR2
 40
0.0
  9
$USERR3
 40
0.0
  9
$USERR4
 40
0.0
  9
$USERR5
 40
0.0
  9
$WORLDVIEW
 70
     1
  9
$SHADEDGE
 70
     3
  9
$SHADEDIF
 70
    70
  9
$TILEMODE
 70
     1
  9
$MAXACTVP
 70
    64
  9
$PLIMCHECK
 70
     0
  9
$PEXTMIN
 10
1.0000000000000000E+20
 20
1.0000000000000000E+20
 30
1.0000000000000000E+20
  9
$PEXTMAX
 10
-1.0000000000000000E+20
 20
-1.0000000000000000E+20
 30
-1.0000000000000000E+20
  9
$PLIMMIN
 10
0.0
 20
0.0
  9
$PLIMMAX
 10
12.0
 20
9.0
  9
$UNITMODE
 70
     0
  9
$VISRETAIN
 70
     1
  9
$PLINEGEN
 70
     0
  9
$PSLTSCALE
 70
     1
  0
ENDSEC
  0
SECTION
  2
TABLES
  0
TABLE
  2
VPORT
 70
     1
  0
VPORT
  2
*ACTIVE
 70
     0
 10
0.0
 20
0.0
 11
1.0
 21
1.0
 12
366.5731493252690143
 22
55.0463303939270787
 13
0.0
 23
0.0
 14
1.0
 24
1.0
 15
0.0
 25
0.0
 16
-0.0000000000000568
 26
0.0
 36
193.9250709296327955
 17
273.5742015565131169
 27
-17.6059607340214797
 37
0.0
 40
6.1911957556312132
 41
1.644179894179894
 42
50.0
 43
0.0
 44
0.0
 50
0.0
 51
0.0
 71
     0
 72
   100
 73
     1
 74
     1
 75
     0
 76
     0
 77
     0
 78
     0
  0
ENDTAB
  0
TABLE
  2
LTYPE
 70
     2
  0
LTYPE
  2
CONTINUOUS
 70
     0
  3
Solid line
 72
    65
 73
     0
 40
0.0
  0
LTYPE
  2
PHANTOM2
 70
     0
  3
___ _ _ ___ _ _ ___ _ _ ___ _ _
 72
    65
 73
     6
 40
1.25
 49
0.625
 49
-0.125
 49
0.125
 49
-0.125
 49
0.125
 49
-0.125
  0
ENDTAB
  0
TABLE
  2
LAYER
 70
     2
  0
LAYER
  2
0
 70
     0
 62
   255
  6
CONTINUOUS
  0
LAYER
  2
DEFPOINTS
 70
     0
 62
     7
  6
CONTINUOUS
  0
ENDTAB
  0
TABLE
  2
STYLE
 70
     1
  0
STYLE
  2
STANDARD
 70
     0
 40
0.0
 41
0.8
 50
0.0
 71
     0
 42
0.2
  3
txt
  4

  0
ENDTAB
  0
TABLE
  2
VIEW
 70
     0
  0
ENDTAB
  0
TABLE
  2
UCS
 70
     0
  0
ENDTAB
  0
TABLE
  2
APPID
 70
     9
  0
APPID
  2
ACAD
 70
     0
  0
APPID
  2
ACAD_MLEADERVER
 70
     0
  0
APPID
  2
ACAD_EXEMPT_FROM_CAD_STANDARDS
 70
     0
  0
APPID
  2
ACAD_NAV_VCDISPLAY
 70
     0
  0
APPID
  2
ACAD_DSTYLE_DIMJAG
 70
     0
  0
APPID
  2
ACAD_DSTYLE_DIMTALN
 70
     0
  0
APPID
  2
ACAECLAYERSTANDARD
 70
     0
  0
APPID
  2
ACCMTRANSPARENCY
 70
     0
  0
APPID
  2
ACDBATTR
 70
     0
  0
ENDTAB
  0
TABLE
  2
DIMSTYLE
 70
     1
  0
DIMSTYLE
  2
STANDARD
 70
     0
  3

  4

  5

  6

  7

 40
1.0
 41
0.1875
 42
0.0625
 43
0.38
 44
0.125
 45
0.0
 46
0.0
 47
0.01
 48
0.01
140
0.15625
141
0.09
142
0.0
143
25.3999999999999986
144
1.0
145
0.0
146
1.0
147
0.09
 71
     1
 72
     0
 73
     1
 74
     1
 75
     0
 76
     0
 77
     0
 78
     4
170
     0
171
     2
172
     0
173
     0
174
     0
175
     0
176
     0
177
     0
178
     0
  0
ENDTAB
  0
ENDSEC
  0
SECTION
  2
BLOCKS
  0
BLOCK
  8
0
  2
$MODEL_SPACE
 70
     0
 10
0.0
 20
0.0
 30
0.0
  3
$MODEL_SPACE
  1

  0
ENDBLK
  5
21
  8
0
  0
BLOCK
 67
     1
  8
0
  2
$PAPER_SPACE
 70
     0
 10
0.0
 20
0.0
 30
0.0
  3
$PAPER_SPACE
  1

  0
ENDBLK
  5
1D
 67
     1
  8
0
  0
ENDSEC
  0
SECTION
  2
ENTITIES
  0
ATTDEF
  5
FAA
  8
DEFPOINTS
 10
639.9430905821287752
 20
40.5095909941407228
 30
0.0
 40
0.001
  1
P21644-00
  3

  2
MODELNUMBER
 70
     0
1001
ACDBATTR
1070
     0
1070
     1
  0
ATTDEF
  5
FAB
  8
DEFPOINTS
 10
639.9430905821287752
 20
40.5079243274740577
 30
0.0
 40
0.001
  1

  3

  2
TRADENAME
 70
     0
1001
ACDBATTR
1070
     0
1070
     1
  0
ATTDEF
  5
FAC
  8
DEFPOINTS
 10
639.9430905821287752
 20
40.5062576608073925
 30
0.0
 40
0.001
  1
VALVE SHROUD
  3

  2
PRODUCT
 70
     0
1001
ACDBATTR
1070
     0
1070
     1
  0
LINE
  5
7439
  8
0
 10
639.4133149803153628
 20
34.3714190232276025
 30
0.0
 11
640.4338472837157497
 21
34.3714190232276025
 31
0.0
  0
LINE
  5
743A
  8
0
 10
639.4133149803153628
 20
40.5054190232275886
 30
0.0
 11
640.8241516216154423
 21
40.5054190232275886
 31
0.0
  0
LINE
  5
743B
  8
0
 10
639.4133149803153628
 20
34.3714190232276025
 30
0.0
 11
639.4133149803153628
 21
40.5054190232275886
 31
0.0
  0
LINE
  5
743C
  8
0
 10
640.4802567186154647
 20
34.4189882403379173
 30
0.0
 11
640.4802567186154647
 21
39.560219023227603
 31
0.0
  0
LINE
  5
743D
  8
0
 10
640.8840516216152992
 20
40.4455190232275967
 30
0.0
 11
640.8840516216155265
 21
39.8013190232275988
 31
0.0
  0
LINE
  5
743E
  8
0
 10
640.824151621615556
 20
39.7414190232275928
 30
0.0
 11
639.7815079940153282
 21
39.7414190232275928
 31
0.0
  0
ARC
  5
743F
  8
0
 10
640.8241516216154423
 20
40.4455190232275896
 30
0.0
 40
0.0599
 50
0.0000000000077351
 51
90.0000000000065086
  0
ARC
  5
7440
  8
0
 10
640.824151621615556
 20
39.8013190232275988
 30
0.0
 40
0.0599
 50
270.0
 51
0.0000000000069209
  0
LINE
  5
7441
  8
0
 10
639.7815079940153282
 20
39.6164190232275928
 30
0.0
 11
640.4240567186153612
 21
39.6164190232275928
 31
0.0
  0
ARC
  5
7442
  8
0
 10
640.4240567186153612
 20
39.560219023227603
 30
0.0
 40
0.0562
 50
0.0000000000008142
 51
90.0
  0
ARC
  5
7443
  8
0
 10
639.7887313800290485
 20
39.678919023227607
 30
0.0
 40
0.0629160337712321
 50
96.5926627598323506
 51
263.4073372403117901
  0
LINE
  5
7444
  8
0
 10
640.4937652027155082
 20
40.5054190232275886
 30
0.0
 11
640.4937652027155082
 21
39.7414190232275928
 31
0.0
  0
ARC
  5
7446
  8
0
 10
640.4272301230010953
 20
34.424298424536083
 30
0.0
 40
0.053291818308885
 50
277.1327354551572739
 51
354.2813570281700208
  0
CIRCLE
  5
7447
  8
0
 10
640.6650361751153469
 20
40.1234186066275882
 30
0.0
 40
0.1068514574626169
  0
CIRCLE
  5
7448
  8
0
 10
640.6650361751153469
 20
40.1234186066275882
 30
0.0
 40
0.157000700466172
  0
LINE
  5
7449
  8
0
 10
640.7518369627155153
 20
40.1382852069275984
 30
0.0
 11
640.7518369627155153
 21
40.1085529504115996
 31
0.0
  0
LINE
  5
744A
  8
0
 10
640.5782318691055934
 20
40.1382852450735896
 30
0.0
 11
640.5781659293467101
 21
40.10855298313394
 31
0.0
  0
LINE
  5
744B
  8
0
 10
640.6501680300688122
 20
40.0366265433876265
 30
0.0
 11
640.6798993971943901
 21
40.0365574553532468
 31
0.0
  0
LINE
  5
744C
  8
0
 10
640.7518369627155153
 20
40.1382852069275984
 30
0.0
 11
640.7223310792154507
 21
40.1383506446275931
 31
0.0
  0
LINE
  5
744D
  8
0
 10
640.751830712211131
 20
40.1085536495737713
 30
0.0
 11
640.7223355418650499
 21
40.1084741434554175
 31
0.0
  0
LINE
  5
744E
  8
0
 10
640.6799032988963063
 20
40.2102114948421914
 30
0.0
 11
640.6799653389155083
 21
40.1807099228275888
 31
0.0
  0
LINE
  5
744F
  8
0
 10
640.6501680121002664
 20
40.2102114948421914
 30
0.0
 11
640.6500863724222654
 21
40.1807154588355502
 31
0.0
  0
LINE
  5
7450
  8
0
 10
640.5782318691058208
 20
40.1382852451275696
 30
0.0
 11
640.6077320571212113
 21
40.1383639030797212
 31
0.0
  0
LINE
  5
7451
  8
0
 10
640.5781659293467101
 20
40.10855298313394
 30
0.0
 11
640.6077320565185573
 21
40.10855298313394
 31
0.0
  0
LINE
  5
7452
  8
0
 10
640.6501680300688122
 20
40.0366265433876265
 30
0.0
 11
640.6501022601154318
 21
40.0661281237275873
 31
0.0
  0
LINE
  5
7453
  8
0
 10
640.6798993971943901
 20
40.0365574553532468
 30
0.0
 11
640.6799653224154554
 21
40.0661281860275977
 31
0.0
  0
ARC
  5
7454
  8
0
 10
640.5916076247790443
 20
40.0500790856445121
 30
0.0
 40
0.0606563598193092
 50
15.3425643769294098
 51
74.5835740875320283
  0
ARC
  5
7455
  8
0
 10
640.7381992760965659
 20
40.0502310937326982
 30
0.0
 40
0.0603648151224836
 50
105.2361324072429056
 51
164.7310495061981896
  0
ARC
  5
7456
  8
0
 10
640.7382483073283765
 20
40.196636041778838
 30
0.0
 40
0.0604197457118075
 50
195.2832640478576991
 51
254.7254760164701111
  0
ARC
  5
7457
  8
0
 10
640.5918996067969147
 20
40.1965517004067507
 30
0.0
 40
0.0603032854912978
 50
285.2212495174172773
 51
344.7750173223743104
  0
LINE
  5
7458
  8
0
 10
640.6799032988963063
 20
40.2102114948421914
 30
0.0
 11
640.6501680121002664
 21
40.2102114948421914
 31
0.0
  0
ENDSEC
  0
EOF
