  0
SECTION
  2
HEADER
  9
$ACADVER
  1
AC1009
  9
$INSBASE
 10
665.5525214669446541
 20
39.5333210575672425
 30
0.0
  9
$EXTMIN
 10
660.7804407302356822
 20
33.39698166880126
 30
-0.0015258207003583
  9
$EXTMAX
 10
670.3139013908069046
 20
39.540284727062101
 30
0.0000000349246037
  9
$LIMMIN
 10
0.0
 20
0.0
  9
$LIMMAX
 10
11.6929133858000007
 20
8.2677165353999982
  9
$ORTHOMODE
 70
     0
  9
$REGENMODE
 70
     1
  9
$FILLMODE
 70
     1
  9
$QTEXTMODE
 70
     0
  9
$MIRRTEXT
 70
     0
  9
$DRAGMODE
 70
     2
  9
$LTSCALE
 40
0.6431102362
  9
$OSMODE
 70
  4095
  9
$ATTMODE
 70
     1
  9
$TEXTSIZE
 40
0.2
  9
$TRACEWID
 40
0.05
  9
$TEXTSTYLE
  7
STANDARD
  9
$CLAYER
  8
0
  9
$CELTYPE
  6
BYLAYER
  9
$CECOLOR
 62
   256
  9
$DIMSCALE
 40
1.0
  9
$DIMASZ
 40
0.1875
  9
$DIMEXO
 40
0.0625
  9
$DIMDLI
 40
0.4443307087
  9
$DIMRND
 40
0.0
  9
$DIMDLE
 40
0.0
  9
$DIMEXE
 40
0.125
  9
$DIMTP
 40
0.01
  9
$DIMTM
 40
0.01
  9
$DIMTXT
 40
2.0
  9
$DIMCEN
 40
0.1052362205
  9
$DIMTSZ
 40
0.0
  9
$DIMTOL
 70
     1
  9
$DIMLIM
 70
     0
  9
$DIMTIH
 70
     1
  9
$DIMTOH
 70
     1
  9
$DIMSE1
 70
     0
  9
$DIMSE2
 70
     0
  9
$DIMTAD
 70
     0
  9
$DIMZIN
 70
     0
  9
$DIMBLK
  1

  9
$DIMASO
 70
     1
  9
$DIMSHO
 70
     1
  9
$DIMPOST
  1
\X
  9
$DIMAPOST
  1

  9
$DIMALT
 70
     1
  9
$DIMALTD
 70
     2
  9
$DIMALTF
 40
25.3999999999999986
  9
$DIMLFAC
 40
1.0
  9
$DIMTOFL
 70
     0
  9
$DIMTVP
 40
0.0
  9
$DIMTIX
 70
     0
  9
$DIMSOXD
 70
     0
  9
$DIMSAH
 70
     0
  9
$DIMBLK1
  1

  9
$DIMBLK2
  1

  9
$DIMSTYLE
  2
STANDARD
  9
$DIMCLRD
 70
     0
  9
$DIMCLRE
 70
     0
  9
$DIMCLRT
 70
     0
  9
$DIMTFAC
 40
1.0
  9
$DIMGAP
 40
0.09
  9
$LUNITS
 70
     2
  9
$LUPREC
 70
     4
  9
$SKETCHINC
 40
0.1
  9
$FILLETRAD
 40
0.0
  9
$AUNITS
 70
     0
  9
$AUPREC
 70
     0
  9
$MENU
  1
.
  9
$ELEVATION
 40
0.0
  9
$PELEVATION
 40
0.0
  9
$THICKNESS
 40
0.0
  9
$LIMCHECK
 70
     0
  9
$BLIPMODE
 70
     0
  9
$CHAMFERA
 40
0.0
  9
$CHAMFERB
 40
0.0
  9
$SKPOLY
 70
     0
  9
$TDCREATE
 40
2458106.4931018520146608
  9
$TDUPDATE
 40
2460003.7692013890482485
  9
$TDINDWG
 40
0.3041536574
  9
$TDUSRTIMER
 40
0.3041536574
  9
$USRTIMER
 70
     1
  9
$ANGBASE
 50
0.0
  9
$ANGDIR
 70
     0
  9
$PDMODE
 70
     0
  9
$PDSIZE
 40
0.3125
  9
$PLINEWID
 40
0.0
  9
$COORDS
 70
     1
  9
$SPLFRAME
 70
     0
  9
$SPLINETYPE
 70
     6
  9
$SPLINESEGS
 70
     8
  9
$ATTDIA
 70
     1
  9
$ATTREQ
 70
     1
  9
$HANDLING
 70
     1
  9
$HANDSEED
  5
7700
  9
$SURFTAB1
 70
     6
  9
$SURFTAB2
 70
     6
  9
$SURFTYPE
 70
     6
  9
$SURFU
 70
     6
  9
$SURFV
 70
     6
  9
$UCSNAME
  2

  9
$UCSORG
 10
0.0
 20
0.0
 30
0.0
  9
$UCSXDIR
 10
1.0
 20
0.0
 30
0.0
  9
$UCSYDIR
 10
0.0
 20
1.0
 30
0.0
  9
$PUCSNAME
  2

  9
$PUCSORG
 10
0.0
 20
0.0
 30
0.0
  9
$PUCSXDIR
 10
1.0
 20
0.0
 30
0.0
  9
$PUCSYDIR
 10
0.0
 20
1.0
 30
0.0
  9
$USERI1
 70
     0
  9
$USERI2
 70
     0
  9
$USERI3
 70
     0
  9
$USERI4
 70
     0
  9
$USERI5
 70
     0
  9
$USERR1
 40
0.0
  9
$USERR2
 40
0.0
  9
$USERR3
 40
0.0
  9
$USERR4
 40
0.0
  9
$USERR5
 40
0.0
  9
$WORLDVIEW
 70
     1
  9
$SHADEDGE
 70
     3
  9
$SHADEDIF
 70
    70
  9
$TILEMODE
 70
     1
  9
$MAXACTVP
 70
    64
  9
$PLIMCHECK
 70
     0
  9
$PEXTMIN
 10
1.0000000000000000E+20
 20
1.0000000000000000E+20
 30
1.0000000000000000E+20
  9
$PEXTMAX
 10
-1.0000000000000000E+20
 20
-1.0000000000000000E+20
 30
-1.0000000000000000E+20
  9
$PLIMMIN
 10
0.0
 20
0.0
  9
$PLIMMAX
 10
12.0
 20
9.0
  9
$UNITMODE
 70
     0
  9
$VISRETAIN
 70
     1
  9
$PLINEGEN
 70
     0
  9
$PSLTSCALE
 70
     1
  0
ENDSEC
  0
SECTION
  2
TABLES
  0
TABLE
  2
VPORT
 70
     1
  0
VPORT
  2
*ACTIVE
 70
     0
 10
0.0
 20
0.0
 11
1.0
 21
1.0
 12
391.9729695040081765
 22
54.0745939319531601
 13
0.0
 23
0.0
 14
1.0
 24
1.0
 15
0.0
 25
0.0
 16
-0.0000000000000568
 26
0.0
 36
193.9250709296327955
 17
273.5742015565131169
 27
-17.6059607340214797
 37
0.0
 40
6.1919950243765101
 41
1.644179894179894
 42
50.0
 43
0.0
 44
0.0
 50
0.0
 51
0.0
 71
     0
 72
   100
 73
     1
 74
     1
 75
     0
 76
     0
 77
     0
 78
     0
  0
ENDTAB
  0
TABLE
  2
LTYPE
 70
     2
  0
LTYPE
  2
CONTINUOUS
 70
     0
  3
Solid line
 72
    65
 73
     0
 40
0.0
  0
LTYPE
  2
PHANTOM2
 70
     0
  3
___ _ _ ___ _ _ ___ _ _ ___ _ _
 72
    65
 73
     6
 40
1.25
 49
0.625
 49
-0.125
 49
0.125
 49
-0.125
 49
0.125
 49
-0.125
  0
ENDTAB
  0
TABLE
  2
LAYER
 70
     2
  0
LAYER
  2
0
 70
     0
 62
   255
  6
CONTINUOUS
  0
LAYER
  2
DEFPOINTS
 70
     0
 62
     7
  6
CONTINUOUS
  0
ENDTAB
  0
TABLE
  2
STYLE
 70
     1
  0
STYLE
  2
STANDARD
 70
     0
 40
0.0
 41
0.8
 50
0.0
 71
     0
 42
0.2
  3
txt
  4

  0
ENDTAB
  0
TABLE
  2
VIEW
 70
     0
  0
ENDTAB
  0
TABLE
  2
UCS
 70
     0
  0
ENDTAB
  0
TABLE
  2
APPID
 70
     9
  0
APPID
  2
ACAD
 70
     0
  0
APPID
  2
ACAD_MLEADERVER
 70
     0
  0
APPID
  2
ACAD_EXEMPT_FROM_CAD_STANDARDS
 70
     0
  0
APPID
  2
ACAD_NAV_VCDISPLAY
 70
     0
  0
APPID
  2
ACAD_DSTYLE_DIMJAG
 70
     0
  0
APPID
  2
ACAD_DSTYLE_DIMTALN
 70
     0
  0
APPID
  2
ACAECLAYERSTANDARD
 70
     0
  0
APPID
  2
ACCMTRANSPARENCY
 70
     0
  0
APPID
  2
ACDBATTR
 70
     0
  0
ENDTAB
  0
TABLE
  2
DIMSTYLE
 70
     1
  0
DIMSTYLE
  2
STANDARD
 70
     0
  3

  4

  5

  6

  7

 40
1.0
 41
0.1875
 42
0.0625
 43
0.38
 44
0.125
 45
0.0
 46
0.0
 47
0.01
 48
0.01
140
0.15625
141
0.09
142
0.0
143
25.3999999999999986
144
1.0
145
0.0
146
1.0
147
0.09
 71
     1
 72
     0
 73
     1
 74
     1
 75
     0
 76
     0
 77
     0
 78
     4
170
     0
171
     2
172
     0
173
     0
174
     0
175
     0
176
     0
177
     0
178
     0
  0
ENDTAB
  0
ENDSEC
  0
SECTION
  2
BLOCKS
  0
BLOCK
  8
0
  2
$MODEL_SPACE
 70
     0
 10
0.0
 20
0.0
 30
0.0
  3
$MODEL_SPACE
  1

  0
ENDBLK
  5
21
  8
0
  0
BLOCK
 67
     1
  8
0
  2
$PAPER_SPACE
 70
     0
 10
0.0
 20
0.0
 30
0.0
  3
$PAPER_SPACE
  1

  0
ENDBLK
  5
1D
 67
     1
  8
0
  0
ENDSEC
  0
SECTION
  2
ENTITIES
  0
ATTDEF
  5
FAA
  8
DEFPOINTS
 10
665.5483745896777918
 20
39.5372638886772307
 30
0.0
 40
0.001
  1
P21644-00
  3

  2
MODELNUMBER
 70
     0
1001
ACDBATTR
1070
     0
1070
     1
  0
ATTDEF
  5
FAB
  8
DEFPOINTS
 10
665.5483745896777918
 20
39.5355972220105585
 30
0.0
 40
0.001
  1

  3

  2
TRADENAME
 70
     0
1001
ACDBATTR
1070
     0
1070
     1
  0
ATTDEF
  5
FAC
  8
DEFPOINTS
 10
665.5483745896777918
 20
39.5339305553439004
 30
0.0
 40
0.001
  1
VALVE SHROUD
  3

  2
PRODUCT
 70
     0
1001
ACDBATTR
1070
     0
1070
     1
  0
LINE
  5
75E4
  8
0
 10
662.1775214669446541
 20
38.7693210575672396
 30
0.0
 11
662.1775214669446541
 21
39.5333210575672425
 31
0.0
  0
LINE
  5
75E5
  8
0
 10
662.1775214669446541
 20
33.3993210575672421
 30
0.0
 11
660.9275214669446541
 21
33.3993210575672421
 31
0.0
  0
LINE
  5
75E6
  8
0
 10
662.1801440834445884
 20
39.5333210575672425
 30
0.0
 11
660.924898850344448
 21
39.5333210575672425
 31
0.0
  0
LINE
  5
75E7
  8
0
 10
662.1775214669446541
 20
33.3993210575672421
 30
0.0
 11
662.1775214669446541
 21
38.6443210575672396
 31
0.0
  0
LINE
  5
75E8
  8
0
 10
662.1775214669446541
 20
38.7693210575672396
 30
0.0
 11
662.1775214669446541
 21
39.5333210575672425
 31
0.0
  0
LINE
  5
75E9
  8
0
 10
660.9275214669446541
 20
33.3993210575672421
 30
0.0
 11
660.9275214669446541
 21
38.6443210575672396
 31
0.0
  0
LINE
  5
75EA
  8
0
 10
660.9275214669446541
 20
38.7693210575672396
 30
0.0
 11
660.9275214669446541
 21
39.5333210575672425
 31
0.0
  0
LINE
  5
75EB
  8
0
 10
662.1775214669446541
 20
38.6443210575672396
 30
0.0
 11
662.1223242150445003
 21
38.6443210575672396
 31
0.0
  0
LINE
  5
75EC
  8
0
 10
662.2065577248446289
 20
39.4774822809306016
 30
0.0
 11
662.2065577248446289
 21
39.3492679744193481
 31
0.0
  0
LINE
  5
75ED
  8
0
 10
662.2065577248446289
 20
38.9533741408145104
 30
0.0
 11
662.2065577248446289
 21
38.8150210575672503
 31
0.0
  0
LINE
  5
75EE
  8
0
 10
662.1801440834445884
 20
38.7693210575672396
 30
0.0
 11
662.1223242150445003
 21
38.7693210575672396
 31
0.0
  0
LINE
  5
75EF
  8
0
 10
662.1775214669446541
 20
38.6443210575672396
 30
0.0
 11
662.1223242150445003
 21
38.6443210575672396
 31
0.0
  0
ARC
  5
75F0
  8
0
 10
662.1764985498352871
 20
38.7068210575672396
 30
0.0
 40
0.0827109941302814
 50
130.9183973522272879
 51
229.0816026477727121
  0
ARC
  5
75F1
  8
0
 10
662.1499265333126232
 20
38.8172694330415027
 30
0.0
 40
0.0566758065368678
 50
302.2195441315158178
 51
357.7264330793423142
  0
ARC
  5
75F2
  8
0
 10
662.174794604887893
 20
39.5094111661474585
 30
0.0
 40
0.0245010168877677
 50
15.6362962678249904
 51
77.3886241602462235
  0
ARC
  5
75F3
  8
0
 10
662.089454107001302
 20
39.472788777726258
 30
0.0
 40
0.1171976377079524
 50
2.295181581614397
 51
21.6435525076271098
  0
LINE
  5
75F4
  8
0
 10
660.927521466844496
 20
38.6443210575672396
 30
0.0
 11
660.9827187187446498
 21
38.6443210575672396
 31
0.0
  0
LINE
  5
75F5
  8
0
 10
660.8984852089446349
 20
39.4774822809306016
 30
0.0
 11
660.8984852089446349
 21
39.308321057567241
 31
0.0
  0
LINE
  5
75F6
  8
0
 10
660.8984852089446349
 20
38.994321057567241
 30
0.0
 11
660.8984852089446349
 21
38.8150210575674066
 31
0.0
  0
LINE
  5
75F7
  8
0
 10
660.924898850344448
 20
38.7693210575672396
 30
0.0
 11
660.9827187187446498
 21
38.7693210575672396
 31
0.0
  0
LINE
  5
75F8
  8
0
 10
660.927521466844496
 20
38.6443210575672396
 30
0.0
 11
660.9827187187446498
 21
38.6443210575672396
 31
0.0
  0
ARC
  5
75F9
  8
0
 10
660.928544383953863
 20
38.7068210575672396
 30
0.0
 40
0.0827109941302814
 50
310.9183973522273163
 51
49.0816026477726908
  0
ARC
  5
75FA
  8
0
 10
660.9551164004766406
 20
38.8172694330415027
 30
0.0
 40
0.0566758065368678
 50
182.2735669206572027
 51
237.7804558684842107
  0
ARC
  5
75FB
  8
0
 10
660.9302483289012571
 20
39.5094111661474585
 30
0.0
 40
0.0245010168877677
 50
102.6113758397538049
 51
164.3637037321749972
  0
ARC
  5
75FC
  8
0
 10
661.0155888267878481
 20
39.472788777726258
 30
0.0
 40
0.1171976377079524
 50
158.3564474923728937
 51
177.7048184183855994
  0
LINE
  5
75FD
  8
0
 10
662.3165577248446425
 20
39.3231960575672375
 30
0.0
 11
662.3165577248446425
 21
38.9794460575672517
 31
0.0
  0
LINE
  5
75FE
  8
0
 10
662.3012064690445868
 20
39.3497852126672427
 30
0.0
 11
662.2065577248446289
 21
39.3497852126672427
 31
0.0
  0
LINE
  5
75FF
  8
0
 10
662.3012064690445868
 20
39.2505531350672427
 30
0.0
 11
662.2069089806444708
 21
39.2505531350672427
 31
0.0
  0
LINE
  5
7600
  8
0
 10
662.3012064690445868
 20
39.0520889800672393
 30
0.0
 11
662.2069089806444708
 21
39.0520889800672393
 31
0.0
  0
LINE
  5
7601
  8
0
 10
662.3012064690445868
 20
38.9528569025672411
 30
0.0
 11
662.2065577248446289
 21
38.9528569025672411
 31
0.0
  0
ARC
  5
7602
  8
0
 10
661.9881589804368787
 20
39.1513210575672375
 30
0.0
 40
0.3283987444077106
 50
342.4120462415046973
 51
17.5879537584945602
  0
ARC
  5
7603
  8
0
 10
662.2287013176561459
 20
39.3001691738672534
 30
0.0
 40
0.0878564071885292
 50
325.6157525935291233
 51
34.3842474064692283
  0
ARC
  5
7604
  8
0
 10
662.2287013178175812
 20
39.0024729413172508
 30
0.0
 40
0.0878564070269293
 50
325.6157525609240224
 51
34.384247439076951
  0
LINE
  5
7605
  8
0
 10
662.3165577248446425
 20
39.3231960575672375
 30
0.0
 11
662.3079226435030478
 21
39.338152457231331
 31
0.0
  0
LINE
  5
7606
  8
0
 10
662.3165577248446425
 20
38.9794460575672517
 30
0.0
 11
662.3079226434167595
 21
38.964489657810077
 31
0.0
  0
LINE
  5
7607
  8
0
 10
662.1915577248446425
 20
39.3231960575672375
 30
0.0
 11
662.1915577248446425
 21
38.9794460575672517
 31
0.0
  0
ARC
  5
7608
  8
0
 10
662.5199564692522927
 20
39.1513210575672375
 30
0.0
 40
0.3283987444077106
 50
162.4120462415054078
 51
197.5879537584953027
  0
ARC
  5
7609
  8
0
 10
662.2794141320331391
 20
39.3001691738672534
 30
0.0
 40
0.0878564071885292
 50
145.6157525935308001
 51
214.3842474064709052
  0
ARC
  5
760A
  8
0
 10
662.2794141318714765
 20
39.0024729413172508
 30
0.0
 40
0.0878564070269293
 50
145.6157525609229992
 51
214.3842474390758923
  0
LINE
  5
760B
  8
0
 10
662.1915577248446425
 20
39.3231960575672375
 30
0.0
 11
662.2001928061861236
 21
39.338152457231331
 31
0.0
  0
LINE
  5
760C
  8
0
 10
662.1915577248446425
 20
38.9794460575672517
 30
0.0
 11
662.2001928062724119
 21
38.964489657810077
 31
0.0
  0
LINE
  5
760E
  8
0
 10
660.862591577744638
 20
39.308321057567241
 30
0.0
 11
660.9151356586445445
 21
39.308321057567241
 31
0.0
  0
LINE
  5
760F
  8
0
 10
660.9203713753446436
 20
39.3033210575672527
 30
0.0
 11
660.9203713753446436
 21
38.9995210575672502
 31
0.0
  0
ARC
  5
7610
  8
0
 10
660.9151713753445847
 20
38.9995210575672502
 30
0.0
 40
0.0052
 50
270.0
 51
0.0
  0
LINE
  5
7611
  8
0
 10
660.9151713753445847
 20
38.994321057567241
 30
0.0
 11
660.862591577744638
 21
38.994321057567241
 31
0.0
  0
ARC
  5
7612
  8
0
 10
660.9151910842639381
 20
39.3031378231991084
 30
0.0
 40
0.0051835306996579
 50
2.0257898045058669
 51
90.6126547259327282
  0
LINE
  5
7613
  8
0
 10
660.8097415536445851
 20
39.2540042465907675
 30
0.0
 11
660.8097415536445851
 21
39.0488378685437212
 31
0.0
  0
ARC
  5
7614
  8
0
 10
660.8663734421081699
 20
39.2537369831622129
 30
0.0
 40
0.0566325191094702
 50
138.9651370246986914
 51
180.2703945287368015
  0
ARC
  5
7615
  8
0
 10
660.8618857090621077
 20
39.2576429066420332
 30
0.0
 40
0.0506830665192634
 50
89.2020095325608793
 51
138.9651370246986914
  0
ARC
  5
7616
  8
0
 10
660.8663734421081699
 20
39.0491051319722686
 30
0.0
 40
0.0566325191094635
 50
180.2703945287344141
 51
221.0348629753025023
  0
ARC
  5
7617
  8
0
 10
660.8625552701363404
 20
39.0461032643929471
 30
0.0
 40
0.0517822195544298
 50
221.3030290680866869
 51
270.0401734979367916
  0
LINE
  5
7618
  8
0
 10
660.9203713753446436
 20
39.2333210575672382
 30
0.0
 11
660.9275214669446541
 21
39.2333210575672382
 31
0.0
  0
LINE
  5
7619
  8
0
 10
660.9203713753446436
 20
39.0693210575672509
 30
0.0
 11
660.9275214669446541
 21
39.0693210575672509
 31
0.0
  0
LINE
  5
761A
  8
0
 10
662.3521577001446303
 20
39.2113210575672397
 30
0.0
 11
662.3521577001446303
 21
39.0913264463672405
 31
0.0
  0
LINE
  5
761B
  8
0
 10
662.3521577001446303
 20
39.0913264463672405
 30
0.0
 11
662.3317270281446554
 21
39.0729426610672377
 31
0.0
  0
LINE
  5
761C
  8
0
 10
662.3317270281446554
 20
39.0729426610672377
 30
0.0
 11
662.3230159996445536
 21
39.0874942359672417
 31
0.0
  0
LINE
  5
761D
  8
0
 10
662.3165577248446425
 20
39.2333210575672382
 30
0.0
 11
662.323614507944626
 21
39.2333210575672382
 31
0.0
  0
LINE
  5
761E
  8
0
 10
662.323614507944626
 20
39.2333210575672382
 30
0.0
 11
662.3344304155446025
 21
39.2151965985672533
 31
0.0
  0
LINE
  5
761F
  8
0
 10
662.3420111357446558
 20
39.2204491773672501
 30
0.0
 11
662.3387067662702066
 21
39.2153046945281432
 31
0.0
  0
LINE
  5
7620
  8
0
 10
662.3420111357446558
 20
39.2204491773672501
 30
0.0
 11
662.3521577001446303
 21
39.2113210575672397
 31
0.0
  0
LINE
  5
7621
  8
0
 10
662.3317270281446554
 20
39.0729426610672377
 30
0.0
 11
662.3182182498445627
 21
39.2333210575672382
 31
0.0
  0
LINE
  5
7622
  8
0
 10
662.323614507944626
 20
39.2333210575672382
 30
0.0
 11
662.3475117444911575
 21
39.0871459548353286
 31
0.0
  0
LINE
  5
7623
  8
0
 10
662.3420111357446558
 20
39.2204491773672501
 30
0.0
 11
662.3475117444911575
 21
39.0871459548353286
 31
0.0
  0
LINE
  5
7624
  8
0
 10
662.3230159996445536
 20
39.0874942359672417
 30
0.0
 11
662.3165577249445732
 21
39.1424194169543114
 31
0.0
  0
ARC
  5
7625
  8
0
 10
662.3209254732577165
 20
39.0858996651406088
 30
0.0
 40
0.0026292502155103
 50
37.3349552729518308
 51
154.1880880552039912
  0
ARC
  5
7626
  8
0
 10
662.3181539218664966
 20
39.0874934720267788
 30
0.0
 40
0.0006044073418184
 50
204.4288832624663996
 51
312.0253358098788112
  0
ARC
  5
7627
  8
0
 10
662.3305841033476327
 20
39.0931396096962587
 30
0.0
 40
0.0142568167348661
 50
190.3155032804797884
 51
204.4288832624667975
  0
ARC
  5
7628
  8
0
 10
662.3365305075870992
 20
39.2167572489480989
 30
0.0
 40
0.0026164892887969
 50
216.6173055848971103
 51
326.2786793929267901
  0
LINE
  5
7629
  8
0
 10
662.1830536966847376
 20
39.215760719674968
 30
0.0
 11
662.1915577248446425
 21
39.2311410436192105
 31
0.0
  0
ARC
  5
762A
  8
0
 10
662.1802875818146958
 20
39.2173314263770294
 30
0.0
 40
0.0031809607067848
 50
209.5895812810967982
 51
330.4104187189564072
  0
LINE
  5
762B
  8
0
 10
662.1775680208445465
 20
39.0693210575672509
 30
0.0
 11
662.183239338094495
 21
39.0693210575672509
 31
0.0
  0
LINE
  5
762C
  8
0
 10
662.183239338094495
 20
39.0693210575672509
 30
0.0
 11
662.1915577248446425
 21
39.083660805353297
 31
0.0
  0
LINE
  5
762D
  8
0
 10
662.183239338094495
 20
39.0693210575672509
 30
0.0
 11
662.1775214669446541
 21
39.1018981940907508
 31
0.0
  0
LINE
  5
762E
  8
0
 10
662.1914235972096776
 20
39.0834295878692117
 30
0.0
 11
662.1784018448230427
 21
39.2147696873160498
 31
0.0
  0
LINE
  5
762F
  8
0
 10
662.1830536966847376
 20
39.215760719674968
 30
0.0
 11
662.1915577248446425
 21
39.1499649728760204
 31
0.0
  0
LINE
  5
7630
  8
0
 10
668.9275214669446541
 20
38.7693210575672396
 30
0.0
 11
668.9275214669446541
 21
39.5333210575672425
 31
0.0
  0
LINE
  5
7631
  8
0
 10
668.9275214669446541
 20
33.3993210575672421
 30
0.0
 11
670.1775214669446541
 21
33.3993210575672421
 31
0.0
  0
LINE
  5
7632
  8
0
 10
668.9248988504446061
 20
39.5333210575672425
 30
0.0
 11
670.1801440835447465
 21
39.5333210575672425
 31
0.0
  0
LINE
  5
7633
  8
0
 10
668.9275214669446541
 20
33.3993210575672421
 30
0.0
 11
668.9275214669446541
 21
38.6443210575672396
 31
0.0
  0
LINE
  5
7634
  8
0
 10
668.9275214669446541
 20
38.7693210575672396
 30
0.0
 11
668.9275214669446541
 21
39.5333210575672425
 31
0.0
  0
LINE
  5
7635
  8
0
 10
670.1775214669446541
 20
33.3993210575672421
 30
0.0
 11
670.1775214669446541
 21
38.6443210575672396
 31
0.0
  0
LINE
  5
7636
  8
0
 10
670.1775214669446541
 20
38.7693210575672396
 30
0.0
 11
670.1775214669446541
 21
39.5333210575672425
 31
0.0
  0
LINE
  5
7637
  8
0
 10
668.9275214669446541
 20
38.6443210575672396
 30
0.0
 11
668.9827187188446942
 21
38.6443210575672396
 31
0.0
  0
LINE
  5
7638
  8
0
 10
668.8984852090445656
 20
39.4774822809306016
 30
0.0
 11
668.8984852090445656
 21
39.3492679744193481
 31
0.0
  0
LINE
  5
7639
  8
0
 10
668.8984852090445656
 20
38.9533741408145104
 30
0.0
 11
668.8984852090445656
 21
38.8150210575672503
 31
0.0
  0
LINE
  5
763A
  8
0
 10
668.9248988504446061
 20
38.7693210575672396
 30
0.0
 11
668.9827187188446942
 21
38.7693210575672396
 31
0.0
  0
LINE
  5
763B
  8
0
 10
668.9275214669446541
 20
38.6443210575672396
 30
0.0
 11
668.9827187188446942
 21
38.6443210575672396
 31
0.0
  0
ARC
  5
763C
  8
0
 10
668.9285443840539074
 20
38.7068210575672396
 30
0.0
 40
0.0827109941302814
 50
310.9183973522273163
 51
49.0816026477726908
  0
ARC
  5
763D
  8
0
 10
668.9551164005765713
 20
38.8172694330415027
 30
0.0
 40
0.0566758065368678
 50
182.2735669206572027
 51
237.7804558684842107
  0
ARC
  5
763E
  8
0
 10
668.9302483290013015
 20
39.5094111661474585
 30
0.0
 40
0.0245010168877677
 50
102.6113758397538049
 51
164.3637037321749972
  0
ARC
  5
763F
  8
0
 10
669.0155888268880062
 20
39.472788777726258
 30
0.0
 40
0.1171976377079524
 50
158.3564474923728937
 51
177.7048184183855994
  0
LINE
  5
7640
  8
0
 10
670.1775214670445848
 20
38.6443210575672396
 30
0.0
 11
670.1223242151445447
 21
38.6443210575672396
 31
0.0
  0
LINE
  5
7641
  8
0
 10
670.2065577249445596
 20
39.4774822809306016
 30
0.0
 11
670.2065577249445596
 21
39.308321057567241
 31
0.0
  0
LINE
  5
7642
  8
0
 10
670.2065577249445596
 20
38.994321057567241
 30
0.0
 11
670.2065577249445596
 21
38.8150210575674066
 31
0.0
  0
LINE
  5
7643
  8
0
 10
670.1801440835447465
 20
38.7693210575672396
 30
0.0
 11
670.1223242151445447
 21
38.7693210575672396
 31
0.0
  0
LINE
  5
7644
  8
0
 10
670.1775214670445848
 20
38.6443210575672396
 30
0.0
 11
670.1223242151445447
 21
38.6443210575672396
 31
0.0
  0
ARC
  5
7645
  8
0
 10
670.1764985499353315
 20
38.7068210575672396
 30
0.0
 40
0.0827109941302814
 50
130.9183973522272879
 51
229.0816026477727121
  0
ARC
  5
7646
  8
0
 10
670.1499265334126676
 20
38.8172694330415027
 30
0.0
 40
0.0566758065368678
 50
302.2195441315158178
 51
357.7264330793427121
  0
ARC
  5
7647
  8
0
 10
670.1747946049879374
 20
39.5094111661474585
 30
0.0
 40
0.0245010168877677
 50
15.6362962678249904
 51
77.3886241602462235
  0
ARC
  5
7648
  8
0
 10
670.0894541071013464
 20
39.472788777726258
 30
0.0
 40
0.1171976377079524
 50
2.295181581614397
 51
21.6435525076271098
  0
LINE
  5
7649
  8
0
 10
668.788485209044552
 20
39.3231960575672375
 30
0.0
 11
668.788485209044552
 21
38.9794460575672517
 31
0.0
  0
LINE
  5
764A
  8
0
 10
668.8038364648446077
 20
39.3497852126672427
 30
0.0
 11
668.8984852090445656
 21
39.3497852126672427
 31
0.0
  0
LINE
  5
764B
  8
0
 10
668.8038364648446077
 20
39.2505531350672427
 30
0.0
 11
668.89813395324461
 21
39.2505531350672427
 31
0.0
  0
LINE
  5
764C
  8
0
 10
668.8038364648446077
 20
39.0520889800672393
 30
0.0
 11
668.89813395324461
 21
39.0520889800672393
 31
0.0
  0
LINE
  5
764D
  8
0
 10
668.8038364648446077
 20
38.9528569025672411
 30
0.0
 11
668.8984852090445656
 21
38.9528569025672411
 31
0.0
  0
ARC
  5
764E
  8
0
 10
669.1168839534523158
 20
39.1513210575672375
 30
0.0
 40
0.3283987444077106
 50
162.4120462415054078
 51
197.5879537584953027
  0
ARC
  5
764F
  8
0
 10
668.8763416162330486
 20
39.3001691738672534
 30
0.0
 40
0.0878564071885292
 50
145.6157525935308001
 51
214.3842474064709052
  0
ARC
  5
7650
  8
0
 10
668.8763416160716133
 20
39.0024729413172508
 30
0.0
 40
0.0878564070269293
 50
145.6157525609229992
 51
214.3842474390758923
  0
LINE
  5
7651
  8
0
 10
668.788485209044552
 20
39.3231960575672375
 30
0.0
 11
668.7971202903861467
 21
39.338152457231331
 31
0.0
  0
LINE
  5
7652
  8
0
 10
668.788485209044552
 20
38.9794460575672517
 30
0.0
 11
668.7971202904723214
 21
38.964489657810077
 31
0.0
  0
LINE
  5
7653
  8
0
 10
668.9134852090446657
 20
39.3231960575672375
 30
0.0
 11
668.9134852090446657
 21
38.9794460575672517
 31
0.0
  0
ARC
  5
7654
  8
0
 10
668.5850864646369018
 20
39.1513210575672375
 30
0.0
 40
0.3283987444077106
 50
342.4120462415046973
 51
17.5879537584945602
  0
ARC
  5
7655
  8
0
 10
668.8256288018560554
 20
39.3001691738672534
 30
0.0
 40
0.0878564071885292
 50
325.6157525935291233
 51
34.3842474064692283
  0
ARC
  5
7656
  8
0
 10
668.825628802017718
 20
39.0024729413172508
 30
0.0
 40
0.0878564070269293
 50
325.6157525609240224
 51
34.384247439076951
  0
LINE
  5
7657
  8
0
 10
668.9134852090446657
 20
39.3231960575672375
 30
0.0
 11
668.9048501277030709
 21
39.338152457231331
 31
0.0
  0
LINE
  5
7658
  8
0
 10
668.9134852090446657
 20
38.9794460575672517
 30
0.0
 11
668.9048501276167826
 21
38.964489657810077
 31
0.0
  0
LINE
  5
7659
  8
0
 10
670.2424513561445565
 20
39.308321057567241
 30
0.0
 11
670.18990727524465
 21
39.308321057567241
 31
0.0
  0
LINE
  5
765A
  8
0
 10
670.1846715585445509
 20
39.3033210575672527
 30
0.0
 11
670.1846715585445509
 21
38.9995210575672502
 31
0.0
  0
ARC
  5
765B
  8
0
 10
670.1898715585444961
 20
38.9995210575672502
 30
0.0
 40
0.0052
 50
180.0
 51
270.0
  0
LINE
  5
765C
  8
0
 10
670.1898715585444961
 20
38.994321057567241
 30
0.0
 11
670.2424513561445565
 21
38.994321057567241
 31
0.0
  0
ARC
  5
765D
  8
0
 10
670.1898518496252564
 20
39.3031378231991084
 30
0.0
 40
0.0051835306996579
 50
89.387345274067286
 51
177.9742101954940949
  0
LINE
  5
765E
  8
0
 10
670.2953013802446094
 20
39.2540042465907675
 30
0.0
 11
670.2953013802446094
 21
39.0488378685437212
 31
0.0
  0
ARC
  5
765F
  8
0
 10
670.2386694917811383
 20
39.2537369831622129
 30
0.0
 40
0.0566325191094702
 50
359.7296054712630848
 51
41.0348629753012517
  0
ARC
  5
7660
  8
0
 10
670.2431572248272005
 20
39.2576429066420332
 30
0.0
 40
0.0506830665192634
 50
41.0348629753012517
 51
90.7979904674325837
  0
ARC
  5
7661
  8
0
 10
670.2386694917811383
 20
39.0491051319722686
 30
0.0
 40
0.0566325191094635
 50
318.9651370246975262
 51
359.7296054712655859
  0
ARC
  5
7662
  8
0
 10
670.2424876637528541
 20
39.0461032643929471
 30
0.0
 40
0.0517822195544298
 50
269.9598265020632084
 51
318.6969709319133131
  0
LINE
  5
7663
  8
0
 10
670.1846715585445509
 20
39.2333210575672382
 30
0.0
 11
670.1775214669446541
 21
39.2333210575672382
 31
0.0
  0
LINE
  5
7664
  8
0
 10
670.1846715585445509
 20
39.0693210575672509
 30
0.0
 11
670.1775214669446541
 21
39.0693210575672509
 31
0.0
  0
LINE
  5
7665
  8
0
 10
668.7528852337446779
 20
39.2113210575672397
 30
0.0
 11
668.7528852337446779
 21
39.0913264463672405
 31
0.0
  0
LINE
  5
7666
  8
0
 10
668.7528852337446779
 20
39.0913264463672405
 30
0.0
 11
668.7733159057446528
 21
39.0729426610672377
 31
0.0
  0
LINE
  5
7667
  8
0
 10
668.7733159057446528
 20
39.0729426610672377
 30
0.0
 11
668.7820269342446409
 21
39.0874942359672417
 31
0.0
  0
LINE
  5
7668
  8
0
 10
668.788485209044552
 20
39.2333210575672382
 30
0.0
 11
668.7814284259445685
 21
39.2333210575672382
 31
0.0
  0
LINE
  5
7669
  8
0
 10
668.7814284259445685
 20
39.2333210575672382
 30
0.0
 11
668.770612518344592
 21
39.2151965985672533
 31
0.0
  0
LINE
  5
766A
  8
0
 10
668.7630317981446524
 20
39.2204491773672501
 30
0.0
 11
668.7663361676189879
 21
39.2153046945281432
 31
0.0
  0
LINE
  5
766B
  8
0
 10
668.7630317981446524
 20
39.2204491773672501
 30
0.0
 11
668.7528852337446779
 21
39.2113210575672397
 31
0.0
  0
ARC
  5
766C
  8
0
 10
668.7841195586546519
 20
39.0858948288871915
 30
0.0
 40
0.002633852677953
 50
25.6987138560208415
 51
142.6090742901778015
  0
ARC
  5
766D
  8
0
 10
668.7868890120226979
 20
39.0874934720267788
 30
0.0
 40
0.0006044073418203
 50
229.0506365250591045
 51
335.5711167374821002
  0
ARC
  5
766E
  8
0
 10
668.7744588305416755
 20
39.0931396096962587
 30
0.0
 40
0.0142568167348661
 50
335.5711167375332025
 51
349.6844967195200979
  0
ARC
  5
766F
  8
0
 10
668.7685124263020953
 20
39.2167572489480989
 30
0.0
 40
0.0026164892887969
 50
213.7213206070732099
 51
323.3826944151028897
  0
LINE
  5
7670
  8
0
 10
668.9219892372045706
 20
39.215760719674968
 30
0.0
 11
668.9134852090446657
 21
39.2311410436192105
 31
0.0
  0
ARC
  5
7671
  8
0
 10
668.9247553520746123
 20
39.2173314263770294
 30
0.0
 40
0.0031809607067848
 50
209.5895812810435928
 51
330.4104187189030881
  0
LINE
  5
7672
  8
0
 10
668.9275214669446541
 20
39.0693210575672509
 30
0.0
 11
668.9218035957946995
 21
39.0693210575672509
 31
0.0
  0
LINE
  5
7673
  8
0
 10
668.9218035957946995
 20
39.0693210575672509
 30
0.0
 11
668.9134852090446657
 21
39.083660805353297
 31
0.0
  0
LINE
  5
7674
  8
0
 10
668.7815535694729761
 20
39.2332802772700191
 30
0.0
 11
668.788485209044552
 21
39.1872247502589204
 31
0.0
  0
LINE
  5
7675
  8
0
 10
668.7871837809686895
 20
39.2333210575672382
 30
0.0
 11
668.788485209044552
 21
39.2308125818637734
 31
0.0
  0
LINE
  5
7676
  8
0
 10
668.7733159057446528
 20
39.0729426610672377
 30
0.0
 11
668.7630317981446524
 21
39.2204491773672501
 31
0.0
  0
LINE
  5
7677
  8
0
 10
668.770612518344592
 20
39.2151965985672533
 30
0.0
 11
668.7864928884190476
 21
39.087036969753548
 31
0.0
  0
LINE
  5
7678
  8
0
 10
668.7820269342446409
 20
39.0874942359672417
 30
0.0
 11
668.7663361676189879
 21
39.2153046945281432
 31
0.0
  0
LINE
  5
7679
  8
0
 10
668.9219892372045706
 20
39.215760719674968
 30
0.0
 11
668.9275214669446541
 21
39.1896098548931775
 31
0.0
  0
LINE
  5
767A
  8
0
 10
668.9134852090446657
 20
39.2304595749184983
 30
0.0
 11
668.9275214669446541
 21
39.0693210575672509
 31
0.0
  0
LINE
  5
767B
  8
0
 10
668.9218035957946995
 20
39.0693210575672509
 30
0.0
 11
668.9134852090446657
 21
39.1593727616687275
 31
0.0
  0
ENDSEC
  0
EOF
