  0
SECTION
  2
HEADER
  9
$ACADVER
  1
AC1009
  9
$INSBASE
 10
4336.851192959286891
 20
590.3831417230992429
 30
0.0
  9
$EXTMIN
 10
4320.7573407510790275
 20
585.571188580508192
 30
-0.0000000349181948
  9
$EXTMAX
 10
4336.9701846449488585
 20
591.909830854605957
 30
0.0000000814935746
  9
$LIMMIN
 10
0.0
 20
0.0
  9
$LIMMAX
 10
11.6929133858000007
 20
8.2677165353999982
  9
$ORTHOMODE
 70
     0
  9
$REGENMODE
 70
     1
  9
$FILLMODE
 70
     1
  9
$QTEXTMODE
 70
     0
  9
$MIRRTEXT
 70
     0
  9
$DRAGMODE
 70
     2
  9
$LTSCALE
 40
0.6431102362
  9
$OSMODE
 70
    19
  9
$ATTMODE
 70
     1
  9
$TEXTSIZE
 40
0.2
  9
$TRACEWID
 40
0.05
  9
$TEXTSTYLE
  7
STANDARD
  9
$CLAYER
  8
0
  9
$CELTYPE
  6
BYLAYER
  9
$CECOLOR
 62
   256
  9
$DIMSCALE
 40
1.0
  9
$DIMASZ
 40
0.1875
  9
$DIMEXO
 40
0.0625
  9
$DIMDLI
 40
0.4443307087
  9
$DIMRND
 40
0.0
  9
$DIMDLE
 40
0.0
  9
$DIMEXE
 40
0.125
  9
$DIMTP
 40
0.01
  9
$DIMTM
 40
0.01
  9
$DIMTXT
 40
2.0
  9
$DIMCEN
 40
0.1052362205
  9
$DIMTSZ
 40
0.0
  9
$DIMTOL
 70
     1
  9
$DIMLIM
 70
     0
  9
$DIMTIH
 70
     1
  9
$DIMTOH
 70
     1
  9
$DIMSE1
 70
     0
  9
$DIMSE2
 70
     0
  9
$DIMTAD
 70
     0
  9
$DIMZIN
 70
     0
  9
$DIMBLK
  1

  9
$DIMASO
 70
     1
  9
$DIMSHO
 70
     1
  9
$DIMPOST
  1
\X
  9
$DIMAPOST
  1

  9
$DIMALT
 70
     1
  9
$DIMALTD
 70
     2
  9
$DIMALTF
 40
25.3999999999999986
  9
$DIMLFAC
 40
1.0
  9
$DIMTOFL
 70
     0
  9
$DIMTVP
 40
0.0
  9
$DIMTIX
 70
     0
  9
$DIMSOXD
 70
     0
  9
$DIMSAH
 70
     0
  9
$DIMBLK1
  1

  9
$DIMBLK2
  1

  9
$DIMSTYLE
  2
STANDARD
  9
$DIMCLRD
 70
     0
  9
$DIMCLRE
 70
     0
  9
$DIMCLRT
 70
     0
  9
$DIMTFAC
 40
1.0
  9
$DIMGAP
 40
0.09
  9
$LUNITS
 70
     2
  9
$LUPREC
 70
     4
  9
$SKETCHINC
 40
0.1
  9
$FILLETRAD
 40
0.0
  9
$AUNITS
 70
     0
  9
$AUPREC
 70
     0
  9
$MENU
  1
.
  9
$ELEVATION
 40
0.0
  9
$PELEVATION
 40
0.0
  9
$THICKNESS
 40
0.0
  9
$LIMCHECK
 70
     0
  9
$BLIPMODE
 70
     0
  9
$CHAMFERA
 40
0.0
  9
$CHAMFERB
 40
0.0
  9
$SKPOLY
 70
     0
  9
$TDCREATE
 40
2458060.468368056230247
  9
$TDUPDATE
 40
2459695.4905092590488493
  9
$TDINDWG
 40
4.6580741897999998
  9
$TDUSRTIMER
 40
4.6580741897999998
  9
$USRTIMER
 70
     1
  9
$ANGBASE
 50
0.0
  9
$ANGDIR
 70
     0
  9
$PDMODE
 70
     0
  9
$PDSIZE
 40
0.3125
  9
$PLINEWID
 40
0.0
  9
$COORDS
 70
     1
  9
$SPLFRAME
 70
     0
  9
$SPLINETYPE
 70
     6
  9
$SPLINESEGS
 70
     8
  9
$ATTDIA
 70
     1
  9
$ATTREQ
 70
     1
  9
$HANDLING
 70
     1
  9
$HANDSEED
  5
248D1
  9
$SURFTAB1
 70
     6
  9
$SURFTAB2
 70
     6
  9
$SURFTYPE
 70
     6
  9
$SURFU
 70
     6
  9
$SURFV
 70
     6
  9
$UCSNAME
  2

  9
$UCSORG
 10
0.0
 20
0.0
 30
0.0
  9
$UCSXDIR
 10
1.0
 20
0.0
 30
0.0
  9
$UCSYDIR
 10
0.0
 20
1.0
 30
0.0
  9
$PUCSNAME
  2

  9
$PUCSORG
 10
0.0
 20
0.0
 30
0.0
  9
$PUCSXDIR
 10
1.0
 20
0.0
 30
0.0
  9
$PUCSYDIR
 10
0.0
 20
1.0
 30
0.0
  9
$USERI1
 70
     0
  9
$USERI2
 70
     0
  9
$USERI3
 70
     0
  9
$USERI4
 70
     0
  9
$USERI5
 70
     0
  9
$USERR1
 40
0.0
  9
$USERR2
 40
0.0
  9
$USERR3
 40
0.0
  9
$USERR4
 40
0.0
  9
$USERR5
 40
0.0
  9
$WORLDVIEW
 70
     1
  9
$SHADEDGE
 70
     3
  9
$SHADEDIF
 70
    70
  9
$TILEMODE
 70
     1
  9
$MAXACTVP
 70
    64
  9
$PLIMCHECK
 70
     0
  9
$PEXTMIN
 10
1.0000000000000000E+20
 20
1.0000000000000000E+20
 30
1.0000000000000000E+20
  9
$PEXTMAX
 10
-1.0000000000000000E+20
 20
-1.0000000000000000E+20
 30
-1.0000000000000000E+20
  9
$PLIMMIN
 10
0.0
 20
0.0
  9
$PLIMMAX
 10
12.0
 20
9.0
  9
$UNITMODE
 70
     0
  9
$VISRETAIN
 70
     1
  9
$PLINEGEN
 70
     0
  9
$PSLTSCALE
 70
     1
  0
ENDSEC
  0
SECTION
  2
TABLES
  0
TABLE
  2
VPORT
 70
     1
  0
VPORT
  2
*ACTIVE
 70
     0
 10
0.0
 20
0.0
 11
1.0
 21
1.0
 12
92.4323662136393835
 22
-9.9881011957261272
 13
0.0
 23
0.0
 14
1.0
 24
1.0
 15
0.0
 25
0.0
 16
0.0
 26
0.0
 36
98.7941898181710343
 17
4236.431396484375
 27
598.728610913283319
 37
0.0
 40
9.6309237166337223
 41
1.689655172413792
 42
50.0
 43
0.0
 44
0.0
 50
0.0
 51
0.0
 71
     0
 72
   100
 73
     1
 74
     1
 75
     0
 76
     0
 77
     0
 78
     0
  0
ENDTAB
  0
TABLE
  2
LTYPE
 70
     2
  0
LTYPE
  2
CONTINUOUS
 70
     0
  3
Solid line
 72
    65
 73
     0
 40
0.0
  0
LTYPE
  2
PHANTOM2
 70
     0
  3
___ _ _ ___ _ _ ___ _ _ ___ _ _
 72
    65
 73
     6
 40
1.25
 49
0.625
 49
-0.125
 49
0.125
 49
-0.125
 49
0.125
 49
-0.125
  0
ENDTAB
  0
TABLE
  2
LAYER
 70
     2
  0
LAYER
  2
0
 70
     0
 62
   255
  6
CONTINUOUS
  0
LAYER
  2
DEFPOINTS
 70
     0
 62
     7
  6
CONTINUOUS
  0
ENDTAB
  0
TABLE
  2
STYLE
 70
     1
  0
STYLE
  2
STANDARD
 70
     0
 40
0.0
 41
0.8
 50
0.0
 71
     0
 42
0.2
  3
txt
  4

  0
ENDTAB
  0
TABLE
  2
VIEW
 70
     0
  0
ENDTAB
  0
TABLE
  2
UCS
 70
     0
  0
ENDTAB
  0
TABLE
  2
APPID
 70
    10
  0
APPID
  2
ACAD
 70
     0
  0
APPID
  2
ACAD_MLEADERVER
 70
     0
  0
APPID
  2
ACAD_EXEMPT_FROM_CAD_STANDARDS
 70
     0
  0
APPID
  2
ACAD_NAV_VCDISPLAY
 70
     0
  0
APPID
  2
ACAECLAYERSTANDARD
 70
     0
  0
APPID
  2
ACCMTRANSPARENCY
 70
     0
  0
APPID
  2
ACAD_DSTYLE_DIMJAG
 70
     0
  0
APPID
  2
ACAD_DSTYLE_DIMTALN
 70
     0
  0
APPID
  2
ACDBATTR
 70
     0
  0
APPID
  2
DCO15
 70
     0
  0
ENDTAB
  0
TABLE
  2
DIMSTYLE
 70
     1
  0
DIMSTYLE
  2
STANDARD
 70
     0
  3

  4

  5

  6

  7

 40
1.0
 41
0.1875
 42
0.0625
 43
0.38
 44
0.125
 45
0.0
 46
0.0
 47
0.01
 48
0.01
140
0.15625
141
0.09
142
0.0
143
25.3999999999999986
144
1.0
145
0.0
146
1.0
147
0.09
 71
     1
 72
     0
 73
     1
 74
     1
 75
     0
 76
     0
 77
     0
 78
     4
170
     0
171
     2
172
     0
173
     0
174
     0
175
     0
176
     0
177
     0
178
     0
  0
ENDTAB
  0
ENDSEC
  0
SECTION
  2
BLOCKS
  0
BLOCK
  8
0
  2
$MODEL_SPACE
 70
     0
 10
0.0
 20
0.0
 30
0.0
  3
$MODEL_SPACE
  1

  0
ENDBLK
  5
21
  8
0
  0
BLOCK
 67
     1
  8
0
  2
$PAPER_SPACE
 70
     0
 10
0.0
 20
0.0
 30
0.0
  3
$PAPER_SPACE
  1

  0
ENDBLK
  5
1D
 67
     1
  8
0
  0
ENDSEC
  0
SECTION
  2
ENTITIES
  0
ATTDEF
  5
3930
  8
DEFPOINTS
 10
4336.8513459377836625
 20
590.3866145861692303
 30
0.0
 40
0.001
  1
P21641-00
  3

  2
MODELNUMBER
 70
     0
1001
ACDBATTR
1070
     0
1070
     1
  0
ATTDEF
  5
3931
  8
DEFPOINTS
 10
4336.8513459377836625
 20
590.3849479195025651
 30
0.0
 40
0.001
  1

  3

  2
TRADENAME
 70
     0
1001
ACDBATTR
1070
     0
1070
     1
  0
ATTDEF
  5
3932
  8
DEFPOINTS
 10
4336.8513459377836625
 20
590.3832812528357863
 30
0.0
 40
0.001
  1
P-TRAP
  3

  2
PRODUCT
 70
     0
1001
ACDBATTR
1070
     0
1070
     1
  0
LINE
  5
247C2
  8
0
 10
4336.851192959286891
 20
591.8931417230992338
 30
0.0
 11
4336.851192959286891
 21
588.873141723099252
 31
0.0
  0
LINE
  5
247C3
  8
0
 10
4336.851192959286891
 20
591.8931417230992338
 30
0.0
 11
4336.7676650364392117
 21
591.8931417230992338
 31
0.0
  0
ARC
  5
247C4
  8
0
 10
4336.7676650364392117
 20
591.6431417222803475
 30
0.0
 40
0.2500000008188592
 50
90.0000000349659501
 51
132.2020367974465955
  0
ARC
  5
247C5
  8
0
 10
4335.2562344502330234
 20
593.3098983442702092
 30
0.0
 40
2.0000000111510641
 50
279.3202358460636106
 51
312.202036797446624
  0
ARC
  5
247C6
  8
0
 10
4335.6011929602009332
 20
591.2080173578010545
 30
0.0
 40
0.1300000017313821
 50
99.3202361182862461
 51
179.9935758934794023
  0
LINE
  5
247C7
  8
0
 10
4335.4711929592858723
 20
591.2080319336364482
 30
0.0
 11
4335.4711929592858723
 21
589.5582515125587406
 31
0.0
  0
LINE
  5
247C8
  8
0
 10
4335.4711929592858723
 20
591.0081417230992429
 30
0.0
 11
4326.351192959286891
 21
591.0081417230992429
 31
0.0
  0
LINE
  5
247C9
  8
0
 10
4335.4711929592858723
 20
589.7581417230992429
 30
0.0
 11
4326.351192959286891
 21
589.7581417230992429
 31
0.0
  0
LINE
  5
247CA
  8
0
 10
4336.851192959286891
 20
588.873141723099252
 30
0.0
 11
4336.7676650364392117
 21
588.873141723099252
 31
0.0
  0
ARC
  5
247CB
  8
0
 10
4336.7676650364392117
 20
589.1231417239181383
 30
0.0
 40
0.2500000008188592
 50
227.7979632025532908
 51
269.9999999650340214
  0
ARC
  5
247CC
  8
0
 10
4335.2562344502330234
 20
587.4563851019281628
 30
0.0
 40
2.0000000111510641
 50
47.7979632025533689
 51
80.6797641539363894
  0
ARC
  5
247CD
  8
0
 10
4335.6011929602009332
 20
589.5582660883974313
 30
0.0
 40
0.1300000017313821
 50
180.0064241065205124
 51
260.679763881713825
  0
LINE
  5
247CE
  8
0
 10
4323.8811929592857268
 20
587.9721417230991847
 30
0.0
 11
4325.8211929592880551
 21
587.9721417230991847
 31
0.0
  0
LINE
  5
247CF
  8
0
 10
4324.0351929592870874
 20
587.9581417230991747
 30
0.0
 11
4325.667192959285785
 21
587.9581417230991747
 31
0.0
  0
LINE
  5
247D0
  8
0
 10
4324.0351929592870874
 20
587.9581417230991747
 30
0.0
 11
4324.0351929592870874
 21
587.9721417230991847
 31
0.0
  0
LINE
  5
247D1
  8
0
 10
4323.8811929592857268
 20
587.9721417230991847
 30
0.0
 11
4323.8811929592857268
 21
588.2030520696993108
 31
0.0
  0
LINE
  5
247D2
  8
0
 10
4323.8811929592857268
 20
588.2030520696993108
 30
0.0
 11
4324.0538724972866476
 21
588.5021418029991764
 31
0.0
  0
ARC
  5
247D3
  8
0
 10
4324.1058338831180663
 20
588.4721418829085451
 30
0.0
 40
0.0599998401907329
 50
89.9999999988535961
 51
150.0000000050966946
  0
LINE
  5
247D4
  8
0
 10
4324.1058338831189758
 20
588.5321417230992438
 30
0.0
 11
4325.5965520354548062
 21
588.5321417230992438
 31
0.0
  0
LINE
  5
247D5
  8
0
 10
4324.3027500169873747
 20
587.9721417230991847
 30
0.0
 11
4324.3027500169873747
 21
588.2030520696993108
 31
0.0
  0
LINE
  5
247D6
  8
0
 10
4324.3027500169873747
 20
588.2030520696993108
 30
0.0
 11
4324.4325343870868892
 21
588.2030520696993108
 31
0.0
  0
LINE
  5
247D7
  8
0
 10
4324.4325343870868892
 20
588.2030520696993108
 30
0.0
 11
4324.4325343870868892
 21
587.9721417230991847
 31
0.0
  0
LINE
  5
247D8
  8
0
 10
4323.8811929592857268
 20
588.2030520696993108
 30
0.0
 11
4323.8840914448855983
 21
588.2030520696993108
 31
0.0
  0
LINE
  5
247D9
  8
0
 10
4323.8840914448855983
 20
588.2030520696993108
 30
0.0
 11
4323.8840914448855983
 21
587.9721417230991847
 31
0.0
  0
ARC
  5
247DA
  8
0
 10
4324.5133220461520978
 20
587.7869532358174638
 30
0.0
 40
0.7543668796591334
 50
140.2725509032757998
 51
146.5240557887769057
  0
ARC
  5
247DB
  8
0
 10
4324.2497726974852412
 20
588.0059694921319533
 30
0.0
 40
0.41169155269058
 50
126.6068277366886008
 51
140.2725509032757998
  0
ARC
  5
247DC
  8
0
 10
4324.093420731450351
 20
588.2244319340866241
 30
0.0
 40
0.1431649623602439
 50
51.4867651963886601
 51
128.5132348036113115
  0
ARC
  5
247DD
  8
0
 10
4323.8428336259548814
 20
587.9095500901612468
 30
0.0
 40
0.5455882135204329
 50
32.5445440350196264
 51
51.4867651963886601
  0
ARC
  5
247DE
  8
0
 10
4325.0543360315487007
 20
587.3831089597269965
 30
0.0
 40
1.0290500418579569
 50
116.4223439549722059
 51
127.1747629292352002
  0
LINE
  5
247DF
  8
0
 10
4324.226192959286891
 20
588.8831417230992429
 30
0.0
 11
4324.226192959286891
 21
588.5321417230992438
 31
0.0
  0
ARC
  5
247E0
  8
0
 10
4326.351192959286891
 20
588.8831417230992429
 30
0.0
 40
2.125
 50
90.0
 51
180.0
  0
LINE
  5
247E1
  8
0
 10
4325.4761929592859815
 20
588.8831417230992429
 30
0.0
 11
4325.4761929592859815
 21
588.5321417230992438
 31
0.0
  0
ARC
  5
247E2
  8
0
 10
4326.351192959286891
 20
588.8831417230992429
 30
0.0
 40
0.8750000000000053
 50
90.0
 51
180.0
  0
LINE
  5
247E3
  8
0
 10
4325.667192959285785
 20
587.9581417230991747
 30
0.0
 11
4325.667192959285785
 21
587.9721417230991847
 31
0.0
  0
LINE
  5
247E4
  8
0
 10
4325.8211929592880551
 20
587.9721417230991847
 30
0.0
 11
4325.8211929592880551
 21
588.2030520696993108
 31
0.0
  0
LINE
  5
247E5
  8
0
 10
4325.8211929592880551
 20
588.2030520696993108
 30
0.0
 11
4325.6485134212871344
 21
588.5021418029991764
 31
0.0
  0
ARC
  5
247E6
  8
0
 10
4325.5965520354548062
 20
588.4721418829085451
 30
0.0
 40
0.0599998401907329
 50
29.9999999949033089
 51
90.0000000011464181
  0
LINE
  5
247E7
  8
0
 10
4325.3996359015873168
 20
587.9721417230991847
 30
0.0
 11
4325.3996359015873168
 21
588.2030520696993108
 31
0.0
  0
LINE
  5
247E8
  8
0
 10
4325.3996359015873168
 20
588.2030520696993108
 30
0.0
 11
4325.2698515314859833
 21
588.2030520696993108
 31
0.0
  0
LINE
  5
247E9
  8
0
 10
4325.2698515314859833
 20
588.2030520696993108
 30
0.0
 11
4325.2698515314859833
 21
587.9721417230991847
 31
0.0
  0
LINE
  5
247EA
  8
0
 10
4325.8211929592880551
 20
588.2030520696993108
 30
0.0
 11
4325.8182944736872741
 21
588.2030520696993108
 31
0.0
  0
LINE
  5
247EB
  8
0
 10
4325.8182944736872741
 20
588.2030520696993108
 30
0.0
 11
4325.8182944736872741
 21
587.9721417230991847
 31
0.0
  0
ARC
  5
247EC
  8
0
 10
4325.1890638724207747
 20
587.7869532358174638
 30
0.0
 40
0.7543668796591334
 50
33.4759442112230516
 51
39.7274490967241718
  0
ARC
  5
247ED
  8
0
 10
4325.4526132210876312
 20
588.0059694921319533
 30
0.0
 40
0.41169155269058
 50
39.7274490967241718
 51
53.3931722633113708
  0
ARC
  5
247EE
  8
0
 10
4325.608965187123431
 20
588.2244319340866241
 30
0.0
 40
0.1431649623602439
 50
51.4867651963886601
 51
128.5132348036113115
  0
ARC
  5
247EF
  8
0
 10
4325.8595522926189005
 20
587.9095500901612468
 30
0.0
 40
0.5455882135204329
 50
128.5132348036113115
 51
147.4554559649803025
  0
ARC
  5
247F0
  8
0
 10
4324.6480498870241718
 20
587.3831089597269965
 30
0.0
 40
1.0290500418579569
 50
52.8252370707647501
 51
63.5776560450278012
  0
ARC
  5
247F1
  8
0
 10
4324.851192959286891
 20
587.8204577319978625
 30
0.0
 40
0.5471391643779531
 50
62.2485497412820123
 51
117.7514502587179948
  0
ARC
  5
247F2
  8
0
 10
4323.351192959286891
 20
587.9881417230992611
 30
0.0
 40
0.875
 50
180.0
 51
353.6599280595125947
  0
ARC
  5
247F3
  8
0
 10
4324.1611837170557919
 20
587.8981198931682002
 30
0.0
 40
0.06002211757513
 50
353.6832399599716723
 51
89.8226178970292608
  0
LINE
  5
247F4
  8
0
 10
4322.476192959286891
 20
587.9881417230992611
 30
0.0
 11
4322.476192959286891
 21
588.2022229133991686
 31
0.0
  0
ARC
  5
247F5
  8
0
 10
4325.5345297037738419
 20
587.8980137070441288
 30
0.0
 40
0.0601963087452775
 50
92.7294860398420155
 51
177.52506984758719
  0
ARC
  5
247F6
  8
0
 10
4323.351192959286891
 20
587.9881417230992611
 30
0.0
 40
2.125
 50
180.0
 51
252.4610702531743129
  0
ARC
  5
247F7
  8
0
 10
4323.351192959286891
 20
587.9881417230992611
 30
0.0
 40
2.125
 50
287.5389297468257155
 51
357.6393229294968137
  0
LINE
  5
247F8
  8
0
 10
4321.226192959286891
 20
587.9881417230992611
 30
0.0
 11
4321.226192959286891
 21
588.2022229133991686
 31
0.0
  0
ARC
  5
247F9
  8
0
 10
4322.601192959286891
 20
588.2022229133991686
 30
0.0
 40
0.125
 50
141.9989992400082031
 51
180.0
  0
ARC
  5
247FA
  8
0
 10
4322.4041929596642149
 20
588.3561417230362167
 30
0.0
 40
0.124999999623104
 50
321.9989991804549732
 51
0.0000000289081378
  0
LINE
  5
247FB
  8
0
 10
4322.5291929592867746
 20
588.3561417230993129
 30
0.0
 11
4322.5291929592867746
 21
589.9147880041992948
 31
0.0
  0
LINE
  5
247FC
  8
0
 10
4322.5026929592222587
 20
588.2791823181992186
 30
0.0
 11
4321.1996929593533423
 21
588.2791823181992186
 31
0.0
  0
ARC
  5
247FD
  8
0
 10
4322.6541929592858651
 20
589.9147880041992948
 30
0.0
 40
0.1250000000000027
 50
139.2004335516076026
 51
180.0
  0
LINE
  5
247FE
  8
0
 10
4322.5595679592870511
 20
589.9964648636821494
 30
0.0
 11
4322.5642655132605796
 21
590.0021417230991574
 31
0.0
  0
LINE
  5
247FF
  8
0
 10
4320.8811929592857268
 20
590.0021417230991574
 30
0.0
 11
4322.8211929592871456
 21
590.0021417230991574
 31
0.0
  0
LINE
  5
24800
  8
0
 10
4320.8811929592857268
 20
590.0021417230991574
 30
0.0
 11
4320.8811929592857268
 21
590.2330520696992835
 31
0.0
  0
LINE
  5
24801
  8
0
 10
4320.8811929592857268
 20
590.2330520696992835
 30
0.0
 11
4321.0538724972857381
 21
590.5321418029991491
 31
0.0
  0
ARC
  5
24802
  8
0
 10
4321.1058338831180663
 20
590.5021418829085178
 30
0.0
 40
0.0599998401907329
 50
89.9999999988535961
 51
150.0000000050966946
  0
LINE
  5
24803
  8
0
 10
4321.1058338831189758
 20
590.5621417230991028
 30
0.0
 11
4322.5965520354548062
 21
590.5621417230991028
 31
0.0
  0
LINE
  5
24804
  8
0
 10
4321.3027500169873747
 20
590.0021417230991574
 30
0.0
 11
4321.3027500169873747
 21
590.2330520696992835
 31
0.0
  0
LINE
  5
24805
  8
0
 10
4321.3027500169873747
 20
590.2330520696992835
 30
0.0
 11
4321.4325343870868892
 21
590.2330520696992835
 31
0.0
  0
LINE
  5
24806
  8
0
 10
4321.4325343870868892
 20
590.2330520696992835
 30
0.0
 11
4321.4325343870868892
 21
590.0021417230991574
 31
0.0
  0
LINE
  5
24807
  8
0
 10
4320.8811929592857268
 20
590.2330520696992835
 30
0.0
 11
4320.8840914448855983
 21
590.2330520696992835
 31
0.0
  0
LINE
  5
24808
  8
0
 10
4320.8840914448855983
 20
590.2330520696992835
 30
0.0
 11
4320.8840914448855983
 21
590.0021417230991574
 31
0.0
  0
ARC
  5
24809
  8
0
 10
4321.5133220461520978
 20
589.8169532358175502
 30
0.0
 40
0.7543668796591334
 50
140.2725509032757998
 51
146.5240557887769057
  0
ARC
  5
2480A
  8
0
 10
4321.2497726974852412
 20
590.0359694921320397
 30
0.0
 40
0.41169155269058
 50
126.6068277366886008
 51
140.2725509032757998
  0
ARC
  5
2480B
  8
0
 10
4321.0934207314494415
 20
590.2544319340865968
 30
0.0
 40
0.1431649623602439
 50
51.4867651963886601
 51
128.5132348036113115
  0
ARC
  5
2480C
  8
0
 10
4320.8428336259548814
 20
589.9395500901611058
 30
0.0
 40
0.5455882135204329
 50
32.5445440350196264
 51
51.4867651963886601
  0
ARC
  5
2480D
  8
0
 10
4322.0543360315487007
 20
589.4131089597269693
 30
0.0
 40
1.0290500418579569
 50
116.4223439549722059
 51
127.1747629292352002
  0
LINE
  5
2480E
  8
0
 10
4322.8211929592871456
 20
590.0021417230991574
 30
0.0
 11
4322.8211929592871456
 21
590.2330520696992835
 31
0.0
  0
LINE
  5
2480F
  8
0
 10
4322.8211929592871456
 20
590.2330520696992835
 30
0.0
 11
4322.6485134212871344
 21
590.5321418029991491
 31
0.0
  0
ARC
  5
24810
  8
0
 10
4322.5965520354548062
 20
590.5021418829085178
 30
0.0
 40
0.0599998401907329
 50
29.9999999949033089
 51
90.0000000011464181
  0
LINE
  5
24811
  8
0
 10
4322.3996359015873168
 20
590.0021417230991574
 30
0.0
 11
4322.3996359015873168
 21
590.2330520696992835
 31
0.0
  0
LINE
  5
24812
  8
0
 10
4322.3996359015873168
 20
590.2330520696992835
 30
0.0
 11
4322.2698515314859833
 21
590.2330520696992835
 31
0.0
  0
LINE
  5
24813
  8
0
 10
4322.2698515314859833
 20
590.2330520696992835
 30
0.0
 11
4322.2698515314859833
 21
590.0021417230991574
 31
0.0
  0
LINE
  5
24814
  8
0
 10
4322.8211929592871456
 20
590.2330520696992835
 30
0.0
 11
4322.8182944736872741
 21
590.2330520696992835
 31
0.0
  0
LINE
  5
24815
  8
0
 10
4322.8182944736872741
 20
590.2330520696992835
 30
0.0
 11
4322.8182944736872741
 21
590.0021417230991574
 31
0.0
  0
ARC
  5
24816
  8
0
 10
4322.1890638724207747
 20
589.8169532358175502
 30
0.0
 40
0.7543668796591334
 50
33.4759442112230516
 51
39.7274490967241718
  0
ARC
  5
24817
  8
0
 10
4322.4526132210876312
 20
590.0359694921320397
 30
0.0
 40
0.41169155269058
 50
39.7274490967241718
 51
53.3931722633113708
  0
ARC
  5
24818
  8
0
 10
4322.608965187123431
 20
590.2544319340865968
 30
0.0
 40
0.1431649623602439
 50
51.4867651963886601
 51
128.5132348036113115
  0
ARC
  5
24819
  8
0
 10
4322.859552292617991
 20
589.9395500901611058
 30
0.0
 40
0.5455882135204329
 50
128.5132348036113115
 51
147.4554559649803025
  0
ARC
  5
2481A
  8
0
 10
4321.6480498870241718
 20
589.4131089597269693
 30
0.0
 40
1.0290500418579569
 50
52.8252370707647501
 51
63.5776560450278012
  0
ARC
  5
2481B
  8
0
 10
4321.851192959286891
 20
589.8504577319979489
 30
0.0
 40
0.5471391643779531
 50
62.2485497412820123
 51
117.7514502587179948
  0
ARC
  5
2481C
  8
0
 10
4321.101192959286891
 20
588.2022229133991686
 30
0.0
 40
0.125
 50
0.0
 51
38.0010007599918183
  0
ARC
  5
2481D
  8
0
 10
4321.2981929589095671
 20
588.3561417230362167
 30
0.0
 40
0.124999999623104
 50
179.9999999710917962
 51
218.0010008195449984
  0
LINE
  5
2481E
  8
0
 10
4321.1731929592870074
 20
588.3561417230993129
 30
0.0
 11
4321.1731929592870074
 21
589.9147880041992948
 31
0.0
  0
ARC
  5
2481F
  8
0
 10
4321.0481929592870074
 20
589.9147880041992948
 30
0.0
 40
0.1250000000000027
 50
0.0
 51
40.7995664483923903
  0
LINE
  5
24820
  8
0
 10
4321.1428179592867309
 20
589.9964648636821494
 30
0.0
 11
4321.1381204053122929
 21
590.0021417230991574
 31
0.0
  0
LINE
  5
24821
  8
0
 10
4322.7761929592870729
 20
585.8723912652992567
 30
0.0
 11
4322.7761929592870729
 21
585.7981417230992065
 31
0.0
  0
LINE
  5
24822
  8
0
 10
4322.7761929592870729
 20
585.7981417230992065
 30
0.0
 11
4323.9261929592857996
 21
585.7981417230992065
 31
0.0
  0
LINE
  5
24823
  8
0
 10
4322.781192959287182
 20
585.7981417230992065
 30
0.0
 11
4322.781192959287182
 21
585.748141723099252
 31
0.0
  0
LINE
  5
24824
  8
0
 10
4322.781192959287182
 20
585.748141723099252
 30
0.0
 11
4323.9211929592865999
 21
585.748141723099252
 31
0.0
  0
LINE
  5
24825
  8
0
 10
4322.8861929592867455
 20
585.748141723099252
 30
0.0
 11
4322.8861929592867455
 21
585.7131417230991701
 31
0.0
  0
LINE
  5
24826
  8
0
 10
4322.7911929592855813
 20
585.7131417230991701
 30
0.0
 11
4323.9111929592872912
 21
585.7131417230991701
 31
0.0
  0
LINE
  5
24827
  8
0
 10
4323.9111929592872912
 20
585.7131417230991701
 30
0.0
 11
4323.9636929592870729
 21
585.6828308339991054
 31
0.0
  0
LINE
  5
24828
  8
0
 10
4323.9636929592870729
 20
585.6828308339991054
 30
0.0
 11
4323.9636929592870729
 21
585.6284526121992258
 31
0.0
  0
LINE
  5
24829
  8
0
 10
4323.9636929592870729
 20
585.6828308339991054
 30
0.0
 11
4323.959524245286957
 21
585.6828308339991054
 31
0.0
  0
LINE
  5
2482A
  8
0
 10
4323.959524245286957
 20
585.6828308339991054
 30
0.0
 11
4323.959524245286957
 21
585.6284526121992258
 31
0.0
  0
ARC
  5
2482B
  8
0
 10
4323.8383322488871272
 20
585.4428832636965581
 30
0.0
 40
0.2688165480128695
 50
63.2027096796804031
 51
116.797290320319604
  0
LINE
  5
2482C
  8
0
 10
4323.7171402524872974
 20
585.6828308339991054
 30
0.0
 11
4323.7171402524872974
 21
585.6284526122991565
 31
0.0
  0
LINE
  5
2482D
  8
0
 10
4323.7171402524872974
 20
585.6284526122991565
 30
0.0
 11
4323.5935769520856411
 21
585.6284526122991565
 31
0.0
  0
LINE
  5
2482E
  8
0
 10
4323.5935769520856411
 20
585.6284526122991565
 30
0.0
 11
4323.5935769520856411
 21
585.6828308339991054
 31
0.0
  0
LINE
  5
2482F
  8
0
 10
4323.5935769520856411
 20
585.6828308339991054
 30
0.0
 11
4323.7171402524872974
 21
585.6828308339991054
 31
0.0
  0
ARC
  5
24830
  8
0
 10
4323.8383322488871272
 20
585.8684001825017731
 30
0.0
 40
0.2688165480128695
 50
243.202709679680396
 51
296.7972903203195756
  0
LINE
  5
24831
  8
0
 10
4322.7911929592855813
 20
585.598141723099161
 30
0.0
 11
4323.9111929592872912
 21
585.598141723099161
 31
0.0
  0
LINE
  5
24832
  8
0
 10
4323.9111929592872912
 20
585.598141723099161
 30
0.0
 11
4323.9636929592870729
 21
585.6284526121992258
 31
0.0
  0
LINE
  5
24833
  8
0
 10
4323.9636929592870729
 20
585.6284526121992258
 30
0.0
 11
4323.959524245286957
 21
585.6284526121992258
 31
0.0
  0
LINE
  5
24834
  8
0
 10
4323.9211929592865999
 20
585.7981417230992065
 30
0.0
 11
4323.9211929592865999
 21
585.748141723099252
 31
0.0
  0
LINE
  5
24835
  8
0
 10
4323.8161929592870365
 20
585.748141723099252
 30
0.0
 11
4323.8161929592870365
 21
585.7131417230991701
 31
0.0
  0
ARC
  5
24836
  8
0
 10
4322.6821692467838147
 20
585.8723744667140636
 30
0.0
 40
0.0940237140039246
 50
0.0102366518968478
 51
72.2611637535904237
  0
ARC
  5
24837
  8
0
 10
4324.0202166717890577
 20
585.8723744667140636
 30
0.0
 40
0.0940237140039246
 50
107.7388362464096048
 51
179.9897633481031107
  0
LINE
  5
24838
  8
0
 10
4323.9261929592857996
 20
585.8723912652992567
 30
0.0
 11
4323.9261929592857996
 21
585.7981417230992065
 31
0.0
  0
LINE
  5
24839
  8
0
 10
4322.7911929592855813
 20
585.7131417230991701
 30
0.0
 11
4322.7386929592857996
 21
585.6828308339991054
 31
0.0
  0
LINE
  5
2483A
  8
0
 10
4322.7386929592857996
 20
585.6828308339991054
 30
0.0
 11
4322.7386929592857996
 21
585.6284526121992258
 31
0.0
  0
LINE
  5
2483B
  8
0
 10
4322.7386929592857996
 20
585.6828308339991054
 30
0.0
 11
4322.742861673286825
 21
585.6828308339991054
 31
0.0
  0
LINE
  5
2483C
  8
0
 10
4322.742861673286825
 20
585.6828308339991054
 30
0.0
 11
4322.742861673286825
 21
585.6284526121992258
 31
0.0
  0
ARC
  5
2483D
  8
0
 10
4322.8640536696857453
 20
585.4428832636965581
 30
0.0
 40
0.2688165480128695
 50
63.2027096796804031
 51
116.797290320319604
  0
LINE
  5
2483E
  8
0
 10
4322.9852456660855751
 20
585.6828308339991054
 30
0.0
 11
4322.9852456660855751
 21
585.6284526122991565
 31
0.0
  0
LINE
  5
2483F
  8
0
 10
4322.9852456660855751
 20
585.6284526122991565
 30
0.0
 11
4323.1088089664872314
 21
585.6284526122991565
 31
0.0
  0
LINE
  5
24840
  8
0
 10
4323.1088089664872314
 20
585.6284526122991565
 30
0.0
 11
4323.1088089664872314
 21
585.6828308339991054
 31
0.0
  0
LINE
  5
24841
  8
0
 10
4323.1088089664872314
 20
585.6828308339991054
 30
0.0
 11
4322.9852456660855751
 21
585.6828308339991054
 31
0.0
  0
ARC
  5
24842
  8
0
 10
4322.8640536696857453
 20
585.8684001825017731
 30
0.0
 40
0.2688165480128695
 50
243.202709679680396
 51
296.7972903203195756
  0
LINE
  5
24843
  8
0
 10
4322.7911929592855813
 20
585.598141723099161
 30
0.0
 11
4322.7386929592857996
 21
585.6284526121992258
 31
0.0
  0
LINE
  5
24844
  8
0
 10
4322.7386929592857996
 20
585.6284526121992258
 30
0.0
 11
4322.742861673286825
 21
585.6284526121992258
 31
0.0
  0
ARC
  5
24845
  8
0
 10
4323.3511929592359593
 20
584.6797370845249588
 30
0.0
 40
1.031962727148749
 50
76.4156456262788595
 51
103.5843543737210979
  0
ARC
  5
24846
  8
0
 10
4323.351192959286891
 20
586.6315463599240729
 30
0.0
 40
1.0319627253393691
 50
256.4156456048368113
 51
283.5843543951631887
  0
ARC
  5
24847
  8
0
 10
4328.5569012252717584
 20
576.2956814011754432
 30
0.0
 40
11.2965937124639098
 50
119.1556526922415031
 51
121.165284496315806
  0
ARC
  5
24848
  8
0
 10
4323.5733147824612388
 20
585.2150265612284556
 30
0.0
 40
1.079433260711665
 50
107.2277219618721062
 51
118.7945978435145946
  0
ARC
  5
24849
  8
0
 10
4318.1454846933020235
 20
576.2956814011754432
 30
0.0
 40
11.2965937124639098
 50
58.8347155036842224
 51
60.8443473077584898
  0
ARC
  5
2484A
  8
0
 10
4323.1290711361116337
 20
585.2150265612284556
 30
0.0
 40
1.079433260711665
 50
61.2054021564853699
 51
72.7722780381278227
  0
ARC
  5
2484B
  8
0
 10
4323.351192959286891
 20
585.8899478980473532
 30
0.0
 40
0.3692100505198745
 50
74.675933521976674
 51
105.3240664780232976
  0
VIEWPORT
  5
7BC8
 67
     1
  8
0
 10
8.4975296442687753
 20
4.5
 30
0.0
 40
16.9950592885375507
 41
9.0
 68
     1
 69
     1
1001
ACAD
1000
MVIEW
1002
{
1070
    16
1010
0.0
1020
0.0
1030
0.0
1010
0.0
1020
0.0
1030
1.0
1040
0.0
1040
9.0
1040
8.4975296442687753
1040
4.5
1040
50.0
1040
0.0
1040
0.0
1070
     0
1070
   100
1070
     1
1070
     1
1070
     0
1070
     0
1070
     0
1070
     0
1040
0.0
1040
0.0
1040
0.0
1040
1.0
1040
1.0
1040
0.0
1040
0.0
1070
     0
1002
{
1002
}
1002
}
  0
ENDSEC
  0
EOF
