  0
SECTION
  2
HEADER
  9
$ACADVER
  1
AC1009
  9
$INSBASE
 10
4342.1470647632049804
 20
594.4146957565345701
 30
0.0
  9
$EXTMIN
 10
4340.6370647632047621
 20
589.6296957566346464
 30
0.0
  9
$EXTMAX
 10
4343.6570647632051987
 20
595.9246957565344474
 30
0.0
  9
$LIMMIN
 10
0.0
 20
0.0
  9
$LIMMAX
 10
11.6929133858000007
 20
8.2677165353999982
  9
$ORTHOMODE
 70
     0
  9
$REGENMODE
 70
     1
  9
$FILLMODE
 70
     1
  9
$QTEXTMODE
 70
     0
  9
$MIRRTEXT
 70
     0
  9
$DRAGMODE
 70
     2
  9
$LTSCALE
 40
0.6431102362
  9
$OSMODE
 70
    19
  9
$ATTMODE
 70
     1
  9
$TEXTSIZE
 40
0.2
  9
$TRACEWID
 40
0.05
  9
$TEXTSTYLE
  7
STANDARD
  9
$CLAYER
  8
0
  9
$CELTYPE
  6
BYLAYER
  9
$CECOLOR
 62
   256
  9
$DIMSCALE
 40
1.0
  9
$DIMASZ
 40
0.1875
  9
$DIMEXO
 40
0.0625
  9
$DIMDLI
 40
0.4443307087
  9
$DIMRND
 40
0.0
  9
$DIMDLE
 40
0.0
  9
$DIMEXE
 40
0.125
  9
$DIMTP
 40
0.01
  9
$DIMTM
 40
0.01
  9
$DIMTXT
 40
2.0
  9
$DIMCEN
 40
0.1052362205
  9
$DIMTSZ
 40
0.0
  9
$DIMTOL
 70
     1
  9
$DIMLIM
 70
     0
  9
$DIMTIH
 70
     1
  9
$DIMTOH
 70
     1
  9
$DIMSE1
 70
     0
  9
$DIMSE2
 70
     0
  9
$DIMTAD
 70
     0
  9
$DIMZIN
 70
     0
  9
$DIMBLK
  1

  9
$DIMASO
 70
     1
  9
$DIMSHO
 70
     1
  9
$DIMPOST
  1
\X
  9
$DIMAPOST
  1

  9
$DIMALT
 70
     1
  9
$DIMALTD
 70
     2
  9
$DIMALTF
 40
25.3999999999999986
  9
$DIMLFAC
 40
1.0
  9
$DIMTOFL
 70
     0
  9
$DIMTVP
 40
0.0
  9
$DIMTIX
 70
     0
  9
$DIMSOXD
 70
     0
  9
$DIMSAH
 70
     0
  9
$DIMBLK1
  1

  9
$DIMBLK2
  1

  9
$DIMSTYLE
  2
STANDARD
  9
$DIMCLRD
 70
     0
  9
$DIMCLRE
 70
     0
  9
$DIMCLRT
 70
     0
  9
$DIMTFAC
 40
1.0
  9
$DIMGAP
 40
0.09
  9
$LUNITS
 70
     2
  9
$LUPREC
 70
     4
  9
$SKETCHINC
 40
0.1
  9
$FILLETRAD
 40
0.0
  9
$AUNITS
 70
     0
  9
$AUPREC
 70
     0
  9
$MENU
  1
.
  9
$ELEVATION
 40
0.0
  9
$PELEVATION
 40
0.0
  9
$THICKNESS
 40
0.0
  9
$LIMCHECK
 70
     0
  9
$BLIPMODE
 70
     0
  9
$CHAMFERA
 40
0.0
  9
$CHAMFERB
 40
0.0
  9
$SKPOLY
 70
     0
  9
$TDCREATE
 40
2458060.468368056230247
  9
$TDUPDATE
 40
2459695.4906250000931323
  9
$TDINDWG
 40
4.6566505786999999
  9
$TDUSRTIMER
 40
4.6566505786999999
  9
$USRTIMER
 70
     1
  9
$ANGBASE
 50
0.0
  9
$ANGDIR
 70
     0
  9
$PDMODE
 70
     0
  9
$PDSIZE
 40
0.3125
  9
$PLINEWID
 40
0.0
  9
$COORDS
 70
     1
  9
$SPLFRAME
 70
     0
  9
$SPLINETYPE
 70
     6
  9
$SPLINESEGS
 70
     8
  9
$ATTDIA
 70
     1
  9
$ATTREQ
 70
     1
  9
$HANDLING
 70
     1
  9
$HANDSEED
  5
24653
  9
$SURFTAB1
 70
     6
  9
$SURFTAB2
 70
     6
  9
$SURFTYPE
 70
     6
  9
$SURFU
 70
     6
  9
$SURFV
 70
     6
  9
$UCSNAME
  2

  9
$UCSORG
 10
0.0
 20
0.0
 30
0.0
  9
$UCSXDIR
 10
1.0
 20
0.0
 30
0.0
  9
$UCSYDIR
 10
0.0
 20
1.0
 30
0.0
  9
$PUCSNAME
  2

  9
$PUCSORG
 10
0.0
 20
0.0
 30
0.0
  9
$PUCSXDIR
 10
1.0
 20
0.0
 30
0.0
  9
$PUCSYDIR
 10
0.0
 20
1.0
 30
0.0
  9
$USERI1
 70
     0
  9
$USERI2
 70
     0
  9
$USERI3
 70
     0
  9
$USERI4
 70
     0
  9
$USERI5
 70
     0
  9
$USERR1
 40
0.0
  9
$USERR2
 40
0.0
  9
$USERR3
 40
0.0
  9
$USERR4
 40
0.0
  9
$USERR5
 40
0.0
  9
$WORLDVIEW
 70
     1
  9
$SHADEDGE
 70
     3
  9
$SHADEDIF
 70
    70
  9
$TILEMODE
 70
     1
  9
$MAXACTVP
 70
    64
  9
$PLIMCHECK
 70
     0
  9
$PEXTMIN
 10
1.0000000000000000E+20
 20
1.0000000000000000E+20
 30
1.0000000000000000E+20
  9
$PEXTMAX
 10
-1.0000000000000000E+20
 20
-1.0000000000000000E+20
 30
-1.0000000000000000E+20
  9
$PLIMMIN
 10
0.0
 20
0.0
  9
$PLIMMAX
 10
12.0
 20
9.0
  9
$UNITMODE
 70
     0
  9
$VISRETAIN
 70
     1
  9
$PLINEGEN
 70
     0
  9
$PSLTSCALE
 70
     1
  0
ENDSEC
  0
SECTION
  2
TABLES
  0
TABLE
  2
VPORT
 70
     1
  0
VPORT
  2
*ACTIVE
 70
     0
 10
0.0
 20
0.0
 11
1.0
 21
1.0
 12
105.7156682788299946
 22
-5.9514151566987152
 13
0.0
 23
0.0
 14
1.0
 24
1.0
 15
0.0
 25
0.0
 16
0.0
 26
0.0
 36
98.7941898181710343
 17
4236.431396484375
 27
598.728610913283319
 37
0.0
 40
6.3344258871644241
 41
1.6896551724137929
 42
50.0
 43
0.0
 44
0.0
 50
0.0
 51
0.0
 71
     0
 72
   100
 73
     1
 74
     1
 75
     0
 76
     0
 77
     0
 78
     0
  0
ENDTAB
  0
TABLE
  2
LTYPE
 70
     2
  0
LTYPE
  2
CONTINUOUS
 70
     0
  3
Solid line
 72
    65
 73
     0
 40
0.0
  0
LTYPE
  2
PHANTOM2
 70
     0
  3
___ _ _ ___ _ _ ___ _ _ ___ _ _
 72
    65
 73
     6
 40
1.25
 49
0.625
 49
-0.125
 49
0.125
 49
-0.125
 49
0.125
 49
-0.125
  0
ENDTAB
  0
TABLE
  2
LAYER
 70
     2
  0
LAYER
  2
0
 70
     0
 62
   255
  6
CONTINUOUS
  0
LAYER
  2
DEFPOINTS
 70
     0
 62
     7
  6
CONTINUOUS
  0
ENDTAB
  0
TABLE
  2
STYLE
 70
     1
  0
STYLE
  2
STANDARD
 70
     0
 40
0.0
 41
0.8
 50
0.0
 71
     0
 42
0.2
  3
txt
  4

  0
ENDTAB
  0
TABLE
  2
VIEW
 70
     0
  0
ENDTAB
  0
TABLE
  2
UCS
 70
     0
  0
ENDTAB
  0
TABLE
  2
APPID
 70
    10
  0
APPID
  2
ACAD
 70
     0
  0
APPID
  2
ACAD_MLEADERVER
 70
     0
  0
APPID
  2
ACAD_EXEMPT_FROM_CAD_STANDARDS
 70
     0
  0
APPID
  2
ACAD_NAV_VCDISPLAY
 70
     0
  0
APPID
  2
ACAECLAYERSTANDARD
 70
     0
  0
APPID
  2
ACCMTRANSPARENCY
 70
     0
  0
APPID
  2
ACAD_DSTYLE_DIMJAG
 70
     0
  0
APPID
  2
ACAD_DSTYLE_DIMTALN
 70
     0
  0
APPID
  2
ACDBATTR
 70
     0
  0
APPID
  2
DCO15
 70
     0
  0
ENDTAB
  0
TABLE
  2
DIMSTYLE
 70
     1
  0
DIMSTYLE
  2
STANDARD
 70
     0
  3

  4

  5

  6

  7

 40
1.0
 41
0.1875
 42
0.0625
 43
0.38
 44
0.125
 45
0.0
 46
0.0
 47
0.01
 48
0.01
140
0.15625
141
0.09
142
0.0
143
25.3999999999999986
144
1.0
145
0.0
146
1.0
147
0.09
 71
     1
 72
     0
 73
     1
 74
     1
 75
     0
 76
     0
 77
     0
 78
     4
170
     0
171
     2
172
     0
173
     0
174
     0
175
     0
176
     0
177
     0
178
     0
  0
ENDTAB
  0
ENDSEC
  0
SECTION
  2
BLOCKS
  0
BLOCK
  8
0
  2
$MODEL_SPACE
 70
     0
 10
0.0
 20
0.0
 30
0.0
  3
$MODEL_SPACE
  1

  0
ENDBLK
  5
21
  8
0
  0
BLOCK
 67
     1
  8
0
  2
$PAPER_SPACE
 70
     0
 10
0.0
 20
0.0
 30
0.0
  3
$PAPER_SPACE
  1

  0
ENDBLK
  5
1D
 67
     1
  8
0
  0
ENDSEC
  0
SECTION
  2
ENTITIES
  0
ATTDEF
  5
3930
  8
DEFPOINTS
 10
4342.1472177417026614
 20
594.4181686196044438
 30
0.0
 40
0.001
  1
P21641-00
  3

  2
MODELNUMBER
 70
     0
1001
ACDBATTR
1070
     0
1070
     1
  0
ATTDEF
  5
3931
  8
DEFPOINTS
 10
4342.1472177417026614
 20
594.4165019529377787
 30
0.0
 40
0.001
  1

  3

  2
TRADENAME
 70
     0
1001
ACDBATTR
1070
     0
1070
     1
  0
ATTDEF
  5
3932
  8
DEFPOINTS
 10
4342.1472177417026614
 20
594.4148352862712272
 30
0.0
 40
0.001
  1
P-TRAP
  3

  2
PRODUCT
 70
     0
1001
ACDBATTR
1070
     0
1070
     1
  0
ARC
  5
24523
  8
0
 10
4342.1470647632049804
 20
594.4146957565345701
 30
0.0
 40
1.5099999999999989
 50
296.6799677275972158
 51
243.3200322724028979
  0
LINE
  5
24524
  8
0
 10
4341.5220647632040709
 20
592.2337769468346096
 30
0.0
 11
4341.5220647632040709
 21
590.5196957565345883
 31
0.0
  0
ARC
  5
24525
  8
0
 10
4342.8970647632049804
 20
592.2337769468346096
 30
0.0
 40
0.125
 50
141.9989992400082031
 51
180.0
  0
ARC
  5
24526
  8
0
 10
4342.7000647635823043
 20
592.387695756471544
 30
0.0
 40
0.124999999623104
 50
321.9989991804549732
 51
0.0000000289081378
  0
LINE
  5
24527
  8
0
 10
4342.8250647632039545
 20
592.3876957565346402
 30
0.0
 11
4342.8250647632039545
 21
593.9463420376346221
 31
0.0
  0
LINE
  5
24528
  8
0
 10
4342.7985647631403481
 20
592.3107363516345458
 30
0.0
 11
4341.4955647632696127
 21
592.3107363516345458
 31
0.0
  0
ARC
  5
24529
  8
0
 10
4342.9500647632039545
 20
593.9463420376346221
 30
0.0
 40
0.1250000000000027
 50
139.2004335516076026
 51
180.0
  0
LINE
  5
2452A
  8
0
 10
4342.8554397632051405
 20
594.0280188971175903
 30
0.0
 11
4342.860137317178669
 21
594.0336957565345983
 31
0.0
  0
LINE
  5
2452B
  8
0
 10
4341.2720647632049804
 20
594.0336957565345983
 30
0.0
 11
4343.0220647632040709
 21
594.0336957565345983
 31
0.0
  0
LINE
  5
2452C
  8
0
 10
4341.2720647632049804
 20
594.4291509298847132
 30
0.0
 11
4341.349744301204737
 21
594.5636958364344764
 31
0.0
  0
ARC
  5
2452D
  8
0
 10
4341.4017056870361557
 20
594.5336959163438451
 30
0.0
 40
0.0599998401907329
 50
89.9999999988535961
 51
150.0000000051022937
  0
LINE
  5
2452E
  8
0
 10
4341.4017056870370652
 20
594.5936957565345438
 30
0.0
 11
4342.8924238393747146
 21
594.5936957565345438
 31
0.0
  0
LINE
  5
2452F
  8
0
 10
4343.0220647632040709
 20
594.4291509298847132
 30
0.0
 11
4342.9443852252052238
 21
594.5636958364344764
 31
0.0
  0
ARC
  5
24530
  8
0
 10
4342.8924238393747146
 20
594.5336959163438451
 30
0.0
 40
0.0599998401907329
 50
29.9999999948976708
 51
90.0000000011464181
  0
ARC
  5
24531
  8
0
 10
4341.3970647632049804
 20
592.2337769468346096
 30
0.0
 40
0.125
 50
0.0
 51
38.0010007599918183
  0
ARC
  5
24532
  8
0
 10
4341.594064762828566
 20
592.387695756471544
 30
0.0
 40
0.124999999623104
 50
179.9999999710917962
 51
218.0010008195449984
  0
LINE
  5
24533
  8
0
 10
4341.4690647632050968
 20
592.3876957565346402
 30
0.0
 11
4341.4690647632050968
 21
593.9463420376346221
 31
0.0
  0
ARC
  5
24534
  8
0
 10
4341.3440647632041873
 20
593.9463420376346221
 30
0.0
 40
0.1250000000000027
 50
0.0
 51
40.7995664483923903
  0
LINE
  5
24535
  8
0
 10
4341.4386897632048203
 20
594.0280188971175903
 30
0.0
 11
4341.4339922092303823
 21
594.0336957565345983
 31
0.0
  0
LINE
  5
24536
  8
0
 10
4342.7720647632049804
 20
592.2337769468346096
 30
0.0
 11
4342.7720647632049804
 21
590.5196957565345883
 31
0.0
  0
LINE
  5
24537
  8
0
 10
4341.2720647632049804
 20
594.2646061031346107
 30
0.0
 11
4341.3469958042051076
 21
594.2646061031346107
 31
0.0
  0
LINE
  5
24538
  8
0
 10
4342.0721337221057183
 20
594.2646061031346107
 30
0.0
 11
4342.221995804305152
 21
594.2646061031346107
 31
0.0
  0
LINE
  5
24539
  8
0
 10
4342.9471337222057628
 20
594.2646061031346107
 30
0.0
 11
4343.0220647632040709
 21
594.2646061031346107
 31
0.0
  0
LINE
  5
2453A
  8
0
 10
4341.2720647632049804
 20
594.4291509298847132
 30
0.0
 11
4341.2720647632049804
 21
594.0336957565345983
 31
0.0
  0
LINE
  5
2453B
  8
0
 10
4343.0220647632040709
 20
594.4291509298847132
 30
0.0
 11
4343.0220647632040709
 21
594.0336957565345983
 31
0.0
  0
LINE
  5
2453C
  8
0
 10
4341.3469958042051076
 20
594.2646061031346107
 30
0.0
 11
4341.3469958042051076
 21
594.0336957565345983
 31
0.0
  0
LINE
  5
2453D
  8
0
 10
4342.0721337221057183
 20
594.2646061031346107
 30
0.0
 11
4342.0721337221057183
 21
594.0336957565345983
 31
0.0
  0
ARC
  5
2453E
  8
0
 10
4341.9497915425381507
 20
593.5757281703971557
 30
0.0
 40
0.9153772492069006
 50
122.0928490570950942
 51
131.1872227947482941
  0
ARC
  5
2453F
  8
0
 10
4341.7654060408640362
 20
593.8697453563521549
 30
0.0
 40
0.568326649344876
 50
107.4193348521454965
 51
122.0928490570916978
  0
ARC
  5
24540
  8
0
 10
4341.6530209032871426
 20
593.8664223630933066
 30
0.0
 40
0.5717083543494083
 50
55.8544411593822616
 51
72.612958027928201
  0
ARC
  5
24541
  8
0
 10
4341.354667949521172
 20
593.4265107751382402
 30
0.0
 40
1.1032501591382839
 50
49.4342583266236701
 51
55.8544411593822616
  0
ARC
  5
24542
  8
0
 10
4341.709565913230108
 20
594.0395580052385185
 30
0.0
 40
0.3895929245727536
 50
72.9400484719407416
 51
107.0599515280592016
  0
LINE
  5
24543
  8
0
 10
4342.9471337222057628
 20
594.2646061031346107
 30
0.0
 11
4342.9471337222057628
 21
594.0336957565345983
 31
0.0
  0
LINE
  5
24544
  8
0
 10
4342.221995804305152
 20
594.2646061031346107
 30
0.0
 11
4342.221995804305152
 21
594.0336957565345983
 31
0.0
  0
ARC
  5
24545
  8
0
 10
4342.3443379838709006
 20
593.5757281703971557
 30
0.0
 40
0.9153772492069006
 50
48.8127772052516917
 51
57.907150942904849
  0
ARC
  5
24546
  8
0
 10
4342.5287234855450151
 20
593.8697453563521549
 30
0.0
 40
0.568326649344876
 50
57.9071509429083093
 51
72.5806651478544609
  0
ARC
  5
24547
  8
0
 10
4342.6411086231219087
 20
593.8664223630933066
 30
0.0
 40
0.5717083543494083
 50
107.387041972071799
 51
124.1455588406176958
  0
ARC
  5
24548
  8
0
 10
4342.9394615768887888
 20
593.4265107751382402
 30
0.0
 40
1.1032501591382839
 50
124.1455588406176958
 51
130.5657416733762943
  0
ARC
  5
24549
  8
0
 10
4342.5845636131789433
 20
594.0395580052385185
 30
0.0
 40
0.3895929245727536
 50
72.9400484719407416
 51
107.0599515280592016
  0
LINE
  5
2454A
  8
0
 10
4341.2720647632049804
 20
592.0036957565346256
 30
0.0
 11
4341.5220647632040709
 21
592.0036957565346256
 31
0.0
  0
LINE
  5
2454B
  8
0
 10
4342.7720647632049804
 20
592.0036957565346256
 30
0.0
 11
4343.0220647632040709
 21
592.0036957565346256
 31
0.0
  0
LINE
  5
2454C
  8
0
 10
4341.2720647632049804
 20
592.3991509298847404
 30
0.0
 11
4341.349744301204737
 21
592.5336958364346174
 31
0.0
  0
ARC
  5
2454D
  8
0
 10
4341.4017056870361557
 20
592.5036959163437587
 30
0.0
 40
0.0599998401907329
 50
89.9999999988535961
 51
150.0000000051022937
  0
LINE
  5
2454E
  8
0
 10
4341.4017056870370652
 20
592.563695756534571
 30
0.0
 11
4341.4690647632050968
 21
592.563695756534571
 31
0.0
  0
LINE
  5
2454F
  8
0
 10
4342.8250647632039545
 20
592.563695756534571
 30
0.0
 11
4342.8924238393747146
 21
592.563695756534571
 31
0.0
  0
LINE
  5
24550
  8
0
 10
4343.0220647632040709
 20
592.3991509298847404
 30
0.0
 11
4342.9443852252052238
 21
592.5336958364346174
 31
0.0
  0
ARC
  5
24551
  8
0
 10
4342.8924238393747146
 20
592.5036959163437587
 30
0.0
 40
0.0599998401907329
 50
29.9999999948976708
 51
90.0000000011464181
  0
LINE
  5
24552
  8
0
 10
4341.2720647632049804
 20
592.234606103134638
 30
0.0
 11
4341.3469958042051076
 21
592.234606103134638
 31
0.0
  0
LINE
  5
24553
  8
0
 10
4342.9471337222057628
 20
592.234606103134638
 30
0.0
 11
4343.0220647632040709
 21
592.234606103134638
 31
0.0
  0
LINE
  5
24554
  8
0
 10
4341.2720647632049804
 20
592.3991509298847404
 30
0.0
 11
4341.2720647632049804
 21
592.0036957565346256
 31
0.0
  0
LINE
  5
24555
  8
0
 10
4343.0220647632040709
 20
592.3991509298847404
 30
0.0
 11
4343.0220647632040709
 21
592.0036957565346256
 31
0.0
  0
LINE
  5
24556
  8
0
 10
4341.3469958042051076
 20
592.234606103134638
 30
0.0
 11
4341.3469958042051076
 21
592.0036957565346256
 31
0.0
  0
ARC
  5
24557
  8
0
 10
4341.9497915425381507
 20
591.545728170397183
 30
0.0
 40
0.9153772492069006
 50
122.0928490570950942
 51
131.1872227947482941
  0
ARC
  5
24558
  8
0
 10
4341.7654060408640362
 20
591.8397453563520685
 30
0.0
 40
0.568326649344876
 50
119.9139964831399965
 51
122.0928490570916978
  0
LINE
  5
24559
  8
0
 10
4342.9471337222057628
 20
592.234606103134638
 30
0.0
 11
4342.9471337222057628
 21
592.0036957565346256
 31
0.0
  0
ARC
  5
2455A
  8
0
 10
4342.3443379838709006
 20
591.545728170397183
 30
0.0
 40
0.9153772492069006
 50
48.8127772052516917
 51
57.907150942904849
  0
ARC
  5
2455B
  8
0
 10
4342.5287234855450151
 20
591.8397453563520685
 30
0.0
 40
0.568326649344876
 50
57.9071509429083093
 51
60.0860035168599467
  0
LINE
  5
2455C
  8
0
 10
4341.3310647632051769
 20
591.9896957565346156
 30
0.0
 11
4341.5220647632040709
 21
591.9896957565346156
 31
0.0
  0
LINE
  5
2455D
  8
0
 10
4342.7720647632049804
 20
591.9896957565346156
 30
0.0
 11
4342.9630647632056935
 21
591.9896957565346156
 31
0.0
  0
LINE
  5
2455E
  8
0
 10
4341.3310647632051769
 20
591.9896957565346156
 30
0.0
 11
4341.3310647632051769
 21
592.0036957565346256
 31
0.0
  0
LINE
  5
2455F
  8
0
 10
4342.9630647632056935
 20
591.9896957565346156
 30
0.0
 11
4342.9630647632056935
 21
592.0036957565346256
 31
0.0
  0
ARC
  5
24560
  8
0
 10
4342.8343667213712251
 20
591.9271669306004924
 30
0.0
 40
0.0628476492084252
 50
95.7736690671329143
 51
172.4441858871392981
  0
ARC
  5
24561
  8
0
 10
4341.4597628050387357
 20
591.9271669306004924
 30
0.0
 40
0.0628476492084252
 50
7.5558141128607339
 51
84.2263309328670715
  0
ARC
  5
24562
  8
0
 10
4342.1470647632049804
 20
594.4146957565345701
 30
0.0
 40
0.625
 50
16.6425514990258598
 51
163.3574485009741011
  0
ARC
  5
24563
  8
0
 10
4342.1470647632049804
 20
594.4146957565345701
 30
0.0
 40
0.9531594516161344
 50
315.3422977726016825
 51
336.4391209501458206
  0
ARC
  5
24564
  8
0
 10
4342.1470647632049804
 20
594.4146957565345701
 30
0.0
 40
0.9531594516161344
 50
336.635367920172996
 51
203.3646320798270892
  0
ARC
  5
24565
  8
0
 10
4342.1470647632049804
 20
594.4146957565345701
 30
0.0
 40
0.9531594516161344
 50
203.5608790498542078
 51
224.6577022273982038
  0
ARC
  5
24566
  8
0
 10
4342.1470647632049804
 20
594.4146957565345701
 30
0.0
 40
0.6416624138
 50
16.1983163751385106
 51
163.8016836248615107
  0
ARC
  5
24567
  8
0
 10
4342.1470647632049804
 20
590.5196957565345883
 30
0.0
 40
0.6250000000000006
 50
180.0
 51
201.4937598281098019
  0
ARC
  5
24568
  8
0
 10
4341.4761340221130013
 20
590.2558818084246468
 30
0.0
 40
0.0959346079557251
 50
0.514435407039697
 51
21.2779834735336095
  0
LINE
  5
24569
  8
0
 10
4341.5720647632042528
 20
590.2567431545213594
 30
0.0
 11
4341.5720647632042528
 21
589.8296957565346474
 31
0.0
  0
LINE
  5
2456A
  8
0
 10
4341.5720647632042528
 20
589.8296957565346474
 30
0.0
 11
4342.7220647632047985
 21
589.8296957565346474
 31
0.0
  0
LINE
  5
2456B
  8
0
 10
4341.5770647632052714
 20
589.8296957565346474
 30
0.0
 11
4341.5770647632052714
 21
589.7796957565344655
 31
0.0
  0
LINE
  5
2456C
  8
0
 10
4341.5770647632052714
 20
589.7796957565344655
 30
0.0
 11
4342.7170647632046894
 21
589.7796957565344655
 31
0.0
  0
LINE
  5
2456D
  8
0
 10
4341.6820647632048349
 20
589.7796957565344655
 30
0.0
 11
4341.6820647632048349
 21
589.7446957565346111
 31
0.0
  0
LINE
  5
2456E
  8
0
 10
4341.5870647632045802
 20
589.7446957565346111
 30
0.0
 11
4342.7070647632062901
 21
589.7446957565346111
 31
0.0
  0
LINE
  5
2456F
  8
0
 10
4341.6559040679048849
 20
589.6600066457344838
 30
0.0
 11
4341.6559040679048849
 21
589.7143848674345463
 31
0.0
  0
LINE
  5
24570
  8
0
 10
4341.6559040679048849
 20
589.7143848674345463
 30
0.0
 11
4341.5845647632049804
 21
589.7143848674345463
 31
0.0
  0
ARC
  5
24571
  8
0
 10
4341.8658147631549582
 20
588.9656731770204487
 30
0.0
 40
0.7775806680885227
 50
74.3384946042395001
 51
105.6615053957604999
  0
ARC
  5
24572
  8
0
 10
4341.9969846494095691
 20
590.5076627008849073
 30
0.0
 40
0.4829376168616097
 50
206.6965246694782934
 51
247.5192553889390013
  0
LINE
  5
24573
  8
0
 10
4341.5845647632049804
 20
589.7432538447344541
 30
0.0
 11
4341.5845647632049804
 21
589.6311376684344623
 31
0.0
  0
LINE
  5
24574
  8
0
 10
4341.5870647632045802
 20
589.7446957565346111
 30
0.0
 11
4341.5845647632049804
 21
589.7432538447344541
 31
0.0
  0
LINE
  5
24575
  8
0
 10
4342.0757254585050759
 20
589.7143848674345463
 30
0.0
 11
4342.0757254585050759
 21
589.6600066457344838
 31
0.0
  0
LINE
  5
24576
  8
0
 10
4342.2184040679048849
 20
589.7143848674345463
 30
0.0
 11
4342.0757254585050759
 21
589.7143848674345463
 31
0.0
  0
LINE
  5
24577
  8
0
 10
4341.6559040679048849
 20
589.6600066457344838
 30
0.0
 11
4341.5845647632049804
 21
589.6600066457344838
 31
0.0
  0
ARC
  5
24578
  8
0
 10
4341.8658147631549582
 20
590.408718336148695
 30
0.0
 40
0.7775806680885227
 50
254.3384946042394859
 51
285.6615053957605141
  0
LINE
  5
24579
  8
0
 10
4341.5870647632045802
 20
589.6296957566346464
 30
0.0
 11
4341.5845647632049804
 21
589.6311376684344623
 31
0.0
  0
LINE
  5
2457A
  8
0
 10
4342.2184040679048849
 20
589.6600066457344838
 30
0.0
 11
4342.0757254585050759
 21
589.6600066457344838
 31
0.0
  0
LINE
  5
2457B
  8
0
 10
4341.5870647632045802
 20
589.6296957566346464
 30
0.0
 11
4342.7070647632062901
 21
589.6296957566346464
 31
0.0
  0
ARC
  5
2457C
  8
0
 10
4342.8179955042969596
 20
590.2558818084246468
 30
0.0
 40
0.0959346079557251
 50
158.7220165264664047
 51
179.4855645929602872
  0
LINE
  5
2457D
  8
0
 10
4342.7220647632047985
 20
590.2567431545213594
 30
0.0
 11
4342.7220647632047985
 21
589.8296957565346474
 31
0.0
  0
LINE
  5
2457E
  8
0
 10
4342.7170647632046894
 20
589.8296957565346474
 30
0.0
 11
4342.7170647632046894
 21
589.7796957565344655
 31
0.0
  0
LINE
  5
2457F
  8
0
 10
4342.6120647632051259
 20
589.7796957565344655
 30
0.0
 11
4342.6120647632051259
 21
589.7446957565346111
 31
0.0
  0
LINE
  5
24580
  8
0
 10
4342.6382254585050759
 20
589.6600066457344838
 30
0.0
 11
4342.6382254585050759
 21
589.7143848674345463
 31
0.0
  0
LINE
  5
24581
  8
0
 10
4342.6382254585050759
 20
589.7143848674345463
 30
0.0
 11
4342.7095647632049804
 21
589.7143848674345463
 31
0.0
  0
ARC
  5
24582
  8
0
 10
4342.4283147632550026
 20
588.9656731770204487
 30
0.0
 40
0.7775806680885227
 50
74.3384946042395001
 51
105.6615053957604999
  0
ARC
  5
24583
  8
0
 10
4342.2971448770003917
 20
590.5076627008849073
 30
0.0
 40
0.4829376168616097
 50
292.4807446110609135
 51
333.3034753305216782
  0
LINE
  5
24584
  8
0
 10
4342.7095647632049804
 20
589.7432538447344541
 30
0.0
 11
4342.7095647632049804
 21
589.6311376684344623
 31
0.0
  0
LINE
  5
24585
  8
0
 10
4342.7070647632062901
 20
589.7446957565346111
 30
0.0
 11
4342.7095647632049804
 21
589.7432538447344541
 31
0.0
  0
LINE
  5
24586
  8
0
 10
4342.2184040679048849
 20
589.7143848674345463
 30
0.0
 11
4342.2184040679048849
 21
589.6600066457344838
 31
0.0
  0
LINE
  5
24587
  8
0
 10
4342.6382254585050759
 20
589.6600066457344838
 30
0.0
 11
4342.7095647632049804
 21
589.6600066457344838
 31
0.0
  0
ARC
  5
24588
  8
0
 10
4342.4283147632550026
 20
590.408718336148695
 30
0.0
 40
0.7775806680885227
 50
254.3384946042394859
 51
285.6615053957605141
  0
LINE
  5
24589
  8
0
 10
4342.7070647632062901
 20
589.6296957566346464
 30
0.0
 11
4342.7095647632049804
 21
589.6311376684344623
 31
0.0
  0
ARC
  5
2458A
  8
0
 10
4342.1470647632049804
 20
590.8520648397169452
 30
0.0
 40
0.8585829658751013
 50
247.0531080865009983
 51
292.946891913499087
  0
ARC
  5
2458B
  8
0
 10
4342.1470647632049804
 20
590.5196957565345883
 30
0.0
 40
0.6250000000000006
 50
338.5062401718902265
 51
0.0
  0
ARC
  5
2458D
  8
0
 10
4342.1470647632049804
 20
594.4146957565345701
 30
0.0
 40
0.8248756358999999
 50
8.0349677549940601
 51
171.9650322450058866
  0
VIEWPORT
  5
7BC8
 67
     1
  8
0
 10
8.4975296442687753
 20
4.5
 30
0.0
 40
16.9950592885375507
 41
9.0
 68
     1
 69
     1
1001
ACAD
1000
MVIEW
1002
{
1070
    16
1010
0.0
1020
0.0
1030
0.0
1010
0.0
1020
0.0
1030
1.0
1040
0.0
1040
9.0
1040
8.4975296442687753
1040
4.5
1040
50.0
1040
0.0
1040
0.0
1070
     0
1070
   100
1070
     1
1070
     1
1070
     0
1070
     0
1070
     0
1070
     0
1040
0.0
1040
0.0
1040
0.0
1040
1.0
1040
1.0
1040
0.0
1040
0.0
1070
     0
1002
{
1002
}
1002
}
  0
ENDSEC
  0
EOF
