  0
SECTION
  2
HEADER
  9
$ACADVER
  1
AC1009
  9
$INSBASE
 10
539.630283249586455
 20
-10.8218632422385195
 30
0.0
  9
$EXTMIN
 10
536.0791648741865174
 20
-23.8139892264885198
 30
0.0
  9
$EXTMAX
 10
539.6376611007417523
 20
2.17026274201148
 30
0.0
  9
$LIMMIN
 10
0.0
 20
0.0
  9
$LIMMAX
 10
11.6929133858000007
 20
8.2677165353999982
  9
$ORTHOMODE
 70
     1
  9
$REGENMODE
 70
     1
  9
$FILLMODE
 70
     1
  9
$QTEXTMODE
 70
     0
  9
$MIRRTEXT
 70
     0
  9
$DRAGMODE
 70
     2
  9
$LTSCALE
 40
0.6431102362
  9
$OSMODE
 70
  4095
  9
$ATTMODE
 70
     1
  9
$TEXTSIZE
 40
0.2
  9
$TRACEWID
 40
0.05
  9
$TEXTSTYLE
  7
STANDARD
  9
$CLAYER
  8
0
  9
$CELTYPE
  6
BYLAYER
  9
$CECOLOR
 62
   256
  9
$DIMSCALE
 40
1.0
  9
$DIMASZ
 40
0.1875
  9
$DIMEXO
 40
0.0625
  9
$DIMDLI
 40
0.4443307087
  9
$DIMRND
 40
0.0
  9
$DIMDLE
 40
0.0
  9
$DIMEXE
 40
0.125
  9
$DIMTP
 40
0.01
  9
$DIMTM
 40
0.01
  9
$DIMTXT
 40
1.0
  9
$DIMCEN
 40
0.1052362205
  9
$DIMTSZ
 40
0.0
  9
$DIMTOL
 70
     1
  9
$DIMLIM
 70
     0
  9
$DIMTIH
 70
     1
  9
$DIMTOH
 70
     1
  9
$DIMSE1
 70
     0
  9
$DIMSE2
 70
     0
  9
$DIMTAD
 70
     0
  9
$DIMZIN
 70
     0
  9
$DIMBLK
  1

  9
$DIMASO
 70
     1
  9
$DIMSHO
 70
     1
  9
$DIMPOST
  1
\X
  9
$DIMAPOST
  1

  9
$DIMALT
 70
     1
  9
$DIMALTD
 70
     2
  9
$DIMALTF
 40
25.3999999999999986
  9
$DIMLFAC
 40
1.0
  9
$DIMTOFL
 70
     0
  9
$DIMTVP
 40
0.0
  9
$DIMTIX
 70
     0
  9
$DIMSOXD
 70
     0
  9
$DIMSAH
 70
     0
  9
$DIMBLK1
  1

  9
$DIMBLK2
  1

  9
$DIMSTYLE
  2
STANDARD
  9
$DIMCLRD
 70
     0
  9
$DIMCLRE
 70
     0
  9
$DIMCLRT
 70
     0
  9
$DIMTFAC
 40
1.0
  9
$DIMGAP
 40
0.09
  9
$LUNITS
 70
     2
  9
$LUPREC
 70
     4
  9
$SKETCHINC
 40
0.1
  9
$FILLETRAD
 40
0.0
  9
$AUNITS
 70
     0
  9
$AUPREC
 70
     0
  9
$MENU
  1
.
  9
$ELEVATION
 40
0.0
  9
$PELEVATION
 40
0.0
  9
$THICKNESS
 40
0.0
  9
$LIMCHECK
 70
     0
  9
$BLIPMODE
 70
     0
  9
$CHAMFERA
 40
0.0
  9
$CHAMFERB
 40
0.0
  9
$SKPOLY
 70
     0
  9
$TDCREATE
 40
2458306.6094560190103948
  9
$TDUPDATE
 40
2459891.6242939820513129
  9
$TDINDWG
 40
0.0631456019
  9
$TDUSRTIMER
 40
0.0631454745
  9
$USRTIMER
 70
     1
  9
$ANGBASE
 50
0.0
  9
$ANGDIR
 70
     0
  9
$PDMODE
 70
     0
  9
$PDSIZE
 40
0.3125
  9
$PLINEWID
 40
0.0
  9
$COORDS
 70
     1
  9
$SPLFRAME
 70
     0
  9
$SPLINETYPE
 70
     6
  9
$SPLINESEGS
 70
     8
  9
$ATTDIA
 70
     1
  9
$ATTREQ
 70
     1
  9
$HANDLING
 70
     1
  9
$HANDSEED
  5
1DA3
  9
$SURFTAB1
 70
     6
  9
$SURFTAB2
 70
     6
  9
$SURFTYPE
 70
     6
  9
$SURFU
 70
     6
  9
$SURFV
 70
     6
  9
$UCSNAME
  2

  9
$UCSORG
 10
0.0
 20
0.0
 30
0.0
  9
$UCSXDIR
 10
1.0
 20
0.0
 30
0.0
  9
$UCSYDIR
 10
0.0
 20
1.0
 30
0.0
  9
$PUCSNAME
  2

  9
$PUCSORG
 10
0.0
 20
0.0
 30
0.0
  9
$PUCSXDIR
 10
1.0
 20
0.0
 30
0.0
  9
$PUCSYDIR
 10
0.0
 20
1.0
 30
0.0
  9
$USERI1
 70
     0
  9
$USERI2
 70
     0
  9
$USERI3
 70
     0
  9
$USERI4
 70
     0
  9
$USERI5
 70
     0
  9
$USERR1
 40
0.0
  9
$USERR2
 40
0.0
  9
$USERR3
 40
0.0
  9
$USERR4
 40
0.0
  9
$USERR5
 40
0.0
  9
$WORLDVIEW
 70
     1
  9
$SHADEDGE
 70
     3
  9
$SHADEDIF
 70
    70
  9
$TILEMODE
 70
     1
  9
$MAXACTVP
 70
    64
  9
$PLIMCHECK
 70
     0
  9
$PEXTMIN
 10
1.0000000000000000E+20
 20
1.0000000000000000E+20
 30
1.0000000000000000E+20
  9
$PEXTMAX
 10
-1.0000000000000000E+20
 20
-1.0000000000000000E+20
 30
-1.0000000000000000E+20
  9
$PLIMMIN
 10
0.0
 20
0.0
  9
$PLIMMAX
 10
12.0
 20
9.0
  9
$UNITMODE
 70
     0
  9
$VISRETAIN
 70
     1
  9
$PLINEGEN
 70
     0
  9
$PSLTSCALE
 70
     1
  0
ENDSEC
  0
SECTION
  2
TABLES
  0
TABLE
  2
VPORT
 70
     1
  0
VPORT
  2
*ACTIVE
 70
     0
 10
0.0
 20
0.0
 11
1.0
 21
1.0
 12
0.0
 22
0.0
 13
0.0
 23
0.0
 14
1.0
 24
1.0
 15
0.0
 25
0.0
 16
0.0
 26
0.0
 36
74.5595846281442931
 17
537.8584118493581627
 27
-10.8218634128570503
 37
0.0
 40
26.2267856805248911
 41
2.127494456762749
 42
50.0
 43
0.0
 44
0.0
 50
0.0
 51
0.0
 71
     0
 72
   100
 73
     1
 74
     1
 75
     0
 76
     0
 77
     0
 78
     0
  0
ENDTAB
  0
TABLE
  2
LTYPE
 70
     1
  0
LTYPE
  2
CONTINUOUS
 70
     0
  3
Solid line
 72
    65
 73
     0
 40
0.0
  0
ENDTAB
  0
TABLE
  2
LAYER
 70
     2
  0
LAYER
  2
0
 70
     0
 62
   255
  6
CONTINUOUS
  0
LAYER
  2
DEFPOINT
 70
     0
 62
     7
  6
CONTINUOUS
  0
ENDTAB
  0
TABLE
  2
STYLE
 70
     1
  0
STYLE
  2
STANDARD
 70
     0
 40
0.0
 41
0.8
 50
0.0
 71
     0
 42
0.2
  3
txt
  4

  0
ENDTAB
  0
TABLE
  2
VIEW
 70
     0
  0
ENDTAB
  0
TABLE
  2
UCS
 70
     0
  0
ENDTAB
  0
TABLE
  2
APPID
 70
    10
  0
APPID
  2
ACAD
 70
     0
  0
APPID
  2
ACADANNOTATIVE
 70
     0
  0
APPID
  2
ACAD_MLEADERVER
 70
     0
  0
APPID
  2
ACAD_EXEMPT_FROM_CAD_STANDARDS
 70
     0
  0
APPID
  2
ACAD_DSTYLE_DIMJAG
 70
     0
  0
APPID
  2
ACAD_DSTYLE_DIMTALN
 70
     0
  0
APPID
  2
ACAD_NAV_VCDISPLAY
 70
     0
  0
APPID
  2
ACAECLAYERSTANDARD
 70
     0
  0
APPID
  2
ACCMTRANSPARENCY
 70
     0
  0
APPID
  2
ACDBATTR
 70
     0
  0
ENDTAB
  0
TABLE
  2
DIMSTYLE
 70
     1
  0
DIMSTYLE
  2
STANDARD
 70
     0
  3

  4

  5

  6

  7

 40
1.0
 41
0.1875
 42
0.0625
 43
0.38
 44
0.125
 45
0.0
 46
0.0
 47
0.01
 48
0.01
140
0.15625
141
0.09
142
0.0
143
25.3999999999999986
144
1.0
145
0.0
146
1.0
147
0.09
 71
     1
 72
     0
 73
     1
 74
     1
 75
     0
 76
     0
 77
     0
 78
     4
170
     0
171
     2
172
     0
173
     0
174
     0
175
     0
176
     0
177
     0
178
     0
  0
ENDTAB
  0
ENDSEC
  0
SECTION
  2
BLOCKS
  0
BLOCK
  8
0
  2
$MODEL_SPACE
 70
     0
 10
0.0
 20
0.0
 30
0.0
  3
$MODEL_SPACE
  1

  0
ENDBLK
  5
1598
  8
0
  0
BLOCK
 67
     1
  8
0
  2
$PAPER_SPACE
 70
     0
 10
0.0
 20
0.0
 30
0.0
  3
$PAPER_SPACE
  1

  0
ENDBLK
  5
1594
 67
     1
  8
0
  0
ENDSEC
  0
SECTION
  2
ENTITIES
  0
ATTDEF
  5
659
  8
DEFPOINT
 10
539.6269944340754137
 20
-10.8110524222407403
 30
0.0
 40
0.001
  1
P21629-00
  3

  2
MODELNUMBER
 70
     0
1001
ACDBATTR
1070
     0
1070
     1
  0
ATTDEF
  5
65A
  8
DEFPOINT
 10
539.6269944340754137
 20
-10.8127190889074107
 30
0.0
 40
0.001
  1
ONE
  3

  2
TRADENAME
 70
     0
1001
ACDBATTR
1070
     0
1070
     1
  0
ATTDEF
  5
65B
  8
DEFPOINT
 10
539.6269944340754137
 20
-10.8143857555740706
 30
0.0
 40
0.001
  1
SLIDEBAR
  3

  2
PRODUCT
 70
     0
1001
ACDBATTR
1070
     0
1070
     1
  0
LINE
  5
1CC0
  8
0
 10
536.8842202574865041
 20
-10.3552306135929797
 30
0.0
 11
536.8842202574865041
 21
-10.4297532352885103
 31
0.0
  0
LINE
  5
1CC1
  8
0
 10
536.8842202574865041
 20
-9.3284411469840478
 30
0.0
 11
536.8842202574865041
 21
-9.2539185252885154
 31
0.0
  0
LINE
  5
1CC2
  8
0
 10
537.7306769503863961
 20
-10.3552306135105496
 30
0.0
 11
537.7306769503863961
 21
-10.4297532352885103
 31
0.0
  0
LINE
  5
1CC3
  8
0
 10
537.7306769503863961
 20
-9.3284411470664832
 30
0.0
 11
537.7306769503863961
 21
-9.2539185252885154
 31
0.0
  0
LINE
  5
1CC4
  8
0
 10
539.2366293312865082
 20
0.6308926632114833
 30
0.0
 11
539.2464249818865483
 21
-0.1919419823885171
 31
0.0
  0
LINE
  5
1CC5
  8
0
 10
539.2366293312865082
 20
0.6308926632114833
 30
0.0
 11
539.2366293312865082
 21
1.347428096311482
 31
0.0
  0
LINE
  5
1CC6
  8
0
 10
539.630283249586455
 20
-0.1919419823885171
 30
0.0
 11
539.630283249586455
 21
2.17026274201148
 31
0.0
  0
LINE
  5
1CC7
  8
0
 10
539.2366293312865082
 20
1.347428096311482
 30
0.0
 11
539.2464249818865483
 21
2.17026274201148
 31
0.0
  0
LINE
  5
1CC8
  8
0
 10
539.2464249818865483
 20
-0.1919419823885171
 30
0.0
 11
539.4261208027864996
 21
-0.1919419823885171
 31
0.0
  0
LINE
  5
1CC9
  8
0
 10
539.6072376075863986
 20
-0.1919419823885171
 30
0.0
 11
539.630283249586455
 21
-0.1919419823885171
 31
0.0
  0
LINE
  5
1CCA
  8
0
 10
537.7011493891865257
 20
0.6348296711114827
 30
0.0
 11
539.2366293312865082
 21
0.6348296711114827
 31
0.0
  0
LINE
  5
1CCB
  8
0
 10
537.701149391286549
 20
1.3434910884114819
 30
0.0
 11
539.2366293312865082
 21
1.3434910884114819
 31
0.0
  0
LINE
  5
1CCC
  8
0
 10
539.2464249818865483
 20
2.17026274201148
 30
0.0
 11
539.630283249586455
 21
2.17026274201148
 31
0.0
  0
ARC
  5
1CCD
  8
0
 10
111.6833059399864965
 20
-9.8422224867885149
 30
0.0
 40
425.7773897752999801
 50
359.8396226497999919
 51
359.9663854945000026
  0
ARC
  5
1CCE
  8
0
 10
537.2452891335168488
 20
-407.9045691513651946
 30
0.0
 40
398.215915742426489
 50
90.0270530936154074
 51
90.1625894905796059
  0
ARC
  5
1CCF
  8
0
 10
536.1153486143864484
 20
-9.9634151204885164
 30
0.0
 40
0.03
 50
185.8233159581999985
 51
269.8395617263984718
  0
ARC
  5
1CD0
  8
0
 10
537.1858693636863791
 20
-11.0339358698885093
 30
0.0
 40
0.03
 50
180.1604382735999081
 51
264.1766840418014226
  0
ARC
  5
1CD1
  8
0
 10
537.2454392233970566
 20
388.3457451490277208
 30
0.0
 40
398.3407634240164157
 50
269.8374398798159177
 51
269.9729337938915137
  0
ARC
  5
1CD2
  8
0
 10
111.9350758037865035
 20
-9.8410230525885183
 30
0.0
 40
425.5256197048000217
 50
0.0335770062999869
 51
0.1604148510000541
  0
ARC
  5
1CD3
  8
0
 10
536.1153486143864484
 20
-9.7202566400885182
 30
0.0
 40
0.03
 50
90.1604382736015282
 51
174.1766840418000015
  0
ARC
  5
1CD4
  8
0
 10
537.1858701904102418
 20
-8.6497366394437272
 30
0.0
 40
0.0300008287858197
 50
95.8247416120872373
 51
179.8381363440369114
  0
ARC
  5
1CD5
  8
0
 10
537.3692431123334927
 20
-408.1250853127768892
 30
0.0
 40
398.4364320516758085
 50
89.8374480131772799
 51
89.9729093937008315
  0
ARC
  5
1CD6
  8
0
 10
962.6798214039864661
 20
-9.8426487079885163
 30
0.0
 40
425.5256197048000217
 50
180.0335770062999927
 51
180.160414850999814
  0
ARC
  5
1CD7
  8
0
 10
538.4995485878262116
 20
-9.9634151142291572
 30
0.0
 40
0.0300000062710333
 50
270.1604488878411985
 51
354.176673239459717
  0
ARC
  5
1CD8
  8
0
 10
537.42902701748244
 20
-11.0339351211410204
 30
0.0
 40
0.0300008287659875
 50
275.8247413860124198
 51
359.8381363502010117
  0
ARC
  5
1CD9
  8
0
 10
537.3074486038865416
 20
-9.8418229843790996
 30
0.0
 40
1.2282709003405849
 50
84.1766230067228065
 51
95.8233769932771935
  0
ARC
  5
1CDA
  8
0
 10
537.3074486038865416
 20
-9.8418358802885173
 30
0.0
 40
1.2282837296999991
 50
174.1766840419001028
 51
185.823315958099613
  0
ARC
  5
1CDB
  8
0
 10
537.3074486038865416
 20
-9.8418229647311009
 30
0.0
 40
1.228296578607414
 50
264.1767451687881021
 51
275.8232548312053041
  0
ARC
  5
1CDC
  8
0
 10
537.3074486038865416
 20
-9.8418358802885173
 30
0.0
 40
1.2282837296999991
 50
354.1766840419001028
 51
5.8233159580996707
  0
ARC
  5
1CDD
  8
0
 10
537.3074486038865416
 20
-9.8418358802885173
 30
0.0
 40
0.7244094487999999
 50
102.1654648094363012
 51
125.7492562355996029
  0
ARC
  5
1CDE
  8
0
 10
537.3074486038865416
 20
-9.8418358802885173
 30
0.0
 40
0.7244094487999999
 50
54.2507437644003687
 51
77.8345227213601731
  0
ARC
  5
1CDF
  8
0
 10
537.3074486038865416
 20
-9.8418358802885173
 30
0.0
 40
0.7244094487999999
 50
282.165464817525617
 51
305.7492562355997165
  0
ARC
  5
1CE0
  8
0
 10
537.3074486038865416
 20
-9.8418358802885173
 30
0.0
 40
0.7244094487999999
 50
234.2507437644003971
 51
257.834522721353494
  0
ARC
  5
1CE1
  8
0
 10
537.3074486038865416
 20
-9.8418358802885173
 30
0.0
 40
0.6653543307000001
 50
13.2723417788739493
 51
76.7273590223706208
  0
ARC
  5
1CE2
  8
0
 10
537.3074486038865416
 20
-9.8418358802885173
 30
0.0
 40
0.6653543307000001
 50
283.2726276738716251
 51
346.7276459774802788
  0
ARC
  5
1CE3
  8
0
 10
537.3074486038865416
 20
-9.8418358802885173
 30
0.0
 40
0.6653543307000001
 50
193.2723407184745099
 51
256.7273590223639985
  0
ARC
  5
1CE4
  8
0
 10
537.3074486038865416
 20
-9.8418358802885173
 30
0.0
 40
0.6653543307000001
 50
103.2726276650304982
 51
166.7276449090680046
  0
ARC
  5
1CE5
  8
0
 10
537.3074486038865416
 20
-9.8418358802885173
 30
0.0
 40
0.3228346457
 50
298.320244383318709
 51
331.6862233229584263
  0
ARC
  5
1CE6
  8
0
 10
537.3074486038865416
 20
-9.8418358802885173
 30
0.0
 40
0.3228346457
 50
28.3137964447493786
 51
61.6797513020089028
  0
ARC
  5
1CE7
  8
0
 10
537.3074486038865416
 20
-9.8418358802885173
 30
0.0
 40
0.3228346457
 50
118.3202443631622032
 51
151.6861992273283875
  0
ARC
  5
1CE8
  8
0
 10
537.3074486038865416
 20
-9.8418358802885173
 30
0.0
 40
0.3228346457
 50
208.3137723511536024
 51
241.679751301994088
  0
ARC
  5
1CE9
  8
0
 10
537.3074486038865416
 20
-9.8418358802885173
 30
0.0
 40
0.28
 50
216.2456853342009993
 51
233.7560263419007924
  0
ARC
  5
1CEA
  8
0
 10
537.3074486038865416
 20
-9.8418358802885173
 30
0.0
 40
0.28
 50
36.2456874841003724
 51
53.7560263419008209
  0
ARC
  5
1CEB
  8
0
 10
537.3074486038865416
 20
-9.8418358802885173
 30
0.0
 40
0.28
 50
126.2455118523017035
 51
143.7560262977004868
  0
ARC
  5
1CEC
  8
0
 10
537.3074486038865416
 20
-9.8418358802885173
 30
0.0
 40
0.28
 50
306.2455118523017745
 51
323.7544769330996814
  0
ARC
  5
1CED
  8
0
 10
537.4290278440864768
 20
-8.6497358906885182
 30
0.0
 40
0.03
 50
0.1604382736001208
 51
84.1766840418014226
  0
ARC
  5
1CEE
  8
0
 10
538.4995478447308415
 20
-9.7202574668125408
 30
0.0
 40
0.0300008287863063
 50
5.824741612440369
 51
89.838136304751373
  0
ARC
  5
1CEF
  8
0
 10
537.3698225791335972
 20
388.1254064308133138
 30
0.0
 40
398.1204245582296153
 50
270.0270287118327133
 51
270.1625976178572159
  0
ARC
  5
1CF0
  8
0
 10
962.931591266186615
 20
-9.8414492737885162
 30
0.0
 40
425.7773897736000208
 50
179.8396226497999919
 51
179.9663854944998889
  0
LINE
  5
1CF1
  8
0
 10
536.9334328558863945
 20
-23.7155640296885188
 30
0.0
 11
537.6814643519865058
 21
-23.7155640296885188
 31
0.0
  0
LINE
  5
1CF2
  8
0
 10
536.9137478165863513
 20
-23.6171388327885197
 30
0.0
 11
537.7011493912864353
 21
-23.6171388327885197
 31
0.0
  0
LINE
  5
1CF3
  8
0
 10
536.9137478165863513
 20
-10.44992200871941
 30
0.0
 11
536.9137478165863513
 21
-23.6958789902885201
 31
0.0
  0
ARC
  5
1CF4
  8
0
 10
536.9366272496693
 20
-23.6926845965057318
 30
0.0
 40
0.0231013552504038
 50
187.9481751509567005
 51
262.0518248490417932
  0
LINE
  5
1CF5
  8
0
 10
537.7011493912864353
 20
-10.4499220086546707
 30
0.0
 11
537.7011493912864353
 21
-22.2785561556885199
 31
0.0
  0
LINE
  5
1CF6
  8
0
 10
537.7011493912864353
 20
-22.98721757298852
 30
0.0
 11
537.7011493912864353
 21
-23.6958789902885201
 31
0.0
  0
ARC
  5
1CF7
  8
0
 10
537.6782699582037139
 20
-23.6926845965057318
 30
0.0
 40
0.0231013552504038
 50
277.9481751509582068
 51
352.0518248490431006
  0
LINE
  5
1CF8
  8
0
 10
536.9137478165863513
 20
2.0521525058114838
 30
0.0
 11
536.9137478165863513
 21
-9.2337497518576193
 31
0.0
  0
LINE
  5
1CF9
  8
0
 10
536.9137478165863513
 20
1.973412348311484
 30
0.0
 11
537.7011493912864353
 21
1.973412348311484
 31
0.0
  0
LINE
  5
1CFA
  8
0
 10
537.6814611102864774
 20
2.0718375451114852
 30
0.0
 11
536.9334360975865366
 21
2.0718375451114852
 31
0.0
  0
ARC
  5
1CFB
  8
0
 10
536.9355401359268853
 20
2.0500448789038179
 30
0.0
 40
0.0218940009540683
 50
95.5147001935377631
 51
174.4758649172896128
  0
LINE
  5
1CFC
  8
0
 10
537.7011493912864353
 20
2.0521525058114838
 30
0.0
 11
537.7011493912864353
 21
1.343491088411489
 31
0.0
  0
LINE
  5
1CFD
  8
0
 10
537.7011493912864353
 20
0.6348296711114827
 30
0.0
 11
537.7011493912864353
 21
-9.2337497519223568
 31
0.0
  0
ARC
  5
1CFE
  8
0
 10
537.6793570719460149
 20
2.0500448789038179
 30
0.0
 40
0.0218940009540683
 50
5.5241350827103552
 51
84.4852998064622653
  0
ARC
  5
1CFF
  8
0
 10
539.5166792052365281
 20
-1.346628230011528
 30
0.0
 40
1.1582319088610911
 50
85.5156516619071141
 51
94.4843483380928859
  0
ARC
  5
1D00
  8
0
 10
537.7005309547419074
 20
0.9884563778199577
 30
0.0
 40
0.22145668151359
 50
141.6624327121070053
 51
219.9633533898087023
  0
ARC
  5
1D01
  8
0
 10
538.9386959490908566
 20
0.1737406772191292
 30
0.0
 40
1.702890926400902
 50
136.6131813557707915
 51
146.006521322033791
  0
ARC
  5
1D02
  8
0
 10
538.9709184488622213
 20
1.8324702922599549
 30
0.0
 40
1.745467422306844
 50
214.4049129864415022
 51
223.3255806371365964
  0
LINE
  5
1D03
  8
0
 10
539.2366293312865082
 20
-22.9911545808885194
 30
0.0
 11
539.2464249818865483
 21
-23.8139892264885198
 31
0.0
  0
LINE
  5
1D04
  8
0
 10
539.2366293312865082
 20
-22.9911545808885194
 30
0.0
 11
539.2366293312865082
 21
-22.2746191477885205
 31
0.0
  0
LINE
  5
1D05
  8
0
 10
539.630283249586455
 20
-23.8139892264885198
 30
0.0
 11
539.630283249586455
 21
-21.4517845020885183
 31
0.0
  0
LINE
  5
1D06
  8
0
 10
539.2366293312865082
 20
-22.2746191477885205
 30
0.0
 11
539.2464249818865483
 21
-21.4517845020885183
 31
0.0
  0
LINE
  5
1D07
  8
0
 10
539.2464249818865483
 20
-23.8139892264885198
 30
0.0
 11
539.4261208027864996
 21
-23.8139892264885198
 31
0.0
  0
LINE
  5
1D08
  8
0
 10
539.6072376075863986
 20
-23.8139892264885198
 30
0.0
 11
539.630283249586455
 21
-23.8139892264885198
 31
0.0
  0
LINE
  5
1D09
  8
0
 10
537.7011493891865257
 20
-22.98721757298852
 30
0.0
 11
539.2366293312865082
 21
-22.98721757298852
 31
0.0
  0
LINE
  5
1D0A
  8
0
 10
537.701149391286549
 20
-22.2785561556885199
 30
0.0
 11
539.2366293312865082
 21
-22.2785561556885199
 31
0.0
  0
LINE
  5
1D0B
  8
0
 10
539.2464249818865483
 20
-21.4517845020885183
 30
0.0
 11
539.630283249586455
 21
-21.4517845020885183
 31
0.0
  0
ARC
  5
1D0C
  8
0
 10
539.5166792052365281
 20
-24.9686754741115315
 30
0.0
 40
1.1582319088610911
 50
85.5156516619071141
 51
94.4843483380928859
  0
ARC
  5
1D0D
  8
0
 10
537.7005309547419074
 20
-22.6335908662800485
 30
0.0
 40
0.22145668151359
 50
141.6624327121070053
 51
219.9633533898087023
  0
ARC
  5
1D0E
  8
0
 10
538.9386959490908566
 20
-23.4483065668808699
 30
0.0
 40
1.702890926400902
 50
136.6131813557707915
 51
146.006521322033791
  0
ARC
  5
1D0F
  8
0
 10
538.9709184488622213
 20
-21.7895769518400506
 30
0.0
 40
1.745467422306844
 50
214.4049129864415022
 51
223.3255806371365964
  0
ARC
  5
1D10
  8
0
 10
537.0571128653888309
 20
-10.0253965748661091
 30
0.0
 40
0.0304231278231388
 50
36.300245665755142
 51
89.7129579002738069
  0
ARC
  5
1D11
  8
0
 10
537.1236873432786751
 20
-10.0922286520957805
 30
0.0
 40
0.0305881423676375
 50
0.3923725179742675
 51
53.4445545360814975
  0
ARC
  5
1D12
  8
0
 10
537.491194322602496
 20
-10.0922208085414393
 30
0.0
 40
0.0305725481137315
 50
126.5267159926243039
 51
179.6221048976512122
  0
ARC
  5
1D13
  8
0
 10
537.5579548565192454
 20
-10.0257313351723294
 30
0.0
 40
0.030759201761936
 50
90.6015759127408842
 51
143.3837651410819092
  0
ARC
  5
1D14
  8
0
 10
537.4904391303401781
 20
-9.5918344365799868
 30
0.0
 40
0.0298172455376792
 50
179.650549195907189
 51
234.1863778583498004
  0
ARC
  5
1D15
  8
0
 10
537.5579558568176708
 20
-9.6579381427739506
 30
0.0
 40
0.0307613609360012
 50
216.617039576706901
 51
269.3966447150439194
  0
ARC
  5
1D16
  8
0
 10
537.1242496089075757
 20
-9.5917286277907507
 30
0.0
 40
0.0300252557898254
 50
306.0037252976254081
 51
0.1450952162558718
  0
ARC
  5
1D17
  8
0
 10
537.0571100091945027
 20
-9.6582692264527807
 30
0.0
 40
0.0304289679380208
 50
270.2924058012093838
 51
323.6781449908879722
  0
ENDSEC
  0
EOF
